  0
SECTION
  2
HEADER
  9
$EXTNAMES
290
1
  9
$EXTMIN
 10
46.22506
 20
-198.403332
 30
0.00
  9
$EXTMAX
 10
393.33006
 20
-69.003332
 30
0.00
  0
ENDSEC
  0
SECTION
  2
TABLES
  0
TABLE
  2
LTYPE
 70
3
  0
LTYPE
  2
BYBLOCK
 70
0
  3

 72
65
 73
0
 40
0.00
  0
LTYPE
  2
BYLAYER
 70
0
  3

 72
65
 73
0
 40
0.00
  0
LTYPE
  2
CONTINUOUS
 70
0
  3
Solid line
 72
65
 73
0
 40
0.00
  0
ENDTAB
  0
TABLE
  2
LAYER
 70
4
  0
LAYER
  2
0
 70
0
 62
7
  6
CONTINUOUS
  0
LAYER
  2
8XV3_EC_PLATE_MIX_ISO-B_MASK_GB
 70
0
 62
7
  6
CONTINUOUS
  0
LAYER
  2
8XV3_EC_PLATE_MIX_ISO-EDGE_CUTS
 70
0
 62
7
  6
CONTINUOUS
  0
LAYER
  2
8XV3_EC_PLATE_MIX_ISO-NPTH_DRL
 70
0
 62
2
  6
CONTINUOUS
  0
ENDTAB
  0
TABLE
  2
STYLE
 70
0
  0
ENDTAB
  0
ENDSEC
  0
SECTION
  2
BLOCKS
  0
BLOCK
  2
ROUND_1
  3
ROUND_1
 70
64
 10
0.00
 20
0.00
 30
0.00
  0
CIRCLE
  8
0
 10
0.00
 20
0.00
 30
0.00
 40
0.90
  0
ENDBLK
  0
BLOCK
  2
ROUND_2
  3
ROUND_2
 70
64
 10
0.00
 20
0.00
 30
0.00
  0
CIRCLE
  8
0
 10
0.00
 20
0.00
 30
0.00
 40
0.10
  0
ENDBLK
  0
BLOCK
  2
ROUND_3
  3
ROUND_3
 70
64
 10
0.00
 20
0.00
 30
0.00
  0
CIRCLE
  8
0
 10
0.00
 20
0.00
 30
0.00
 40
0.90043
  0
ENDBLK
  0
ENDSEC
  0
SECTION
  2
ENTITIES
  0
INSERT
  2
ROUND_1
  8
8XV3_EC_PLATE_MIX_ISO-B_MASK_GB
 10
288.23756
 20
-146.203332
 30
0.00
 41
1.00
 42
1.00
 50
0.00
  0
INSERT
  2
ROUND_1
  8
8XV3_EC_PLATE_MIX_ISO-B_MASK_GB
 10
167.002148
 20
-184.303332
 30
0.00
 41
1.00
 42
1.00
 50
0.00
  0
INSERT
  2
ROUND_1
  8
8XV3_EC_PLATE_MIX_ISO-B_MASK_GB
 10
97.73756
 20
-146.203332
 30
0.00
 41
1.00
 42
1.00
 50
0.00
  0
INSERT
  2
ROUND_1
  8
8XV3_EC_PLATE_MIX_ISO-B_MASK_GB
 10
47.731362
 20
-146.203332
 30
0.00
 41
1.00
 42
1.00
 50
0.00
  0
INSERT
  2
ROUND_1
  8
8XV3_EC_PLATE_MIX_ISO-B_MASK_GB
 10
209.447972
 20
-184.303332
 30
0.00
 41
1.00
 42
1.00
 50
0.00
  0
INSERT
  2
ROUND_1
  8
8XV3_EC_PLATE_MIX_ISO-B_MASK_GB
 10
95.35631
 20
-184.303332
 30
0.00
 41
1.00
 42
1.00
 50
0.00
  0
INSERT
  2
ROUND_1
  8
8XV3_EC_PLATE_MIX_ISO-B_MASK_GB
 10
47.731196
 20
-184.303332
 30
0.00
 41
1.00
 42
1.00
 50
0.00
  0
INSERT
  2
ROUND_1
  8
8XV3_EC_PLATE_MIX_ISO-B_MASK_GB
 10
188.22756
 20
-83.103332
 30
0.00
 41
1.00
 42
1.00
 50
0.00
  0
INSERT
  2
ROUND_1
  8
8XV3_EC_PLATE_MIX_ISO-B_MASK_GB
 10
245.37506
 20
-127.153332
 30
0.00
 41
1.00
 42
1.00
 50
0.00
  0
INSERT
  2
ROUND_1
  8
8XV3_EC_PLATE_MIX_ISO-B_MASK_GB
 10
192.98756
 20
-146.203332
 30
0.00
 41
1.00
 42
1.00
 50
0.00
  0
INSERT
  2
ROUND_1
  8
8XV3_EC_PLATE_MIX_ISO-B_MASK_GB
 10
71.54381
 20
-127.153332
 30
0.00
 41
1.00
 42
1.00
 50
0.00
  0
INSERT
  2
ROUND_1
  8
8XV3_EC_PLATE_MIX_ISO-B_MASK_GB
 10
150.12506
 20
-127.153332
 30
0.00
 41
1.00
 42
1.00
 50
0.00
  0
INSERT
  2
ROUND_1
  8
8XV3_EC_PLATE_MIX_ISO-B_MASK_GB
 10
197.75006
 20
-108.103332
 30
0.00
 41
1.00
 42
1.00
 50
0.00
  0
INSERT
  2
ROUND_1
  8
8XV3_EC_PLATE_MIX_ISO-B_MASK_GB
 10
273.95006
 20
-108.103332
 30
0.00
 41
1.00
 42
1.00
 50
0.00
  0
INSERT
  2
ROUND_1
  8
8XV3_EC_PLATE_MIX_ISO-B_MASK_GB
 10
121.55006
 20
-108.103332
 30
0.00
 41
1.00
 42
1.00
 50
0.00
  0
INSERT
  2
ROUND_1
  8
8XV3_EC_PLATE_MIX_ISO-B_MASK_GB
 10
140.60006
 20
-83.103332
 30
0.00
 41
1.00
 42
1.00
 50
0.00
  0
INSERT
  2
ROUND_1
  8
8XV3_EC_PLATE_MIX_ISO-B_MASK_GB
 10
240.61256
 20
-165.253332
 30
0.00
 41
1.00
 42
1.00
 50
0.00
  0
INSERT
  2
ROUND_1
  8
8XV3_EC_PLATE_MIX_ISO-B_MASK_GB
 10
250.14131
 20
-83.103332
 30
0.00
 41
1.00
 42
1.00
 50
0.00
  0
INSERT
  2
ROUND_1
  8
8XV3_EC_PLATE_MIX_ISO-B_MASK_GB
 10
335.857892
 20
-146.203332
 30
0.00
 41
1.00
 42
1.00
 50
0.00
  0
INSERT
  2
ROUND_1
  8
8XV3_EC_PLATE_MIX_ISO-B_MASK_GB
 10
88.21256
 20
-165.253332
 30
0.00
 41
1.00
 42
1.00
 50
0.00
  0
INSERT
  2
ROUND_1
  8
8XV3_EC_PLATE_MIX_ISO-B_MASK_GB
 10
64.40006
 20
-108.103332
 30
0.00
 41
1.00
 42
1.00
 50
0.00
  0
INSERT
  2
ROUND_1
  8
8XV3_EC_PLATE_MIX_ISO-B_MASK_GB
 10
281.09381
 20
-184.303332
 30
0.00
 41
1.00
 42
1.00
 50
0.00
  0
INSERT
  2
ROUND_1
  8
8XV3_EC_PLATE_MIX_ISO-B_MASK_GB
 10
331.69631
 20
-184.303332
 30
0.00
 41
1.00
 42
1.00
 50
0.00
  0
INSERT
  2
ROUND_1
  8
8XV3_EC_PLATE_MIX_ISO-B_MASK_GB
 10
375.15506
 20
-184.303332
 30
0.00
 41
1.00
 42
1.00
 50
0.00
  0
INSERT
  2
ROUND_1
  8
8XV3_EC_PLATE_MIX_ISO-B_MASK_GB
 10
384.68006
 20
-165.253332
 30
0.00
 41
1.00
 42
1.00
 50
0.00
  0
INSERT
  2
ROUND_1
  8
8XV3_EC_PLATE_MIX_ISO-B_MASK_GB
 10
126.31256
 20
-165.253332
 30
0.00
 41
1.00
 42
1.00
 50
0.00
  0
INSERT
  2
ROUND_1
  8
8XV3_EC_PLATE_MIX_ISO-B_MASK_GB
 10
73.92506
 20
-83.103332
 30
0.00
 41
1.00
 42
1.00
 50
0.00
  0
INSERT
  2
ROUND_1
  8
8XV3_EC_PLATE_MIX_ISO-B_MASK_GB
 10
356.10506
 20
-108.103332
 30
0.00
 41
1.00
 42
1.00
 50
0.00
  0
INSERT
  2
ROUND_1
  8
8XV3_EC_PLATE_MIX_ISO-B_MASK_GB
 10
375.15506
 20
-127.153332
 30
0.00
 41
1.00
 42
1.00
 50
0.00
  0
INSERT
  2
ROUND_1
  8
8XV3_EC_PLATE_MIX_ISO-B_MASK_GB
 10
312.05506
 20
-83.103332
 30
0.00
 41
1.00
 42
1.00
 50
0.00
  0
INSERT
  2
ROUND_1
  8
8XV3_EC_PLATE_MIX_ISO-B_MASK_GB
 10
384.68006
 20
-95.603332
 30
0.00
 41
1.00
 42
1.00
 50
0.00
  0
INSERT
  2
ROUND_1
  8
8XV3_EC_PLATE_MIX_ISO-B_MASK_GB
 10
356.10506
 20
-83.103332
 30
0.00
 41
1.00
 42
1.00
 50
0.00
  0
POLYLINE
  8
8XV3_EC_PLATE_MIX_ISO-EDGE_CUTS
 66
1
 10
0.00
 20
0.00
 30
0.00
 40
0.20
 41
0.20
  0
VERTEX
  8
8XV3_EC_PLATE_MIX_ISO-EDGE_CUTS
 10
358.28006
 20
-178.253332
 30
0.00
  0
VERTEX
  8
8XV3_EC_PLATE_MIX_ISO-EDGE_CUTS
 10
359.28006
 20
-177.253332
 30
0.00
  0
SEQEND
  0
POLYLINE
  8
8XV3_EC_PLATE_MIX_ISO-EDGE_CUTS
 66
1
 10
0.00
 20
0.00
 30
0.00
 40
0.20
 41
0.20
  0
VERTEX
  8
8XV3_EC_PLATE_MIX_ISO-EDGE_CUTS
 10
358.28006
 20
-190.353332
 30
0.00
  0
VERTEX
  8
8XV3_EC_PLATE_MIX_ISO-EDGE_CUTS
 10
358.28006
 20
-178.253332
 30
0.00
  0
SEQEND
  0
POLYLINE
  8
8XV3_EC_PLATE_MIX_ISO-EDGE_CUTS
 66
1
 10
0.00
 20
0.00
 30
0.00
 40
0.20
 41
0.20
  0
VERTEX
  8
8XV3_EC_PLATE_MIX_ISO-EDGE_CUTS
 10
359.28006
 20
-191.353332
 30
0.00
  0
VERTEX
  8
8XV3_EC_PLATE_MIX_ISO-EDGE_CUTS
 10
358.28006
 20
-190.353332
 30
0.00
  0
SEQEND
  0
POLYLINE
  8
8XV3_EC_PLATE_MIX_ISO-EDGE_CUTS
 66
1
 10
0.00
 20
0.00
 30
0.00
 40
0.20
 41
0.20
  0
VERTEX
  8
8XV3_EC_PLATE_MIX_ISO-EDGE_CUTS
 10
371.98006
 20
-191.353332
 30
0.00
  0
VERTEX
  8
8XV3_EC_PLATE_MIX_ISO-EDGE_CUTS
 10
359.28006
 20
-191.353332
 30
0.00
  0
SEQEND
  0
POLYLINE
  8
8XV3_EC_PLATE_MIX_ISO-EDGE_CUTS
 66
1
 10
0.00
 20
0.00
 30
0.00
 40
0.20
 41
0.20
  0
VERTEX
  8
8XV3_EC_PLATE_MIX_ISO-EDGE_CUTS
 10
372.98006
 20
-190.353332
 30
0.00
  0
VERTEX
  8
8XV3_EC_PLATE_MIX_ISO-EDGE_CUTS
 10
371.98006
 20
-191.353332
 30
0.00
  0
SEQEND
  0
POLYLINE
  8
8XV3_EC_PLATE_MIX_ISO-EDGE_CUTS
 66
1
 10
0.00
 20
0.00
 30
0.00
 40
0.20
 41
0.20
  0
VERTEX
  8
8XV3_EC_PLATE_MIX_ISO-EDGE_CUTS
 10
372.98006
 20
-178.253332
 30
0.00
  0
VERTEX
  8
8XV3_EC_PLATE_MIX_ISO-EDGE_CUTS
 10
372.98006
 20
-190.353332
 30
0.00
  0
SEQEND
  0
POLYLINE
  8
8XV3_EC_PLATE_MIX_ISO-EDGE_CUTS
 66
1
 10
0.00
 20
0.00
 30
0.00
 40
0.20
 41
0.20
  0
VERTEX
  8
8XV3_EC_PLATE_MIX_ISO-EDGE_CUTS
 10
371.98006
 20
-177.253332
 30
0.00
  0
VERTEX
  8
8XV3_EC_PLATE_MIX_ISO-EDGE_CUTS
 10
372.98006
 20
-178.253332
 30
0.00
  0
SEQEND
  0
POLYLINE
  8
8XV3_EC_PLATE_MIX_ISO-EDGE_CUTS
 66
1
 10
0.00
 20
0.00
 30
0.00
 40
0.20
 41
0.20
  0
VERTEX
  8
8XV3_EC_PLATE_MIX_ISO-EDGE_CUTS
 10
359.28006
 20
-177.253332
 30
0.00
  0
VERTEX
  8
8XV3_EC_PLATE_MIX_ISO-EDGE_CUTS
 10
371.98006
 20
-177.253332
 30
0.00
  0
SEQEND
  0
POLYLINE
  8
8XV3_EC_PLATE_MIX_ISO-EDGE_CUTS
 66
1
 10
0.00
 20
0.00
 30
0.00
 40
0.20
 41
0.20
  0
VERTEX
  8
8XV3_EC_PLATE_MIX_ISO-EDGE_CUTS
 10
377.33006
 20
-178.253332
 30
0.00
  0
VERTEX
  8
8XV3_EC_PLATE_MIX_ISO-EDGE_CUTS
 10
378.33006
 20
-177.253332
 30
0.00
  0
SEQEND
  0
POLYLINE
  8
8XV3_EC_PLATE_MIX_ISO-EDGE_CUTS
 66
1
 10
0.00
 20
0.00
 30
0.00
 40
0.20
 41
0.20
  0
VERTEX
  8
8XV3_EC_PLATE_MIX_ISO-EDGE_CUTS
 10
377.33006
 20
-190.353332
 30
0.00
  0
VERTEX
  8
8XV3_EC_PLATE_MIX_ISO-EDGE_CUTS
 10
377.33006
 20
-178.253332
 30
0.00
  0
SEQEND
  0
POLYLINE
  8
8XV3_EC_PLATE_MIX_ISO-EDGE_CUTS
 66
1
 10
0.00
 20
0.00
 30
0.00
 40
0.20
 41
0.20
  0
VERTEX
  8
8XV3_EC_PLATE_MIX_ISO-EDGE_CUTS
 10
378.33006
 20
-191.353332
 30
0.00
  0
VERTEX
  8
8XV3_EC_PLATE_MIX_ISO-EDGE_CUTS
 10
377.33006
 20
-190.353332
 30
0.00
  0
SEQEND
  0
POLYLINE
  8
8XV3_EC_PLATE_MIX_ISO-EDGE_CUTS
 66
1
 10
0.00
 20
0.00
 30
0.00
 40
0.20
 41
0.20
  0
VERTEX
  8
8XV3_EC_PLATE_MIX_ISO-EDGE_CUTS
 10
391.03006
 20
-191.353332
 30
0.00
  0
VERTEX
  8
8XV3_EC_PLATE_MIX_ISO-EDGE_CUTS
 10
378.33006
 20
-191.353332
 30
0.00
  0
SEQEND
  0
POLYLINE
  8
8XV3_EC_PLATE_MIX_ISO-EDGE_CUTS
 66
1
 10
0.00
 20
0.00
 30
0.00
 40
0.20
 41
0.20
  0
VERTEX
  8
8XV3_EC_PLATE_MIX_ISO-EDGE_CUTS
 10
392.03006
 20
-190.353332
 30
0.00
  0
VERTEX
  8
8XV3_EC_PLATE_MIX_ISO-EDGE_CUTS
 10
391.03006
 20
-191.353332
 30
0.00
  0
SEQEND
  0
POLYLINE
  8
8XV3_EC_PLATE_MIX_ISO-EDGE_CUTS
 66
1
 10
0.00
 20
0.00
 30
0.00
 40
0.20
 41
0.20
  0
VERTEX
  8
8XV3_EC_PLATE_MIX_ISO-EDGE_CUTS
 10
392.03006
 20
-178.253332
 30
0.00
  0
VERTEX
  8
8XV3_EC_PLATE_MIX_ISO-EDGE_CUTS
 10
392.03006
 20
-190.353332
 30
0.00
  0
SEQEND
  0
POLYLINE
  8
8XV3_EC_PLATE_MIX_ISO-EDGE_CUTS
 66
1
 10
0.00
 20
0.00
 30
0.00
 40
0.20
 41
0.20
  0
VERTEX
  8
8XV3_EC_PLATE_MIX_ISO-EDGE_CUTS
 10
391.03006
 20
-177.253332
 30
0.00
  0
VERTEX
  8
8XV3_EC_PLATE_MIX_ISO-EDGE_CUTS
 10
392.03006
 20
-178.253332
 30
0.00
  0
SEQEND
  0
POLYLINE
  8
8XV3_EC_PLATE_MIX_ISO-EDGE_CUTS
 66
1
 10
0.00
 20
0.00
 30
0.00
 40
0.20
 41
0.20
  0
VERTEX
  8
8XV3_EC_PLATE_MIX_ISO-EDGE_CUTS
 10
378.33006
 20
-177.253332
 30
0.00
  0
VERTEX
  8
8XV3_EC_PLATE_MIX_ISO-EDGE_CUTS
 10
391.03006
 20
-177.253332
 30
0.00
  0
SEQEND
  0
POLYLINE
  8
8XV3_EC_PLATE_MIX_ISO-EDGE_CUTS
 66
1
 10
0.00
 20
0.00
 30
0.00
 40
0.20
 41
0.20
  0
VERTEX
  8
8XV3_EC_PLATE_MIX_ISO-EDGE_CUTS
 10
358.28006
 20
-159.203332
 30
0.00
  0
VERTEX
  8
8XV3_EC_PLATE_MIX_ISO-EDGE_CUTS
 10
359.28006
 20
-158.203332
 30
0.00
  0
SEQEND
  0
POLYLINE
  8
8XV3_EC_PLATE_MIX_ISO-EDGE_CUTS
 66
1
 10
0.00
 20
0.00
 30
0.00
 40
0.20
 41
0.20
  0
VERTEX
  8
8XV3_EC_PLATE_MIX_ISO-EDGE_CUTS
 10
358.28006
 20
-171.303332
 30
0.00
  0
VERTEX
  8
8XV3_EC_PLATE_MIX_ISO-EDGE_CUTS
 10
358.28006
 20
-159.203332
 30
0.00
  0
SEQEND
  0
POLYLINE
  8
8XV3_EC_PLATE_MIX_ISO-EDGE_CUTS
 66
1
 10
0.00
 20
0.00
 30
0.00
 40
0.20
 41
0.20
  0
VERTEX
  8
8XV3_EC_PLATE_MIX_ISO-EDGE_CUTS
 10
359.28006
 20
-172.303332
 30
0.00
  0
VERTEX
  8
8XV3_EC_PLATE_MIX_ISO-EDGE_CUTS
 10
358.28006
 20
-171.303332
 30
0.00
  0
SEQEND
  0
POLYLINE
  8
8XV3_EC_PLATE_MIX_ISO-EDGE_CUTS
 66
1
 10
0.00
 20
0.00
 30
0.00
 40
0.20
 41
0.20
  0
VERTEX
  8
8XV3_EC_PLATE_MIX_ISO-EDGE_CUTS
 10
371.98006
 20
-172.303332
 30
0.00
  0
VERTEX
  8
8XV3_EC_PLATE_MIX_ISO-EDGE_CUTS
 10
359.28006
 20
-172.303332
 30
0.00
  0
SEQEND
  0
POLYLINE
  8
8XV3_EC_PLATE_MIX_ISO-EDGE_CUTS
 66
1
 10
0.00
 20
0.00
 30
0.00
 40
0.20
 41
0.20
  0
VERTEX
  8
8XV3_EC_PLATE_MIX_ISO-EDGE_CUTS
 10
372.98006
 20
-171.303332
 30
0.00
  0
VERTEX
  8
8XV3_EC_PLATE_MIX_ISO-EDGE_CUTS
 10
371.98006
 20
-172.303332
 30
0.00
  0
SEQEND
  0
POLYLINE
  8
8XV3_EC_PLATE_MIX_ISO-EDGE_CUTS
 66
1
 10
0.00
 20
0.00
 30
0.00
 40
0.20
 41
0.20
  0
VERTEX
  8
8XV3_EC_PLATE_MIX_ISO-EDGE_CUTS
 10
372.98006
 20
-159.203332
 30
0.00
  0
VERTEX
  8
8XV3_EC_PLATE_MIX_ISO-EDGE_CUTS
 10
372.98006
 20
-171.303332
 30
0.00
  0
SEQEND
  0
POLYLINE
  8
8XV3_EC_PLATE_MIX_ISO-EDGE_CUTS
 66
1
 10
0.00
 20
0.00
 30
0.00
 40
0.20
 41
0.20
  0
VERTEX
  8
8XV3_EC_PLATE_MIX_ISO-EDGE_CUTS
 10
371.98006
 20
-158.203332
 30
0.00
  0
VERTEX
  8
8XV3_EC_PLATE_MIX_ISO-EDGE_CUTS
 10
372.98006
 20
-159.203332
 30
0.00
  0
SEQEND
  0
POLYLINE
  8
8XV3_EC_PLATE_MIX_ISO-EDGE_CUTS
 66
1
 10
0.00
 20
0.00
 30
0.00
 40
0.20
 41
0.20
  0
VERTEX
  8
8XV3_EC_PLATE_MIX_ISO-EDGE_CUTS
 10
359.28006
 20
-158.203332
 30
0.00
  0
VERTEX
  8
8XV3_EC_PLATE_MIX_ISO-EDGE_CUTS
 10
371.98006
 20
-158.203332
 30
0.00
  0
SEQEND
  0
POLYLINE
  8
8XV3_EC_PLATE_MIX_ISO-EDGE_CUTS
 66
1
 10
0.00
 20
0.00
 30
0.00
 40
0.20
 41
0.20
  0
VERTEX
  8
8XV3_EC_PLATE_MIX_ISO-EDGE_CUTS
 10
377.33006
 20
-121.103332
 30
0.00
  0
VERTEX
  8
8XV3_EC_PLATE_MIX_ISO-EDGE_CUTS
 10
378.33006
 20
-120.103332
 30
0.00
  0
SEQEND
  0
POLYLINE
  8
8XV3_EC_PLATE_MIX_ISO-EDGE_CUTS
 66
1
 10
0.00
 20
0.00
 30
0.00
 40
0.20
 41
0.20
  0
VERTEX
  8
8XV3_EC_PLATE_MIX_ISO-EDGE_CUTS
 10
377.33006
 20
-133.203332
 30
0.00
  0
VERTEX
  8
8XV3_EC_PLATE_MIX_ISO-EDGE_CUTS
 10
377.33006
 20
-121.103332
 30
0.00
  0
SEQEND
  0
POLYLINE
  8
8XV3_EC_PLATE_MIX_ISO-EDGE_CUTS
 66
1
 10
0.00
 20
0.00
 30
0.00
 40
0.20
 41
0.20
  0
VERTEX
  8
8XV3_EC_PLATE_MIX_ISO-EDGE_CUTS
 10
378.33006
 20
-134.203332
 30
0.00
  0
VERTEX
  8
8XV3_EC_PLATE_MIX_ISO-EDGE_CUTS
 10
377.33006
 20
-133.203332
 30
0.00
  0
SEQEND
  0
POLYLINE
  8
8XV3_EC_PLATE_MIX_ISO-EDGE_CUTS
 66
1
 10
0.00
 20
0.00
 30
0.00
 40
0.20
 41
0.20
  0
VERTEX
  8
8XV3_EC_PLATE_MIX_ISO-EDGE_CUTS
 10
391.03006
 20
-134.203332
 30
0.00
  0
VERTEX
  8
8XV3_EC_PLATE_MIX_ISO-EDGE_CUTS
 10
378.33006
 20
-134.203332
 30
0.00
  0
SEQEND
  0
POLYLINE
  8
8XV3_EC_PLATE_MIX_ISO-EDGE_CUTS
 66
1
 10
0.00
 20
0.00
 30
0.00
 40
0.20
 41
0.20
  0
VERTEX
  8
8XV3_EC_PLATE_MIX_ISO-EDGE_CUTS
 10
392.03006
 20
-133.203332
 30
0.00
  0
VERTEX
  8
8XV3_EC_PLATE_MIX_ISO-EDGE_CUTS
 10
391.03006
 20
-134.203332
 30
0.00
  0
SEQEND
  0
POLYLINE
  8
8XV3_EC_PLATE_MIX_ISO-EDGE_CUTS
 66
1
 10
0.00
 20
0.00
 30
0.00
 40
0.20
 41
0.20
  0
VERTEX
  8
8XV3_EC_PLATE_MIX_ISO-EDGE_CUTS
 10
392.03006
 20
-121.103332
 30
0.00
  0
VERTEX
  8
8XV3_EC_PLATE_MIX_ISO-EDGE_CUTS
 10
392.03006
 20
-133.203332
 30
0.00
  0
SEQEND
  0
POLYLINE
  8
8XV3_EC_PLATE_MIX_ISO-EDGE_CUTS
 66
1
 10
0.00
 20
0.00
 30
0.00
 40
0.20
 41
0.20
  0
VERTEX
  8
8XV3_EC_PLATE_MIX_ISO-EDGE_CUTS
 10
391.03006
 20
-120.103332
 30
0.00
  0
VERTEX
  8
8XV3_EC_PLATE_MIX_ISO-EDGE_CUTS
 10
392.03006
 20
-121.103332
 30
0.00
  0
SEQEND
  0
POLYLINE
  8
8XV3_EC_PLATE_MIX_ISO-EDGE_CUTS
 66
1
 10
0.00
 20
0.00
 30
0.00
 40
0.20
 41
0.20
  0
VERTEX
  8
8XV3_EC_PLATE_MIX_ISO-EDGE_CUTS
 10
378.33006
 20
-120.103332
 30
0.00
  0
VERTEX
  8
8XV3_EC_PLATE_MIX_ISO-EDGE_CUTS
 10
391.03006
 20
-120.103332
 30
0.00
  0
SEQEND
  0
POLYLINE
  8
8XV3_EC_PLATE_MIX_ISO-EDGE_CUTS
 66
1
 10
0.00
 20
0.00
 30
0.00
 40
0.20
 41
0.20
  0
VERTEX
  8
8XV3_EC_PLATE_MIX_ISO-EDGE_CUTS
 10
377.33006
 20
-102.053332
 30
0.00
  0
VERTEX
  8
8XV3_EC_PLATE_MIX_ISO-EDGE_CUTS
 10
378.33006
 20
-101.053332
 30
0.00
  0
SEQEND
  0
POLYLINE
  8
8XV3_EC_PLATE_MIX_ISO-EDGE_CUTS
 66
1
 10
0.00
 20
0.00
 30
0.00
 40
0.20
 41
0.20
  0
VERTEX
  8
8XV3_EC_PLATE_MIX_ISO-EDGE_CUTS
 10
377.33006
 20
-114.153332
 30
0.00
  0
VERTEX
  8
8XV3_EC_PLATE_MIX_ISO-EDGE_CUTS
 10
377.33006
 20
-102.053332
 30
0.00
  0
SEQEND
  0
POLYLINE
  8
8XV3_EC_PLATE_MIX_ISO-EDGE_CUTS
 66
1
 10
0.00
 20
0.00
 30
0.00
 40
0.20
 41
0.20
  0
VERTEX
  8
8XV3_EC_PLATE_MIX_ISO-EDGE_CUTS
 10
378.33006
 20
-115.153332
 30
0.00
  0
VERTEX
  8
8XV3_EC_PLATE_MIX_ISO-EDGE_CUTS
 10
377.33006
 20
-114.153332
 30
0.00
  0
SEQEND
  0
POLYLINE
  8
8XV3_EC_PLATE_MIX_ISO-EDGE_CUTS
 66
1
 10
0.00
 20
0.00
 30
0.00
 40
0.20
 41
0.20
  0
VERTEX
  8
8XV3_EC_PLATE_MIX_ISO-EDGE_CUTS
 10
391.03006
 20
-115.153332
 30
0.00
  0
VERTEX
  8
8XV3_EC_PLATE_MIX_ISO-EDGE_CUTS
 10
378.33006
 20
-115.153332
 30
0.00
  0
SEQEND
  0
POLYLINE
  8
8XV3_EC_PLATE_MIX_ISO-EDGE_CUTS
 66
1
 10
0.00
 20
0.00
 30
0.00
 40
0.20
 41
0.20
  0
VERTEX
  8
8XV3_EC_PLATE_MIX_ISO-EDGE_CUTS
 10
392.03006
 20
-114.153332
 30
0.00
  0
VERTEX
  8
8XV3_EC_PLATE_MIX_ISO-EDGE_CUTS
 10
391.03006
 20
-115.153332
 30
0.00
  0
SEQEND
  0
POLYLINE
  8
8XV3_EC_PLATE_MIX_ISO-EDGE_CUTS
 66
1
 10
0.00
 20
0.00
 30
0.00
 40
0.20
 41
0.20
  0
VERTEX
  8
8XV3_EC_PLATE_MIX_ISO-EDGE_CUTS
 10
392.03006
 20
-102.053332
 30
0.00
  0
VERTEX
  8
8XV3_EC_PLATE_MIX_ISO-EDGE_CUTS
 10
392.03006
 20
-114.153332
 30
0.00
  0
SEQEND
  0
POLYLINE
  8
8XV3_EC_PLATE_MIX_ISO-EDGE_CUTS
 66
1
 10
0.00
 20
0.00
 30
0.00
 40
0.20
 41
0.20
  0
VERTEX
  8
8XV3_EC_PLATE_MIX_ISO-EDGE_CUTS
 10
391.03006
 20
-101.053332
 30
0.00
  0
VERTEX
  8
8XV3_EC_PLATE_MIX_ISO-EDGE_CUTS
 10
392.03006
 20
-102.053332
 30
0.00
  0
SEQEND
  0
POLYLINE
  8
8XV3_EC_PLATE_MIX_ISO-EDGE_CUTS
 66
1
 10
0.00
 20
0.00
 30
0.00
 40
0.20
 41
0.20
  0
VERTEX
  8
8XV3_EC_PLATE_MIX_ISO-EDGE_CUTS
 10
378.33006
 20
-101.053332
 30
0.00
  0
VERTEX
  8
8XV3_EC_PLATE_MIX_ISO-EDGE_CUTS
 10
391.03006
 20
-101.053332
 30
0.00
  0
SEQEND
  0
POLYLINE
  8
8XV3_EC_PLATE_MIX_ISO-EDGE_CUTS
 66
1
 10
0.00
 20
0.00
 30
0.00
 40
0.20
 41
0.20
  0
VERTEX
  8
8XV3_EC_PLATE_MIX_ISO-EDGE_CUTS
 10
377.33006
 20
-77.053332
 30
0.00
  0
VERTEX
  8
8XV3_EC_PLATE_MIX_ISO-EDGE_CUTS
 10
378.33006
 20
-76.053332
 30
0.00
  0
SEQEND
  0
POLYLINE
  8
8XV3_EC_PLATE_MIX_ISO-EDGE_CUTS
 66
1
 10
0.00
 20
0.00
 30
0.00
 40
0.20
 41
0.20
  0
VERTEX
  8
8XV3_EC_PLATE_MIX_ISO-EDGE_CUTS
 10
377.33006
 20
-89.153332
 30
0.00
  0
VERTEX
  8
8XV3_EC_PLATE_MIX_ISO-EDGE_CUTS
 10
377.33006
 20
-77.053332
 30
0.00
  0
SEQEND
  0
POLYLINE
  8
8XV3_EC_PLATE_MIX_ISO-EDGE_CUTS
 66
1
 10
0.00
 20
0.00
 30
0.00
 40
0.20
 41
0.20
  0
VERTEX
  8
8XV3_EC_PLATE_MIX_ISO-EDGE_CUTS
 10
378.33006
 20
-90.153332
 30
0.00
  0
VERTEX
  8
8XV3_EC_PLATE_MIX_ISO-EDGE_CUTS
 10
377.33006
 20
-89.153332
 30
0.00
  0
SEQEND
  0
POLYLINE
  8
8XV3_EC_PLATE_MIX_ISO-EDGE_CUTS
 66
1
 10
0.00
 20
0.00
 30
0.00
 40
0.20
 41
0.20
  0
VERTEX
  8
8XV3_EC_PLATE_MIX_ISO-EDGE_CUTS
 10
391.03006
 20
-90.153332
 30
0.00
  0
VERTEX
  8
8XV3_EC_PLATE_MIX_ISO-EDGE_CUTS
 10
378.33006
 20
-90.153332
 30
0.00
  0
SEQEND
  0
POLYLINE
  8
8XV3_EC_PLATE_MIX_ISO-EDGE_CUTS
 66
1
 10
0.00
 20
0.00
 30
0.00
 40
0.20
 41
0.20
  0
VERTEX
  8
8XV3_EC_PLATE_MIX_ISO-EDGE_CUTS
 10
392.03006
 20
-89.153332
 30
0.00
  0
VERTEX
  8
8XV3_EC_PLATE_MIX_ISO-EDGE_CUTS
 10
391.03006
 20
-90.153332
 30
0.00
  0
SEQEND
  0
POLYLINE
  8
8XV3_EC_PLATE_MIX_ISO-EDGE_CUTS
 66
1
 10
0.00
 20
0.00
 30
0.00
 40
0.20
 41
0.20
  0
VERTEX
  8
8XV3_EC_PLATE_MIX_ISO-EDGE_CUTS
 10
392.03006
 20
-77.053332
 30
0.00
  0
VERTEX
  8
8XV3_EC_PLATE_MIX_ISO-EDGE_CUTS
 10
392.03006
 20
-89.153332
 30
0.00
  0
SEQEND
  0
POLYLINE
  8
8XV3_EC_PLATE_MIX_ISO-EDGE_CUTS
 66
1
 10
0.00
 20
0.00
 30
0.00
 40
0.20
 41
0.20
  0
VERTEX
  8
8XV3_EC_PLATE_MIX_ISO-EDGE_CUTS
 10
391.03006
 20
-76.053332
 30
0.00
  0
VERTEX
  8
8XV3_EC_PLATE_MIX_ISO-EDGE_CUTS
 10
392.03006
 20
-77.053332
 30
0.00
  0
SEQEND
  0
POLYLINE
  8
8XV3_EC_PLATE_MIX_ISO-EDGE_CUTS
 66
1
 10
0.00
 20
0.00
 30
0.00
 40
0.20
 41
0.20
  0
VERTEX
  8
8XV3_EC_PLATE_MIX_ISO-EDGE_CUTS
 10
378.33006
 20
-76.053332
 30
0.00
  0
VERTEX
  8
8XV3_EC_PLATE_MIX_ISO-EDGE_CUTS
 10
391.03006
 20
-76.053332
 30
0.00
  0
SEQEND
  0
POLYLINE
  8
8XV3_EC_PLATE_MIX_ISO-EDGE_CUTS
 66
1
 10
0.00
 20
0.00
 30
0.00
 40
0.20
 41
0.20
  0
VERTEX
  8
8XV3_EC_PLATE_MIX_ISO-EDGE_CUTS
 10
358.28006
 20
-121.103332
 30
0.00
  0
VERTEX
  8
8XV3_EC_PLATE_MIX_ISO-EDGE_CUTS
 10
359.28006
 20
-120.103332
 30
0.00
  0
SEQEND
  0
POLYLINE
  8
8XV3_EC_PLATE_MIX_ISO-EDGE_CUTS
 66
1
 10
0.00
 20
0.00
 30
0.00
 40
0.20
 41
0.20
  0
VERTEX
  8
8XV3_EC_PLATE_MIX_ISO-EDGE_CUTS
 10
358.28006
 20
-133.203332
 30
0.00
  0
VERTEX
  8
8XV3_EC_PLATE_MIX_ISO-EDGE_CUTS
 10
358.28006
 20
-121.103332
 30
0.00
  0
SEQEND
  0
POLYLINE
  8
8XV3_EC_PLATE_MIX_ISO-EDGE_CUTS
 66
1
 10
0.00
 20
0.00
 30
0.00
 40
0.20
 41
0.20
  0
VERTEX
  8
8XV3_EC_PLATE_MIX_ISO-EDGE_CUTS
 10
359.28006
 20
-134.203332
 30
0.00
  0
VERTEX
  8
8XV3_EC_PLATE_MIX_ISO-EDGE_CUTS
 10
358.28006
 20
-133.203332
 30
0.00
  0
SEQEND
  0
POLYLINE
  8
8XV3_EC_PLATE_MIX_ISO-EDGE_CUTS
 66
1
 10
0.00
 20
0.00
 30
0.00
 40
0.20
 41
0.20
  0
VERTEX
  8
8XV3_EC_PLATE_MIX_ISO-EDGE_CUTS
 10
371.98006
 20
-134.203332
 30
0.00
  0
VERTEX
  8
8XV3_EC_PLATE_MIX_ISO-EDGE_CUTS
 10
359.28006
 20
-134.203332
 30
0.00
  0
SEQEND
  0
POLYLINE
  8
8XV3_EC_PLATE_MIX_ISO-EDGE_CUTS
 66
1
 10
0.00
 20
0.00
 30
0.00
 40
0.20
 41
0.20
  0
VERTEX
  8
8XV3_EC_PLATE_MIX_ISO-EDGE_CUTS
 10
372.98006
 20
-133.203332
 30
0.00
  0
VERTEX
  8
8XV3_EC_PLATE_MIX_ISO-EDGE_CUTS
 10
371.98006
 20
-134.203332
 30
0.00
  0
SEQEND
  0
POLYLINE
  8
8XV3_EC_PLATE_MIX_ISO-EDGE_CUTS
 66
1
 10
0.00
 20
0.00
 30
0.00
 40
0.20
 41
0.20
  0
VERTEX
  8
8XV3_EC_PLATE_MIX_ISO-EDGE_CUTS
 10
372.98006
 20
-121.103332
 30
0.00
  0
VERTEX
  8
8XV3_EC_PLATE_MIX_ISO-EDGE_CUTS
 10
372.98006
 20
-133.203332
 30
0.00
  0
SEQEND
  0
POLYLINE
  8
8XV3_EC_PLATE_MIX_ISO-EDGE_CUTS
 66
1
 10
0.00
 20
0.00
 30
0.00
 40
0.20
 41
0.20
  0
VERTEX
  8
8XV3_EC_PLATE_MIX_ISO-EDGE_CUTS
 10
371.98006
 20
-120.103332
 30
0.00
  0
VERTEX
  8
8XV3_EC_PLATE_MIX_ISO-EDGE_CUTS
 10
372.98006
 20
-121.103332
 30
0.00
  0
SEQEND
  0
POLYLINE
  8
8XV3_EC_PLATE_MIX_ISO-EDGE_CUTS
 66
1
 10
0.00
 20
0.00
 30
0.00
 40
0.20
 41
0.20
  0
VERTEX
  8
8XV3_EC_PLATE_MIX_ISO-EDGE_CUTS
 10
359.28006
 20
-120.103332
 30
0.00
  0
VERTEX
  8
8XV3_EC_PLATE_MIX_ISO-EDGE_CUTS
 10
371.98006
 20
-120.103332
 30
0.00
  0
SEQEND
  0
POLYLINE
  8
8XV3_EC_PLATE_MIX_ISO-EDGE_CUTS
 66
1
 10
0.00
 20
0.00
 30
0.00
 40
0.20
 41
0.20
  0
VERTEX
  8
8XV3_EC_PLATE_MIX_ISO-EDGE_CUTS
 10
339.23006
 20
-121.103332
 30
0.00
  0
VERTEX
  8
8XV3_EC_PLATE_MIX_ISO-EDGE_CUTS
 10
340.23006
 20
-120.103332
 30
0.00
  0
SEQEND
  0
POLYLINE
  8
8XV3_EC_PLATE_MIX_ISO-EDGE_CUTS
 66
1
 10
0.00
 20
0.00
 30
0.00
 40
0.20
 41
0.20
  0
VERTEX
  8
8XV3_EC_PLATE_MIX_ISO-EDGE_CUTS
 10
339.23006
 20
-133.203332
 30
0.00
  0
VERTEX
  8
8XV3_EC_PLATE_MIX_ISO-EDGE_CUTS
 10
339.23006
 20
-121.103332
 30
0.00
  0
SEQEND
  0
POLYLINE
  8
8XV3_EC_PLATE_MIX_ISO-EDGE_CUTS
 66
1
 10
0.00
 20
0.00
 30
0.00
 40
0.20
 41
0.20
  0
VERTEX
  8
8XV3_EC_PLATE_MIX_ISO-EDGE_CUTS
 10
340.23006
 20
-134.203332
 30
0.00
  0
VERTEX
  8
8XV3_EC_PLATE_MIX_ISO-EDGE_CUTS
 10
339.23006
 20
-133.203332
 30
0.00
  0
SEQEND
  0
POLYLINE
  8
8XV3_EC_PLATE_MIX_ISO-EDGE_CUTS
 66
1
 10
0.00
 20
0.00
 30
0.00
 40
0.20
 41
0.20
  0
VERTEX
  8
8XV3_EC_PLATE_MIX_ISO-EDGE_CUTS
 10
352.93006
 20
-134.203332
 30
0.00
  0
VERTEX
  8
8XV3_EC_PLATE_MIX_ISO-EDGE_CUTS
 10
340.23006
 20
-134.203332
 30
0.00
  0
SEQEND
  0
POLYLINE
  8
8XV3_EC_PLATE_MIX_ISO-EDGE_CUTS
 66
1
 10
0.00
 20
0.00
 30
0.00
 40
0.20
 41
0.20
  0
VERTEX
  8
8XV3_EC_PLATE_MIX_ISO-EDGE_CUTS
 10
353.93006
 20
-133.203332
 30
0.00
  0
VERTEX
  8
8XV3_EC_PLATE_MIX_ISO-EDGE_CUTS
 10
352.93006
 20
-134.203332
 30
0.00
  0
SEQEND
  0
POLYLINE
  8
8XV3_EC_PLATE_MIX_ISO-EDGE_CUTS
 66
1
 10
0.00
 20
0.00
 30
0.00
 40
0.20
 41
0.20
  0
VERTEX
  8
8XV3_EC_PLATE_MIX_ISO-EDGE_CUTS
 10
353.93006
 20
-121.103332
 30
0.00
  0
VERTEX
  8
8XV3_EC_PLATE_MIX_ISO-EDGE_CUTS
 10
353.93006
 20
-133.203332
 30
0.00
  0
SEQEND
  0
POLYLINE
  8
8XV3_EC_PLATE_MIX_ISO-EDGE_CUTS
 66
1
 10
0.00
 20
0.00
 30
0.00
 40
0.20
 41
0.20
  0
VERTEX
  8
8XV3_EC_PLATE_MIX_ISO-EDGE_CUTS
 10
352.93006
 20
-120.103332
 30
0.00
  0
VERTEX
  8
8XV3_EC_PLATE_MIX_ISO-EDGE_CUTS
 10
353.93006
 20
-121.103332
 30
0.00
  0
SEQEND
  0
POLYLINE
  8
8XV3_EC_PLATE_MIX_ISO-EDGE_CUTS
 66
1
 10
0.00
 20
0.00
 30
0.00
 40
0.20
 41
0.20
  0
VERTEX
  8
8XV3_EC_PLATE_MIX_ISO-EDGE_CUTS
 10
340.23006
 20
-120.103332
 30
0.00
  0
VERTEX
  8
8XV3_EC_PLATE_MIX_ISO-EDGE_CUTS
 10
352.93006
 20
-120.103332
 30
0.00
  0
SEQEND
  0
POLYLINE
  8
8XV3_EC_PLATE_MIX_ISO-EDGE_CUTS
 66
1
 10
0.00
 20
0.00
 30
0.00
 40
0.20
 41
0.20
  0
VERTEX
  8
8XV3_EC_PLATE_MIX_ISO-EDGE_CUTS
 10
312.14381
 20
-121.578332
 30
0.00
  0
VERTEX
  8
8XV3_EC_PLATE_MIX_ISO-EDGE_CUTS
 10
313.14381
 20
-120.578332
 30
0.00
  0
SEQEND
  0
POLYLINE
  8
8XV3_EC_PLATE_MIX_ISO-EDGE_CUTS
 66
1
 10
0.00
 20
0.00
 30
0.00
 40
0.20
 41
0.20
  0
VERTEX
  8
8XV3_EC_PLATE_MIX_ISO-EDGE_CUTS
 10
312.14381
 20
-151.778332
 30
0.00
  0
VERTEX
  8
8XV3_EC_PLATE_MIX_ISO-EDGE_CUTS
 10
312.14381
 20
-121.578332
 30
0.00
  0
SEQEND
  0
POLYLINE
  8
8XV3_EC_PLATE_MIX_ISO-EDGE_CUTS
 66
1
 10
0.00
 20
0.00
 30
0.00
 40
0.20
 41
0.20
  0
VERTEX
  8
8XV3_EC_PLATE_MIX_ISO-EDGE_CUTS
 10
313.14381
 20
-152.778332
 30
0.00
  0
VERTEX
  8
8XV3_EC_PLATE_MIX_ISO-EDGE_CUTS
 10
312.14381
 20
-151.778332
 30
0.00
  0
SEQEND
  0
POLYLINE
  8
8XV3_EC_PLATE_MIX_ISO-EDGE_CUTS
 66
1
 10
0.00
 20
0.00
 30
0.00
 40
0.20
 41
0.20
  0
VERTEX
  8
8XV3_EC_PLATE_MIX_ISO-EDGE_CUTS
 10
323.24381
 20
-152.778332
 30
0.00
  0
VERTEX
  8
8XV3_EC_PLATE_MIX_ISO-EDGE_CUTS
 10
313.14381
 20
-152.778332
 30
0.00
  0
SEQEND
  0
POLYLINE
  8
8XV3_EC_PLATE_MIX_ISO-EDGE_CUTS
 66
1
 10
0.00
 20
0.00
 30
0.00
 40
0.20
 41
0.20
  0
VERTEX
  8
8XV3_EC_PLATE_MIX_ISO-EDGE_CUTS
 10
326.24381
 20
-151.048332
 30
0.00
  0
VERTEX
  8
8XV3_EC_PLATE_MIX_ISO-EDGE_CUTS
 10
323.24381
 20
-152.778332
 30
0.00
  0
SEQEND
  0
POLYLINE
  8
8XV3_EC_PLATE_MIX_ISO-EDGE_CUTS
 66
1
 10
0.00
 20
0.00
 30
0.00
 40
0.20
 41
0.20
  0
VERTEX
  8
8XV3_EC_PLATE_MIX_ISO-EDGE_CUTS
 10
326.24381
 20
-122.308332
 30
0.00
  0
VERTEX
  8
8XV3_EC_PLATE_MIX_ISO-EDGE_CUTS
 10
326.24381
 20
-151.048332
 30
0.00
  0
SEQEND
  0
POLYLINE
  8
8XV3_EC_PLATE_MIX_ISO-EDGE_CUTS
 66
1
 10
0.00
 20
0.00
 30
0.00
 40
0.20
 41
0.20
  0
VERTEX
  8
8XV3_EC_PLATE_MIX_ISO-EDGE_CUTS
 10
323.24381
 20
-120.578332
 30
0.00
  0
VERTEX
  8
8XV3_EC_PLATE_MIX_ISO-EDGE_CUTS
 10
326.24381
 20
-122.308332
 30
0.00
  0
SEQEND
  0
POLYLINE
  8
8XV3_EC_PLATE_MIX_ISO-EDGE_CUTS
 66
1
 10
0.00
 20
0.00
 30
0.00
 40
0.20
 41
0.20
  0
VERTEX
  8
8XV3_EC_PLATE_MIX_ISO-EDGE_CUTS
 10
313.14381
 20
-120.578332
 30
0.00
  0
VERTEX
  8
8XV3_EC_PLATE_MIX_ISO-EDGE_CUTS
 10
323.24381
 20
-120.578332
 30
0.00
  0
SEQEND
  0
POLYLINE
  8
8XV3_EC_PLATE_MIX_ISO-EDGE_CUTS
 66
1
 10
0.00
 20
0.00
 30
0.00
 40
0.20
 41
0.20
  0
VERTEX
  8
8XV3_EC_PLATE_MIX_ISO-EDGE_CUTS
 10
358.28006
 20
-102.053332
 30
0.00
  0
VERTEX
  8
8XV3_EC_PLATE_MIX_ISO-EDGE_CUTS
 10
359.28006
 20
-101.053332
 30
0.00
  0
SEQEND
  0
POLYLINE
  8
8XV3_EC_PLATE_MIX_ISO-EDGE_CUTS
 66
1
 10
0.00
 20
0.00
 30
0.00
 40
0.20
 41
0.20
  0
VERTEX
  8
8XV3_EC_PLATE_MIX_ISO-EDGE_CUTS
 10
358.28006
 20
-114.153332
 30
0.00
  0
VERTEX
  8
8XV3_EC_PLATE_MIX_ISO-EDGE_CUTS
 10
358.28006
 20
-102.053332
 30
0.00
  0
SEQEND
  0
POLYLINE
  8
8XV3_EC_PLATE_MIX_ISO-EDGE_CUTS
 66
1
 10
0.00
 20
0.00
 30
0.00
 40
0.20
 41
0.20
  0
VERTEX
  8
8XV3_EC_PLATE_MIX_ISO-EDGE_CUTS
 10
359.28006
 20
-115.153332
 30
0.00
  0
VERTEX
  8
8XV3_EC_PLATE_MIX_ISO-EDGE_CUTS
 10
358.28006
 20
-114.153332
 30
0.00
  0
SEQEND
  0
POLYLINE
  8
8XV3_EC_PLATE_MIX_ISO-EDGE_CUTS
 66
1
 10
0.00
 20
0.00
 30
0.00
 40
0.20
 41
0.20
  0
VERTEX
  8
8XV3_EC_PLATE_MIX_ISO-EDGE_CUTS
 10
371.98006
 20
-115.153332
 30
0.00
  0
VERTEX
  8
8XV3_EC_PLATE_MIX_ISO-EDGE_CUTS
 10
359.28006
 20
-115.153332
 30
0.00
  0
SEQEND
  0
POLYLINE
  8
8XV3_EC_PLATE_MIX_ISO-EDGE_CUTS
 66
1
 10
0.00
 20
0.00
 30
0.00
 40
0.20
 41
0.20
  0
VERTEX
  8
8XV3_EC_PLATE_MIX_ISO-EDGE_CUTS
 10
372.98006
 20
-114.153332
 30
0.00
  0
VERTEX
  8
8XV3_EC_PLATE_MIX_ISO-EDGE_CUTS
 10
371.98006
 20
-115.153332
 30
0.00
  0
SEQEND
  0
POLYLINE
  8
8XV3_EC_PLATE_MIX_ISO-EDGE_CUTS
 66
1
 10
0.00
 20
0.00
 30
0.00
 40
0.20
 41
0.20
  0
VERTEX
  8
8XV3_EC_PLATE_MIX_ISO-EDGE_CUTS
 10
372.98006
 20
-102.053332
 30
0.00
  0
VERTEX
  8
8XV3_EC_PLATE_MIX_ISO-EDGE_CUTS
 10
372.98006
 20
-114.153332
 30
0.00
  0
SEQEND
  0
POLYLINE
  8
8XV3_EC_PLATE_MIX_ISO-EDGE_CUTS
 66
1
 10
0.00
 20
0.00
 30
0.00
 40
0.20
 41
0.20
  0
VERTEX
  8
8XV3_EC_PLATE_MIX_ISO-EDGE_CUTS
 10
371.98006
 20
-101.053332
 30
0.00
  0
VERTEX
  8
8XV3_EC_PLATE_MIX_ISO-EDGE_CUTS
 10
372.98006
 20
-102.053332
 30
0.00
  0
SEQEND
  0
POLYLINE
  8
8XV3_EC_PLATE_MIX_ISO-EDGE_CUTS
 66
1
 10
0.00
 20
0.00
 30
0.00
 40
0.20
 41
0.20
  0
VERTEX
  8
8XV3_EC_PLATE_MIX_ISO-EDGE_CUTS
 10
359.28006
 20
-101.053332
 30
0.00
  0
VERTEX
  8
8XV3_EC_PLATE_MIX_ISO-EDGE_CUTS
 10
371.98006
 20
-101.053332
 30
0.00
  0
SEQEND
  0
POLYLINE
  8
8XV3_EC_PLATE_MIX_ISO-EDGE_CUTS
 66
1
 10
0.00
 20
0.00
 30
0.00
 40
0.20
 41
0.20
  0
VERTEX
  8
8XV3_EC_PLATE_MIX_ISO-EDGE_CUTS
 10
358.28006
 20
-77.053332
 30
0.00
  0
VERTEX
  8
8XV3_EC_PLATE_MIX_ISO-EDGE_CUTS
 10
359.28006
 20
-76.053332
 30
0.00
  0
SEQEND
  0
POLYLINE
  8
8XV3_EC_PLATE_MIX_ISO-EDGE_CUTS
 66
1
 10
0.00
 20
0.00
 30
0.00
 40
0.20
 41
0.20
  0
VERTEX
  8
8XV3_EC_PLATE_MIX_ISO-EDGE_CUTS
 10
358.28006
 20
-89.153332
 30
0.00
  0
VERTEX
  8
8XV3_EC_PLATE_MIX_ISO-EDGE_CUTS
 10
358.28006
 20
-77.053332
 30
0.00
  0
SEQEND
  0
POLYLINE
  8
8XV3_EC_PLATE_MIX_ISO-EDGE_CUTS
 66
1
 10
0.00
 20
0.00
 30
0.00
 40
0.20
 41
0.20
  0
VERTEX
  8
8XV3_EC_PLATE_MIX_ISO-EDGE_CUTS
 10
359.28006
 20
-90.153332
 30
0.00
  0
VERTEX
  8
8XV3_EC_PLATE_MIX_ISO-EDGE_CUTS
 10
358.28006
 20
-89.153332
 30
0.00
  0
SEQEND
  0
POLYLINE
  8
8XV3_EC_PLATE_MIX_ISO-EDGE_CUTS
 66
1
 10
0.00
 20
0.00
 30
0.00
 40
0.20
 41
0.20
  0
VERTEX
  8
8XV3_EC_PLATE_MIX_ISO-EDGE_CUTS
 10
371.98006
 20
-90.153332
 30
0.00
  0
VERTEX
  8
8XV3_EC_PLATE_MIX_ISO-EDGE_CUTS
 10
359.28006
 20
-90.153332
 30
0.00
  0
SEQEND
  0
POLYLINE
  8
8XV3_EC_PLATE_MIX_ISO-EDGE_CUTS
 66
1
 10
0.00
 20
0.00
 30
0.00
 40
0.20
 41
0.20
  0
VERTEX
  8
8XV3_EC_PLATE_MIX_ISO-EDGE_CUTS
 10
372.98006
 20
-89.153332
 30
0.00
  0
VERTEX
  8
8XV3_EC_PLATE_MIX_ISO-EDGE_CUTS
 10
371.98006
 20
-90.153332
 30
0.00
  0
SEQEND
  0
POLYLINE
  8
8XV3_EC_PLATE_MIX_ISO-EDGE_CUTS
 66
1
 10
0.00
 20
0.00
 30
0.00
 40
0.20
 41
0.20
  0
VERTEX
  8
8XV3_EC_PLATE_MIX_ISO-EDGE_CUTS
 10
372.98006
 20
-77.053332
 30
0.00
  0
VERTEX
  8
8XV3_EC_PLATE_MIX_ISO-EDGE_CUTS
 10
372.98006
 20
-89.153332
 30
0.00
  0
SEQEND
  0
POLYLINE
  8
8XV3_EC_PLATE_MIX_ISO-EDGE_CUTS
 66
1
 10
0.00
 20
0.00
 30
0.00
 40
0.20
 41
0.20
  0
VERTEX
  8
8XV3_EC_PLATE_MIX_ISO-EDGE_CUTS
 10
371.98006
 20
-76.053332
 30
0.00
  0
VERTEX
  8
8XV3_EC_PLATE_MIX_ISO-EDGE_CUTS
 10
372.98006
 20
-77.053332
 30
0.00
  0
SEQEND
  0
POLYLINE
  8
8XV3_EC_PLATE_MIX_ISO-EDGE_CUTS
 66
1
 10
0.00
 20
0.00
 30
0.00
 40
0.20
 41
0.20
  0
VERTEX
  8
8XV3_EC_PLATE_MIX_ISO-EDGE_CUTS
 10
359.28006
 20
-76.053332
 30
0.00
  0
VERTEX
  8
8XV3_EC_PLATE_MIX_ISO-EDGE_CUTS
 10
371.98006
 20
-76.053332
 30
0.00
  0
SEQEND
  0
POLYLINE
  8
8XV3_EC_PLATE_MIX_ISO-EDGE_CUTS
 66
1
 10
0.00
 20
0.00
 30
0.00
 40
0.20
 41
0.20
  0
VERTEX
  8
8XV3_EC_PLATE_MIX_ISO-EDGE_CUTS
 10
85.62506
 20
-77.053332
 30
0.00
  0
VERTEX
  8
8XV3_EC_PLATE_MIX_ISO-EDGE_CUTS
 10
86.62506
 20
-76.053332
 30
0.00
  0
SEQEND
  0
POLYLINE
  8
8XV3_EC_PLATE_MIX_ISO-EDGE_CUTS
 66
1
 10
0.00
 20
0.00
 30
0.00
 40
0.20
 41
0.20
  0
VERTEX
  8
8XV3_EC_PLATE_MIX_ISO-EDGE_CUTS
 10
85.62506
 20
-89.153332
 30
0.00
  0
VERTEX
  8
8XV3_EC_PLATE_MIX_ISO-EDGE_CUTS
 10
85.62506
 20
-77.053332
 30
0.00
  0
SEQEND
  0
POLYLINE
  8
8XV3_EC_PLATE_MIX_ISO-EDGE_CUTS
 66
1
 10
0.00
 20
0.00
 30
0.00
 40
0.20
 41
0.20
  0
VERTEX
  8
8XV3_EC_PLATE_MIX_ISO-EDGE_CUTS
 10
86.62506
 20
-90.153332
 30
0.00
  0
VERTEX
  8
8XV3_EC_PLATE_MIX_ISO-EDGE_CUTS
 10
85.62506
 20
-89.153332
 30
0.00
  0
SEQEND
  0
POLYLINE
  8
8XV3_EC_PLATE_MIX_ISO-EDGE_CUTS
 66
1
 10
0.00
 20
0.00
 30
0.00
 40
0.20
 41
0.20
  0
VERTEX
  8
8XV3_EC_PLATE_MIX_ISO-EDGE_CUTS
 10
99.32506
 20
-90.153332
 30
0.00
  0
VERTEX
  8
8XV3_EC_PLATE_MIX_ISO-EDGE_CUTS
 10
86.62506
 20
-90.153332
 30
0.00
  0
SEQEND
  0
POLYLINE
  8
8XV3_EC_PLATE_MIX_ISO-EDGE_CUTS
 66
1
 10
0.00
 20
0.00
 30
0.00
 40
0.20
 41
0.20
  0
VERTEX
  8
8XV3_EC_PLATE_MIX_ISO-EDGE_CUTS
 10
100.32506
 20
-89.153332
 30
0.00
  0
VERTEX
  8
8XV3_EC_PLATE_MIX_ISO-EDGE_CUTS
 10
99.32506
 20
-90.153332
 30
0.00
  0
SEQEND
  0
POLYLINE
  8
8XV3_EC_PLATE_MIX_ISO-EDGE_CUTS
 66
1
 10
0.00
 20
0.00
 30
0.00
 40
0.20
 41
0.20
  0
VERTEX
  8
8XV3_EC_PLATE_MIX_ISO-EDGE_CUTS
 10
100.32506
 20
-77.053332
 30
0.00
  0
VERTEX
  8
8XV3_EC_PLATE_MIX_ISO-EDGE_CUTS
 10
100.32506
 20
-89.153332
 30
0.00
  0
SEQEND
  0
POLYLINE
  8
8XV3_EC_PLATE_MIX_ISO-EDGE_CUTS
 66
1
 10
0.00
 20
0.00
 30
0.00
 40
0.20
 41
0.20
  0
VERTEX
  8
8XV3_EC_PLATE_MIX_ISO-EDGE_CUTS
 10
99.32506
 20
-76.053332
 30
0.00
  0
VERTEX
  8
8XV3_EC_PLATE_MIX_ISO-EDGE_CUTS
 10
100.32506
 20
-77.053332
 30
0.00
  0
SEQEND
  0
POLYLINE
  8
8XV3_EC_PLATE_MIX_ISO-EDGE_CUTS
 66
1
 10
0.00
 20
0.00
 30
0.00
 40
0.20
 41
0.20
  0
VERTEX
  8
8XV3_EC_PLATE_MIX_ISO-EDGE_CUTS
 10
86.62506
 20
-76.053332
 30
0.00
  0
VERTEX
  8
8XV3_EC_PLATE_MIX_ISO-EDGE_CUTS
 10
99.32506
 20
-76.053332
 30
0.00
  0
SEQEND
  0
POLYLINE
  8
8XV3_EC_PLATE_MIX_ISO-EDGE_CUTS
 66
1
 10
0.00
 20
0.00
 30
0.00
 40
0.20
 41
0.20
  0
VERTEX
  8
8XV3_EC_PLATE_MIX_ISO-EDGE_CUTS
 10
339.23006
 20
-178.253332
 30
0.00
  0
VERTEX
  8
8XV3_EC_PLATE_MIX_ISO-EDGE_CUTS
 10
340.23006
 20
-177.253332
 30
0.00
  0
SEQEND
  0
POLYLINE
  8
8XV3_EC_PLATE_MIX_ISO-EDGE_CUTS
 66
1
 10
0.00
 20
0.00
 30
0.00
 40
0.20
 41
0.20
  0
VERTEX
  8
8XV3_EC_PLATE_MIX_ISO-EDGE_CUTS
 10
339.23006
 20
-190.353332
 30
0.00
  0
VERTEX
  8
8XV3_EC_PLATE_MIX_ISO-EDGE_CUTS
 10
339.23006
 20
-178.253332
 30
0.00
  0
SEQEND
  0
POLYLINE
  8
8XV3_EC_PLATE_MIX_ISO-EDGE_CUTS
 66
1
 10
0.00
 20
0.00
 30
0.00
 40
0.20
 41
0.20
  0
VERTEX
  8
8XV3_EC_PLATE_MIX_ISO-EDGE_CUTS
 10
340.23006
 20
-191.353332
 30
0.00
  0
VERTEX
  8
8XV3_EC_PLATE_MIX_ISO-EDGE_CUTS
 10
339.23006
 20
-190.353332
 30
0.00
  0
SEQEND
  0
POLYLINE
  8
8XV3_EC_PLATE_MIX_ISO-EDGE_CUTS
 66
1
 10
0.00
 20
0.00
 30
0.00
 40
0.20
 41
0.20
  0
VERTEX
  8
8XV3_EC_PLATE_MIX_ISO-EDGE_CUTS
 10
352.93006
 20
-191.353332
 30
0.00
  0
VERTEX
  8
8XV3_EC_PLATE_MIX_ISO-EDGE_CUTS
 10
340.23006
 20
-191.353332
 30
0.00
  0
SEQEND
  0
POLYLINE
  8
8XV3_EC_PLATE_MIX_ISO-EDGE_CUTS
 66
1
 10
0.00
 20
0.00
 30
0.00
 40
0.20
 41
0.20
  0
VERTEX
  8
8XV3_EC_PLATE_MIX_ISO-EDGE_CUTS
 10
353.93006
 20
-190.353332
 30
0.00
  0
VERTEX
  8
8XV3_EC_PLATE_MIX_ISO-EDGE_CUTS
 10
352.93006
 20
-191.353332
 30
0.00
  0
SEQEND
  0
POLYLINE
  8
8XV3_EC_PLATE_MIX_ISO-EDGE_CUTS
 66
1
 10
0.00
 20
0.00
 30
0.00
 40
0.20
 41
0.20
  0
VERTEX
  8
8XV3_EC_PLATE_MIX_ISO-EDGE_CUTS
 10
353.93006
 20
-178.253332
 30
0.00
  0
VERTEX
  8
8XV3_EC_PLATE_MIX_ISO-EDGE_CUTS
 10
353.93006
 20
-190.353332
 30
0.00
  0
SEQEND
  0
POLYLINE
  8
8XV3_EC_PLATE_MIX_ISO-EDGE_CUTS
 66
1
 10
0.00
 20
0.00
 30
0.00
 40
0.20
 41
0.20
  0
VERTEX
  8
8XV3_EC_PLATE_MIX_ISO-EDGE_CUTS
 10
352.93006
 20
-177.253332
 30
0.00
  0
VERTEX
  8
8XV3_EC_PLATE_MIX_ISO-EDGE_CUTS
 10
353.93006
 20
-178.253332
 30
0.00
  0
SEQEND
  0
POLYLINE
  8
8XV3_EC_PLATE_MIX_ISO-EDGE_CUTS
 66
1
 10
0.00
 20
0.00
 30
0.00
 40
0.20
 41
0.20
  0
VERTEX
  8
8XV3_EC_PLATE_MIX_ISO-EDGE_CUTS
 10
340.23006
 20
-177.253332
 30
0.00
  0
VERTEX
  8
8XV3_EC_PLATE_MIX_ISO-EDGE_CUTS
 10
352.93006
 20
-177.253332
 30
0.00
  0
SEQEND
  0
POLYLINE
  8
8XV3_EC_PLATE_MIX_ISO-EDGE_CUTS
 66
1
 10
0.00
 20
0.00
 30
0.00
 40
0.20
 41
0.20
  0
VERTEX
  8
8XV3_EC_PLATE_MIX_ISO-EDGE_CUTS
 10
339.23006
 20
-102.053332
 30
0.00
  0
VERTEX
  8
8XV3_EC_PLATE_MIX_ISO-EDGE_CUTS
 10
340.23006
 20
-101.053332
 30
0.00
  0
SEQEND
  0
POLYLINE
  8
8XV3_EC_PLATE_MIX_ISO-EDGE_CUTS
 66
1
 10
0.00
 20
0.00
 30
0.00
 40
0.20
 41
0.20
  0
VERTEX
  8
8XV3_EC_PLATE_MIX_ISO-EDGE_CUTS
 10
339.23006
 20
-114.153332
 30
0.00
  0
VERTEX
  8
8XV3_EC_PLATE_MIX_ISO-EDGE_CUTS
 10
339.23006
 20
-102.053332
 30
0.00
  0
SEQEND
  0
POLYLINE
  8
8XV3_EC_PLATE_MIX_ISO-EDGE_CUTS
 66
1
 10
0.00
 20
0.00
 30
0.00
 40
0.20
 41
0.20
  0
VERTEX
  8
8XV3_EC_PLATE_MIX_ISO-EDGE_CUTS
 10
340.23006
 20
-115.153332
 30
0.00
  0
VERTEX
  8
8XV3_EC_PLATE_MIX_ISO-EDGE_CUTS
 10
339.23006
 20
-114.153332
 30
0.00
  0
SEQEND
  0
POLYLINE
  8
8XV3_EC_PLATE_MIX_ISO-EDGE_CUTS
 66
1
 10
0.00
 20
0.00
 30
0.00
 40
0.20
 41
0.20
  0
VERTEX
  8
8XV3_EC_PLATE_MIX_ISO-EDGE_CUTS
 10
352.93006
 20
-115.153332
 30
0.00
  0
VERTEX
  8
8XV3_EC_PLATE_MIX_ISO-EDGE_CUTS
 10
340.23006
 20
-115.153332
 30
0.00
  0
SEQEND
  0
POLYLINE
  8
8XV3_EC_PLATE_MIX_ISO-EDGE_CUTS
 66
1
 10
0.00
 20
0.00
 30
0.00
 40
0.20
 41
0.20
  0
VERTEX
  8
8XV3_EC_PLATE_MIX_ISO-EDGE_CUTS
 10
353.93006
 20
-114.153332
 30
0.00
  0
VERTEX
  8
8XV3_EC_PLATE_MIX_ISO-EDGE_CUTS
 10
352.93006
 20
-115.153332
 30
0.00
  0
SEQEND
  0
POLYLINE
  8
8XV3_EC_PLATE_MIX_ISO-EDGE_CUTS
 66
1
 10
0.00
 20
0.00
 30
0.00
 40
0.20
 41
0.20
  0
VERTEX
  8
8XV3_EC_PLATE_MIX_ISO-EDGE_CUTS
 10
353.93006
 20
-102.053332
 30
0.00
  0
VERTEX
  8
8XV3_EC_PLATE_MIX_ISO-EDGE_CUTS
 10
353.93006
 20
-114.153332
 30
0.00
  0
SEQEND
  0
POLYLINE
  8
8XV3_EC_PLATE_MIX_ISO-EDGE_CUTS
 66
1
 10
0.00
 20
0.00
 30
0.00
 40
0.20
 41
0.20
  0
VERTEX
  8
8XV3_EC_PLATE_MIX_ISO-EDGE_CUTS
 10
352.93006
 20
-101.053332
 30
0.00
  0
VERTEX
  8
8XV3_EC_PLATE_MIX_ISO-EDGE_CUTS
 10
353.93006
 20
-102.053332
 30
0.00
  0
SEQEND
  0
POLYLINE
  8
8XV3_EC_PLATE_MIX_ISO-EDGE_CUTS
 66
1
 10
0.00
 20
0.00
 30
0.00
 40
0.20
 41
0.20
  0
VERTEX
  8
8XV3_EC_PLATE_MIX_ISO-EDGE_CUTS
 10
340.23006
 20
-101.053332
 30
0.00
  0
VERTEX
  8
8XV3_EC_PLATE_MIX_ISO-EDGE_CUTS
 10
352.93006
 20
-101.053332
 30
0.00
  0
SEQEND
  0
POLYLINE
  8
8XV3_EC_PLATE_MIX_ISO-EDGE_CUTS
 66
1
 10
0.00
 20
0.00
 30
0.00
 40
0.20
 41
0.20
  0
VERTEX
  8
8XV3_EC_PLATE_MIX_ISO-EDGE_CUTS
 10
295.95006
 20
-102.053332
 30
0.00
  0
VERTEX
  8
8XV3_EC_PLATE_MIX_ISO-EDGE_CUTS
 10
296.95006
 20
-101.053332
 30
0.00
  0
SEQEND
  0
POLYLINE
  8
8XV3_EC_PLATE_MIX_ISO-EDGE_CUTS
 66
1
 10
0.00
 20
0.00
 30
0.00
 40
0.20
 41
0.20
  0
VERTEX
  8
8XV3_EC_PLATE_MIX_ISO-EDGE_CUTS
 10
295.95006
 20
-113.423332
 30
0.00
  0
VERTEX
  8
8XV3_EC_PLATE_MIX_ISO-EDGE_CUTS
 10
295.95006
 20
-102.053332
 30
0.00
  0
SEQEND
  0
POLYLINE
  8
8XV3_EC_PLATE_MIX_ISO-EDGE_CUTS
 66
1
 10
0.00
 20
0.00
 30
0.00
 40
0.20
 41
0.20
  0
VERTEX
  8
8XV3_EC_PLATE_MIX_ISO-EDGE_CUTS
 10
298.95006
 20
-115.153332
 30
0.00
  0
VERTEX
  8
8XV3_EC_PLATE_MIX_ISO-EDGE_CUTS
 10
295.95006
 20
-113.423332
 30
0.00
  0
SEQEND
  0
POLYLINE
  8
8XV3_EC_PLATE_MIX_ISO-EDGE_CUTS
 66
1
 10
0.00
 20
0.00
 30
0.00
 40
0.20
 41
0.20
  0
VERTEX
  8
8XV3_EC_PLATE_MIX_ISO-EDGE_CUTS
 10
325.15006
 20
-115.153332
 30
0.00
  0
VERTEX
  8
8XV3_EC_PLATE_MIX_ISO-EDGE_CUTS
 10
298.95006
 20
-115.153332
 30
0.00
  0
SEQEND
  0
POLYLINE
  8
8XV3_EC_PLATE_MIX_ISO-EDGE_CUTS
 66
1
 10
0.00
 20
0.00
 30
0.00
 40
0.20
 41
0.20
  0
VERTEX
  8
8XV3_EC_PLATE_MIX_ISO-EDGE_CUTS
 10
328.15006
 20
-113.423332
 30
0.00
  0
VERTEX
  8
8XV3_EC_PLATE_MIX_ISO-EDGE_CUTS
 10
325.15006
 20
-115.153332
 30
0.00
  0
SEQEND
  0
POLYLINE
  8
8XV3_EC_PLATE_MIX_ISO-EDGE_CUTS
 66
1
 10
0.00
 20
0.00
 30
0.00
 40
0.20
 41
0.20
  0
VERTEX
  8
8XV3_EC_PLATE_MIX_ISO-EDGE_CUTS
 10
328.15006
 20
-102.053332
 30
0.00
  0
VERTEX
  8
8XV3_EC_PLATE_MIX_ISO-EDGE_CUTS
 10
328.15006
 20
-113.423332
 30
0.00
  0
SEQEND
  0
POLYLINE
  8
8XV3_EC_PLATE_MIX_ISO-EDGE_CUTS
 66
1
 10
0.00
 20
0.00
 30
0.00
 40
0.20
 41
0.20
  0
VERTEX
  8
8XV3_EC_PLATE_MIX_ISO-EDGE_CUTS
 10
327.15006
 20
-101.053332
 30
0.00
  0
VERTEX
  8
8XV3_EC_PLATE_MIX_ISO-EDGE_CUTS
 10
328.15006
 20
-102.053332
 30
0.00
  0
SEQEND
  0
POLYLINE
  8
8XV3_EC_PLATE_MIX_ISO-EDGE_CUTS
 66
1
 10
0.00
 20
0.00
 30
0.00
 40
0.20
 41
0.20
  0
VERTEX
  8
8XV3_EC_PLATE_MIX_ISO-EDGE_CUTS
 10
296.95006
 20
-101.053332
 30
0.00
  0
VERTEX
  8
8XV3_EC_PLATE_MIX_ISO-EDGE_CUTS
 10
327.15006
 20
-101.053332
 30
0.00
  0
SEQEND
  0
POLYLINE
  8
8XV3_EC_PLATE_MIX_ISO-EDGE_CUTS
 66
1
 10
0.00
 20
0.00
 30
0.00
 40
0.20
 41
0.20
  0
VERTEX
  8
8XV3_EC_PLATE_MIX_ISO-EDGE_CUTS
 10
339.23006
 20
-77.053332
 30
0.00
  0
VERTEX
  8
8XV3_EC_PLATE_MIX_ISO-EDGE_CUTS
 10
340.23006
 20
-76.053332
 30
0.00
  0
SEQEND
  0
POLYLINE
  8
8XV3_EC_PLATE_MIX_ISO-EDGE_CUTS
 66
1
 10
0.00
 20
0.00
 30
0.00
 40
0.20
 41
0.20
  0
VERTEX
  8
8XV3_EC_PLATE_MIX_ISO-EDGE_CUTS
 10
339.23006
 20
-89.153332
 30
0.00
  0
VERTEX
  8
8XV3_EC_PLATE_MIX_ISO-EDGE_CUTS
 10
339.23006
 20
-77.053332
 30
0.00
  0
SEQEND
  0
POLYLINE
  8
8XV3_EC_PLATE_MIX_ISO-EDGE_CUTS
 66
1
 10
0.00
 20
0.00
 30
0.00
 40
0.20
 41
0.20
  0
VERTEX
  8
8XV3_EC_PLATE_MIX_ISO-EDGE_CUTS
 10
340.23006
 20
-90.153332
 30
0.00
  0
VERTEX
  8
8XV3_EC_PLATE_MIX_ISO-EDGE_CUTS
 10
339.23006
 20
-89.153332
 30
0.00
  0
SEQEND
  0
POLYLINE
  8
8XV3_EC_PLATE_MIX_ISO-EDGE_CUTS
 66
1
 10
0.00
 20
0.00
 30
0.00
 40
0.20
 41
0.20
  0
VERTEX
  8
8XV3_EC_PLATE_MIX_ISO-EDGE_CUTS
 10
352.93006
 20
-90.153332
 30
0.00
  0
VERTEX
  8
8XV3_EC_PLATE_MIX_ISO-EDGE_CUTS
 10
340.23006
 20
-90.153332
 30
0.00
  0
SEQEND
  0
POLYLINE
  8
8XV3_EC_PLATE_MIX_ISO-EDGE_CUTS
 66
1
 10
0.00
 20
0.00
 30
0.00
 40
0.20
 41
0.20
  0
VERTEX
  8
8XV3_EC_PLATE_MIX_ISO-EDGE_CUTS
 10
353.93006
 20
-89.153332
 30
0.00
  0
VERTEX
  8
8XV3_EC_PLATE_MIX_ISO-EDGE_CUTS
 10
352.93006
 20
-90.153332
 30
0.00
  0
SEQEND
  0
POLYLINE
  8
8XV3_EC_PLATE_MIX_ISO-EDGE_CUTS
 66
1
 10
0.00
 20
0.00
 30
0.00
 40
0.20
 41
0.20
  0
VERTEX
  8
8XV3_EC_PLATE_MIX_ISO-EDGE_CUTS
 10
353.93006
 20
-77.053332
 30
0.00
  0
VERTEX
  8
8XV3_EC_PLATE_MIX_ISO-EDGE_CUTS
 10
353.93006
 20
-89.153332
 30
0.00
  0
SEQEND
  0
POLYLINE
  8
8XV3_EC_PLATE_MIX_ISO-EDGE_CUTS
 66
1
 10
0.00
 20
0.00
 30
0.00
 40
0.20
 41
0.20
  0
VERTEX
  8
8XV3_EC_PLATE_MIX_ISO-EDGE_CUTS
 10
352.93006
 20
-76.053332
 30
0.00
  0
VERTEX
  8
8XV3_EC_PLATE_MIX_ISO-EDGE_CUTS
 10
353.93006
 20
-77.053332
 30
0.00
  0
SEQEND
  0
POLYLINE
  8
8XV3_EC_PLATE_MIX_ISO-EDGE_CUTS
 66
1
 10
0.00
 20
0.00
 30
0.00
 40
0.20
 41
0.20
  0
VERTEX
  8
8XV3_EC_PLATE_MIX_ISO-EDGE_CUTS
 10
340.23006
 20
-76.053332
 30
0.00
  0
VERTEX
  8
8XV3_EC_PLATE_MIX_ISO-EDGE_CUTS
 10
352.93006
 20
-76.053332
 30
0.00
  0
SEQEND
  0
POLYLINE
  8
8XV3_EC_PLATE_MIX_ISO-EDGE_CUTS
 66
1
 10
0.00
 20
0.00
 30
0.00
 40
0.20
 41
0.20
  0
VERTEX
  8
8XV3_EC_PLATE_MIX_ISO-EDGE_CUTS
 10
309.46256
 20
-178.253332
 30
0.00
  0
VERTEX
  8
8XV3_EC_PLATE_MIX_ISO-EDGE_CUTS
 10
310.46256
 20
-177.253332
 30
0.00
  0
SEQEND
  0
POLYLINE
  8
8XV3_EC_PLATE_MIX_ISO-EDGE_CUTS
 66
1
 10
0.00
 20
0.00
 30
0.00
 40
0.20
 41
0.20
  0
VERTEX
  8
8XV3_EC_PLATE_MIX_ISO-EDGE_CUTS
 10
309.46256
 20
-190.353332
 30
0.00
  0
VERTEX
  8
8XV3_EC_PLATE_MIX_ISO-EDGE_CUTS
 10
309.46256
 20
-178.253332
 30
0.00
  0
SEQEND
  0
POLYLINE
  8
8XV3_EC_PLATE_MIX_ISO-EDGE_CUTS
 66
1
 10
0.00
 20
0.00
 30
0.00
 40
0.20
 41
0.20
  0
VERTEX
  8
8XV3_EC_PLATE_MIX_ISO-EDGE_CUTS
 10
310.46256
 20
-191.353332
 30
0.00
  0
VERTEX
  8
8XV3_EC_PLATE_MIX_ISO-EDGE_CUTS
 10
309.46256
 20
-190.353332
 30
0.00
  0
SEQEND
  0
POLYLINE
  8
8XV3_EC_PLATE_MIX_ISO-EDGE_CUTS
 66
1
 10
0.00
 20
0.00
 30
0.00
 40
0.20
 41
0.20
  0
VERTEX
  8
8XV3_EC_PLATE_MIX_ISO-EDGE_CUTS
 10
323.16256
 20
-191.353332
 30
0.00
  0
VERTEX
  8
8XV3_EC_PLATE_MIX_ISO-EDGE_CUTS
 10
310.46256
 20
-191.353332
 30
0.00
  0
SEQEND
  0
POLYLINE
  8
8XV3_EC_PLATE_MIX_ISO-EDGE_CUTS
 66
1
 10
0.00
 20
0.00
 30
0.00
 40
0.20
 41
0.20
  0
VERTEX
  8
8XV3_EC_PLATE_MIX_ISO-EDGE_CUTS
 10
324.16256
 20
-190.353332
 30
0.00
  0
VERTEX
  8
8XV3_EC_PLATE_MIX_ISO-EDGE_CUTS
 10
323.16256
 20
-191.353332
 30
0.00
  0
SEQEND
  0
POLYLINE
  8
8XV3_EC_PLATE_MIX_ISO-EDGE_CUTS
 66
1
 10
0.00
 20
0.00
 30
0.00
 40
0.20
 41
0.20
  0
VERTEX
  8
8XV3_EC_PLATE_MIX_ISO-EDGE_CUTS
 10
324.16256
 20
-178.253332
 30
0.00
  0
VERTEX
  8
8XV3_EC_PLATE_MIX_ISO-EDGE_CUTS
 10
324.16256
 20
-190.353332
 30
0.00
  0
SEQEND
  0
POLYLINE
  8
8XV3_EC_PLATE_MIX_ISO-EDGE_CUTS
 66
1
 10
0.00
 20
0.00
 30
0.00
 40
0.20
 41
0.20
  0
VERTEX
  8
8XV3_EC_PLATE_MIX_ISO-EDGE_CUTS
 10
323.16256
 20
-177.253332
 30
0.00
  0
VERTEX
  8
8XV3_EC_PLATE_MIX_ISO-EDGE_CUTS
 10
324.16256
 20
-178.253332
 30
0.00
  0
SEQEND
  0
POLYLINE
  8
8XV3_EC_PLATE_MIX_ISO-EDGE_CUTS
 66
1
 10
0.00
 20
0.00
 30
0.00
 40
0.20
 41
0.20
  0
VERTEX
  8
8XV3_EC_PLATE_MIX_ISO-EDGE_CUTS
 10
310.46256
 20
-177.253332
 30
0.00
  0
VERTEX
  8
8XV3_EC_PLATE_MIX_ISO-EDGE_CUTS
 10
323.16256
 20
-177.253332
 30
0.00
  0
SEQEND
  0
POLYLINE
  8
8XV3_EC_PLATE_MIX_ISO-EDGE_CUTS
 66
1
 10
0.00
 20
0.00
 30
0.00
 40
0.20
 41
0.20
  0
VERTEX
  8
8XV3_EC_PLATE_MIX_ISO-EDGE_CUTS
 10
288.80631
 20
-159.203332
 30
0.00
  0
VERTEX
  8
8XV3_EC_PLATE_MIX_ISO-EDGE_CUTS
 10
289.80631
 20
-158.203332
 30
0.00
  0
SEQEND
  0
POLYLINE
  8
8XV3_EC_PLATE_MIX_ISO-EDGE_CUTS
 66
1
 10
0.00
 20
0.00
 30
0.00
 40
0.20
 41
0.20
  0
VERTEX
  8
8XV3_EC_PLATE_MIX_ISO-EDGE_CUTS
 10
288.80631
 20
-170.573332
 30
0.00
  0
VERTEX
  8
8XV3_EC_PLATE_MIX_ISO-EDGE_CUTS
 10
288.80631
 20
-159.203332
 30
0.00
  0
SEQEND
  0
POLYLINE
  8
8XV3_EC_PLATE_MIX_ISO-EDGE_CUTS
 66
1
 10
0.00
 20
0.00
 30
0.00
 40
0.20
 41
0.20
  0
VERTEX
  8
8XV3_EC_PLATE_MIX_ISO-EDGE_CUTS
 10
291.80631
 20
-172.303332
 30
0.00
  0
VERTEX
  8
8XV3_EC_PLATE_MIX_ISO-EDGE_CUTS
 10
288.80631
 20
-170.573332
 30
0.00
  0
SEQEND
  0
POLYLINE
  8
8XV3_EC_PLATE_MIX_ISO-EDGE_CUTS
 66
1
 10
0.00
 20
0.00
 30
0.00
 40
0.20
 41
0.20
  0
VERTEX
  8
8XV3_EC_PLATE_MIX_ISO-EDGE_CUTS
 10
318.00631
 20
-172.303332
 30
0.00
  0
VERTEX
  8
8XV3_EC_PLATE_MIX_ISO-EDGE_CUTS
 10
291.80631
 20
-172.303332
 30
0.00
  0
SEQEND
  0
POLYLINE
  8
8XV3_EC_PLATE_MIX_ISO-EDGE_CUTS
 66
1
 10
0.00
 20
0.00
 30
0.00
 40
0.20
 41
0.20
  0
VERTEX
  8
8XV3_EC_PLATE_MIX_ISO-EDGE_CUTS
 10
321.00631
 20
-170.573332
 30
0.00
  0
VERTEX
  8
8XV3_EC_PLATE_MIX_ISO-EDGE_CUTS
 10
318.00631
 20
-172.303332
 30
0.00
  0
SEQEND
  0
POLYLINE
  8
8XV3_EC_PLATE_MIX_ISO-EDGE_CUTS
 66
1
 10
0.00
 20
0.00
 30
0.00
 40
0.20
 41
0.20
  0
VERTEX
  8
8XV3_EC_PLATE_MIX_ISO-EDGE_CUTS
 10
321.00631
 20
-159.203332
 30
0.00
  0
VERTEX
  8
8XV3_EC_PLATE_MIX_ISO-EDGE_CUTS
 10
321.00631
 20
-170.573332
 30
0.00
  0
SEQEND
  0
POLYLINE
  8
8XV3_EC_PLATE_MIX_ISO-EDGE_CUTS
 66
1
 10
0.00
 20
0.00
 30
0.00
 40
0.20
 41
0.20
  0
VERTEX
  8
8XV3_EC_PLATE_MIX_ISO-EDGE_CUTS
 10
320.00631
 20
-158.203332
 30
0.00
  0
VERTEX
  8
8XV3_EC_PLATE_MIX_ISO-EDGE_CUTS
 10
321.00631
 20
-159.203332
 30
0.00
  0
SEQEND
  0
POLYLINE
  8
8XV3_EC_PLATE_MIX_ISO-EDGE_CUTS
 66
1
 10
0.00
 20
0.00
 30
0.00
 40
0.20
 41
0.20
  0
VERTEX
  8
8XV3_EC_PLATE_MIX_ISO-EDGE_CUTS
 10
289.80631
 20
-158.203332
 30
0.00
  0
VERTEX
  8
8XV3_EC_PLATE_MIX_ISO-EDGE_CUTS
 10
320.00631
 20
-158.203332
 30
0.00
  0
SEQEND
  0
POLYLINE
  8
8XV3_EC_PLATE_MIX_ISO-EDGE_CUTS
 66
1
 10
0.00
 20
0.00
 30
0.00
 40
0.20
 41
0.20
  0
VERTEX
  8
8XV3_EC_PLATE_MIX_ISO-EDGE_CUTS
 10
290.41256
 20
-140.153332
 30
0.00
  0
VERTEX
  8
8XV3_EC_PLATE_MIX_ISO-EDGE_CUTS
 10
291.41256
 20
-139.153332
 30
0.00
  0
SEQEND
  0
POLYLINE
  8
8XV3_EC_PLATE_MIX_ISO-EDGE_CUTS
 66
1
 10
0.00
 20
0.00
 30
0.00
 40
0.20
 41
0.20
  0
VERTEX
  8
8XV3_EC_PLATE_MIX_ISO-EDGE_CUTS
 10
290.41256
 20
-152.253332
 30
0.00
  0
VERTEX
  8
8XV3_EC_PLATE_MIX_ISO-EDGE_CUTS
 10
290.41256
 20
-140.153332
 30
0.00
  0
SEQEND
  0
POLYLINE
  8
8XV3_EC_PLATE_MIX_ISO-EDGE_CUTS
 66
1
 10
0.00
 20
0.00
 30
0.00
 40
0.20
 41
0.20
  0
VERTEX
  8
8XV3_EC_PLATE_MIX_ISO-EDGE_CUTS
 10
291.41256
 20
-153.253332
 30
0.00
  0
VERTEX
  8
8XV3_EC_PLATE_MIX_ISO-EDGE_CUTS
 10
290.41256
 20
-152.253332
 30
0.00
  0
SEQEND
  0
POLYLINE
  8
8XV3_EC_PLATE_MIX_ISO-EDGE_CUTS
 66
1
 10
0.00
 20
0.00
 30
0.00
 40
0.20
 41
0.20
  0
VERTEX
  8
8XV3_EC_PLATE_MIX_ISO-EDGE_CUTS
 10
304.11256
 20
-153.253332
 30
0.00
  0
VERTEX
  8
8XV3_EC_PLATE_MIX_ISO-EDGE_CUTS
 10
291.41256
 20
-153.253332
 30
0.00
  0
SEQEND
  0
POLYLINE
  8
8XV3_EC_PLATE_MIX_ISO-EDGE_CUTS
 66
1
 10
0.00
 20
0.00
 30
0.00
 40
0.20
 41
0.20
  0
VERTEX
  8
8XV3_EC_PLATE_MIX_ISO-EDGE_CUTS
 10
305.11256
 20
-152.253332
 30
0.00
  0
VERTEX
  8
8XV3_EC_PLATE_MIX_ISO-EDGE_CUTS
 10
304.11256
 20
-153.253332
 30
0.00
  0
SEQEND
  0
POLYLINE
  8
8XV3_EC_PLATE_MIX_ISO-EDGE_CUTS
 66
1
 10
0.00
 20
0.00
 30
0.00
 40
0.20
 41
0.20
  0
VERTEX
  8
8XV3_EC_PLATE_MIX_ISO-EDGE_CUTS
 10
305.11256
 20
-140.153332
 30
0.00
  0
VERTEX
  8
8XV3_EC_PLATE_MIX_ISO-EDGE_CUTS
 10
305.11256
 20
-152.253332
 30
0.00
  0
SEQEND
  0
POLYLINE
  8
8XV3_EC_PLATE_MIX_ISO-EDGE_CUTS
 66
1
 10
0.00
 20
0.00
 30
0.00
 40
0.20
 41
0.20
  0
VERTEX
  8
8XV3_EC_PLATE_MIX_ISO-EDGE_CUTS
 10
304.11256
 20
-139.153332
 30
0.00
  0
VERTEX
  8
8XV3_EC_PLATE_MIX_ISO-EDGE_CUTS
 10
305.11256
 20
-140.153332
 30
0.00
  0
SEQEND
  0
POLYLINE
  8
8XV3_EC_PLATE_MIX_ISO-EDGE_CUTS
 66
1
 10
0.00
 20
0.00
 30
0.00
 40
0.20
 41
0.20
  0
VERTEX
  8
8XV3_EC_PLATE_MIX_ISO-EDGE_CUTS
 10
291.41256
 20
-139.153332
 30
0.00
  0
VERTEX
  8
8XV3_EC_PLATE_MIX_ISO-EDGE_CUTS
 10
304.11256
 20
-139.153332
 30
0.00
  0
SEQEND
  0
POLYLINE
  8
8XV3_EC_PLATE_MIX_ISO-EDGE_CUTS
 66
1
 10
0.00
 20
0.00
 30
0.00
 40
0.20
 41
0.20
  0
VERTEX
  8
8XV3_EC_PLATE_MIX_ISO-EDGE_CUTS
 10
285.65006
 20
-121.103332
 30
0.00
  0
VERTEX
  8
8XV3_EC_PLATE_MIX_ISO-EDGE_CUTS
 10
286.65006
 20
-120.103332
 30
0.00
  0
SEQEND
  0
POLYLINE
  8
8XV3_EC_PLATE_MIX_ISO-EDGE_CUTS
 66
1
 10
0.00
 20
0.00
 30
0.00
 40
0.20
 41
0.20
  0
VERTEX
  8
8XV3_EC_PLATE_MIX_ISO-EDGE_CUTS
 10
285.65006
 20
-133.203332
 30
0.00
  0
VERTEX
  8
8XV3_EC_PLATE_MIX_ISO-EDGE_CUTS
 10
285.65006
 20
-121.103332
 30
0.00
  0
SEQEND
  0
POLYLINE
  8
8XV3_EC_PLATE_MIX_ISO-EDGE_CUTS
 66
1
 10
0.00
 20
0.00
 30
0.00
 40
0.20
 41
0.20
  0
VERTEX
  8
8XV3_EC_PLATE_MIX_ISO-EDGE_CUTS
 10
286.65006
 20
-134.203332
 30
0.00
  0
VERTEX
  8
8XV3_EC_PLATE_MIX_ISO-EDGE_CUTS
 10
285.65006
 20
-133.203332
 30
0.00
  0
SEQEND
  0
POLYLINE
  8
8XV3_EC_PLATE_MIX_ISO-EDGE_CUTS
 66
1
 10
0.00
 20
0.00
 30
0.00
 40
0.20
 41
0.20
  0
VERTEX
  8
8XV3_EC_PLATE_MIX_ISO-EDGE_CUTS
 10
299.35006
 20
-134.203332
 30
0.00
  0
VERTEX
  8
8XV3_EC_PLATE_MIX_ISO-EDGE_CUTS
 10
286.65006
 20
-134.203332
 30
0.00
  0
SEQEND
  0
POLYLINE
  8
8XV3_EC_PLATE_MIX_ISO-EDGE_CUTS
 66
1
 10
0.00
 20
0.00
 30
0.00
 40
0.20
 41
0.20
  0
VERTEX
  8
8XV3_EC_PLATE_MIX_ISO-EDGE_CUTS
 10
300.35006
 20
-133.203332
 30
0.00
  0
VERTEX
  8
8XV3_EC_PLATE_MIX_ISO-EDGE_CUTS
 10
299.35006
 20
-134.203332
 30
0.00
  0
SEQEND
  0
POLYLINE
  8
8XV3_EC_PLATE_MIX_ISO-EDGE_CUTS
 66
1
 10
0.00
 20
0.00
 30
0.00
 40
0.20
 41
0.20
  0
VERTEX
  8
8XV3_EC_PLATE_MIX_ISO-EDGE_CUTS
 10
300.35006
 20
-121.103332
 30
0.00
  0
VERTEX
  8
8XV3_EC_PLATE_MIX_ISO-EDGE_CUTS
 10
300.35006
 20
-133.203332
 30
0.00
  0
SEQEND
  0
POLYLINE
  8
8XV3_EC_PLATE_MIX_ISO-EDGE_CUTS
 66
1
 10
0.00
 20
0.00
 30
0.00
 40
0.20
 41
0.20
  0
VERTEX
  8
8XV3_EC_PLATE_MIX_ISO-EDGE_CUTS
 10
299.35006
 20
-120.103332
 30
0.00
  0
VERTEX
  8
8XV3_EC_PLATE_MIX_ISO-EDGE_CUTS
 10
300.35006
 20
-121.103332
 30
0.00
  0
SEQEND
  0
POLYLINE
  8
8XV3_EC_PLATE_MIX_ISO-EDGE_CUTS
 66
1
 10
0.00
 20
0.00
 30
0.00
 40
0.20
 41
0.20
  0
VERTEX
  8
8XV3_EC_PLATE_MIX_ISO-EDGE_CUTS
 10
286.65006
 20
-120.103332
 30
0.00
  0
VERTEX
  8
8XV3_EC_PLATE_MIX_ISO-EDGE_CUTS
 10
299.35006
 20
-120.103332
 30
0.00
  0
SEQEND
  0
POLYLINE
  8
8XV3_EC_PLATE_MIX_ISO-EDGE_CUTS
 66
1
 10
0.00
 20
0.00
 30
0.00
 40
0.20
 41
0.20
  0
VERTEX
  8
8XV3_EC_PLATE_MIX_ISO-EDGE_CUTS
 10
276.12506
 20
-102.053332
 30
0.00
  0
VERTEX
  8
8XV3_EC_PLATE_MIX_ISO-EDGE_CUTS
 10
277.12506
 20
-101.053332
 30
0.00
  0
SEQEND
  0
POLYLINE
  8
8XV3_EC_PLATE_MIX_ISO-EDGE_CUTS
 66
1
 10
0.00
 20
0.00
 30
0.00
 40
0.20
 41
0.20
  0
VERTEX
  8
8XV3_EC_PLATE_MIX_ISO-EDGE_CUTS
 10
276.12506
 20
-114.153332
 30
0.00
  0
VERTEX
  8
8XV3_EC_PLATE_MIX_ISO-EDGE_CUTS
 10
276.12506
 20
-102.053332
 30
0.00
  0
SEQEND
  0
POLYLINE
  8
8XV3_EC_PLATE_MIX_ISO-EDGE_CUTS
 66
1
 10
0.00
 20
0.00
 30
0.00
 40
0.20
 41
0.20
  0
VERTEX
  8
8XV3_EC_PLATE_MIX_ISO-EDGE_CUTS
 10
277.12506
 20
-115.153332
 30
0.00
  0
VERTEX
  8
8XV3_EC_PLATE_MIX_ISO-EDGE_CUTS
 10
276.12506
 20
-114.153332
 30
0.00
  0
SEQEND
  0
POLYLINE
  8
8XV3_EC_PLATE_MIX_ISO-EDGE_CUTS
 66
1
 10
0.00
 20
0.00
 30
0.00
 40
0.20
 41
0.20
  0
VERTEX
  8
8XV3_EC_PLATE_MIX_ISO-EDGE_CUTS
 10
289.82506
 20
-115.153332
 30
0.00
  0
VERTEX
  8
8XV3_EC_PLATE_MIX_ISO-EDGE_CUTS
 10
277.12506
 20
-115.153332
 30
0.00
  0
SEQEND
  0
POLYLINE
  8
8XV3_EC_PLATE_MIX_ISO-EDGE_CUTS
 66
1
 10
0.00
 20
0.00
 30
0.00
 40
0.20
 41
0.20
  0
VERTEX
  8
8XV3_EC_PLATE_MIX_ISO-EDGE_CUTS
 10
290.82506
 20
-114.153332
 30
0.00
  0
VERTEX
  8
8XV3_EC_PLATE_MIX_ISO-EDGE_CUTS
 10
289.82506
 20
-115.153332
 30
0.00
  0
SEQEND
  0
POLYLINE
  8
8XV3_EC_PLATE_MIX_ISO-EDGE_CUTS
 66
1
 10
0.00
 20
0.00
 30
0.00
 40
0.20
 41
0.20
  0
VERTEX
  8
8XV3_EC_PLATE_MIX_ISO-EDGE_CUTS
 10
290.82506
 20
-102.053332
 30
0.00
  0
VERTEX
  8
8XV3_EC_PLATE_MIX_ISO-EDGE_CUTS
 10
290.82506
 20
-114.153332
 30
0.00
  0
SEQEND
  0
POLYLINE
  8
8XV3_EC_PLATE_MIX_ISO-EDGE_CUTS
 66
1
 10
0.00
 20
0.00
 30
0.00
 40
0.20
 41
0.20
  0
VERTEX
  8
8XV3_EC_PLATE_MIX_ISO-EDGE_CUTS
 10
289.82506
 20
-101.053332
 30
0.00
  0
VERTEX
  8
8XV3_EC_PLATE_MIX_ISO-EDGE_CUTS
 10
290.82506
 20
-102.053332
 30
0.00
  0
SEQEND
  0
POLYLINE
  8
8XV3_EC_PLATE_MIX_ISO-EDGE_CUTS
 66
1
 10
0.00
 20
0.00
 30
0.00
 40
0.20
 41
0.20
  0
VERTEX
  8
8XV3_EC_PLATE_MIX_ISO-EDGE_CUTS
 10
277.12506
 20
-101.053332
 30
0.00
  0
VERTEX
  8
8XV3_EC_PLATE_MIX_ISO-EDGE_CUTS
 10
289.82506
 20
-101.053332
 30
0.00
  0
SEQEND
  0
POLYLINE
  8
8XV3_EC_PLATE_MIX_ISO-EDGE_CUTS
 66
1
 10
0.00
 20
0.00
 30
0.00
 40
0.20
 41
0.20
  0
VERTEX
  8
8XV3_EC_PLATE_MIX_ISO-EDGE_CUTS
 10
314.23006
 20
-77.053332
 30
0.00
  0
VERTEX
  8
8XV3_EC_PLATE_MIX_ISO-EDGE_CUTS
 10
315.23006
 20
-76.053332
 30
0.00
  0
SEQEND
  0
POLYLINE
  8
8XV3_EC_PLATE_MIX_ISO-EDGE_CUTS
 66
1
 10
0.00
 20
0.00
 30
0.00
 40
0.20
 41
0.20
  0
VERTEX
  8
8XV3_EC_PLATE_MIX_ISO-EDGE_CUTS
 10
314.23006
 20
-89.153332
 30
0.00
  0
VERTEX
  8
8XV3_EC_PLATE_MIX_ISO-EDGE_CUTS
 10
314.23006
 20
-77.053332
 30
0.00
  0
SEQEND
  0
POLYLINE
  8
8XV3_EC_PLATE_MIX_ISO-EDGE_CUTS
 66
1
 10
0.00
 20
0.00
 30
0.00
 40
0.20
 41
0.20
  0
VERTEX
  8
8XV3_EC_PLATE_MIX_ISO-EDGE_CUTS
 10
315.23006
 20
-90.153332
 30
0.00
  0
VERTEX
  8
8XV3_EC_PLATE_MIX_ISO-EDGE_CUTS
 10
314.23006
 20
-89.153332
 30
0.00
  0
SEQEND
  0
POLYLINE
  8
8XV3_EC_PLATE_MIX_ISO-EDGE_CUTS
 66
1
 10
0.00
 20
0.00
 30
0.00
 40
0.20
 41
0.20
  0
VERTEX
  8
8XV3_EC_PLATE_MIX_ISO-EDGE_CUTS
 10
327.93006
 20
-90.153332
 30
0.00
  0
VERTEX
  8
8XV3_EC_PLATE_MIX_ISO-EDGE_CUTS
 10
315.23006
 20
-90.153332
 30
0.00
  0
SEQEND
  0
POLYLINE
  8
8XV3_EC_PLATE_MIX_ISO-EDGE_CUTS
 66
1
 10
0.00
 20
0.00
 30
0.00
 40
0.20
 41
0.20
  0
VERTEX
  8
8XV3_EC_PLATE_MIX_ISO-EDGE_CUTS
 10
328.93006
 20
-89.153332
 30
0.00
  0
VERTEX
  8
8XV3_EC_PLATE_MIX_ISO-EDGE_CUTS
 10
327.93006
 20
-90.153332
 30
0.00
  0
SEQEND
  0
POLYLINE
  8
8XV3_EC_PLATE_MIX_ISO-EDGE_CUTS
 66
1
 10
0.00
 20
0.00
 30
0.00
 40
0.20
 41
0.20
  0
VERTEX
  8
8XV3_EC_PLATE_MIX_ISO-EDGE_CUTS
 10
328.93006
 20
-77.053332
 30
0.00
  0
VERTEX
  8
8XV3_EC_PLATE_MIX_ISO-EDGE_CUTS
 10
328.93006
 20
-89.153332
 30
0.00
  0
SEQEND
  0
POLYLINE
  8
8XV3_EC_PLATE_MIX_ISO-EDGE_CUTS
 66
1
 10
0.00
 20
0.00
 30
0.00
 40
0.20
 41
0.20
  0
VERTEX
  8
8XV3_EC_PLATE_MIX_ISO-EDGE_CUTS
 10
327.93006
 20
-76.053332
 30
0.00
  0
VERTEX
  8
8XV3_EC_PLATE_MIX_ISO-EDGE_CUTS
 10
328.93006
 20
-77.053332
 30
0.00
  0
SEQEND
  0
POLYLINE
  8
8XV3_EC_PLATE_MIX_ISO-EDGE_CUTS
 66
1
 10
0.00
 20
0.00
 30
0.00
 40
0.20
 41
0.20
  0
VERTEX
  8
8XV3_EC_PLATE_MIX_ISO-EDGE_CUTS
 10
315.23006
 20
-76.053332
 30
0.00
  0
VERTEX
  8
8XV3_EC_PLATE_MIX_ISO-EDGE_CUTS
 10
327.93006
 20
-76.053332
 30
0.00
  0
SEQEND
  0
POLYLINE
  8
8XV3_EC_PLATE_MIX_ISO-EDGE_CUTS
 66
1
 10
0.00
 20
0.00
 30
0.00
 40
0.20
 41
0.20
  0
VERTEX
  8
8XV3_EC_PLATE_MIX_ISO-EDGE_CUTS
 10
285.65006
 20
-178.253332
 30
0.00
  0
VERTEX
  8
8XV3_EC_PLATE_MIX_ISO-EDGE_CUTS
 10
286.65006
 20
-177.253332
 30
0.00
  0
SEQEND
  0
POLYLINE
  8
8XV3_EC_PLATE_MIX_ISO-EDGE_CUTS
 66
1
 10
0.00
 20
0.00
 30
0.00
 40
0.20
 41
0.20
  0
VERTEX
  8
8XV3_EC_PLATE_MIX_ISO-EDGE_CUTS
 10
285.65006
 20
-190.353332
 30
0.00
  0
VERTEX
  8
8XV3_EC_PLATE_MIX_ISO-EDGE_CUTS
 10
285.65006
 20
-178.253332
 30
0.00
  0
SEQEND
  0
POLYLINE
  8
8XV3_EC_PLATE_MIX_ISO-EDGE_CUTS
 66
1
 10
0.00
 20
0.00
 30
0.00
 40
0.20
 41
0.20
  0
VERTEX
  8
8XV3_EC_PLATE_MIX_ISO-EDGE_CUTS
 10
286.65006
 20
-191.353332
 30
0.00
  0
VERTEX
  8
8XV3_EC_PLATE_MIX_ISO-EDGE_CUTS
 10
285.65006
 20
-190.353332
 30
0.00
  0
SEQEND
  0
POLYLINE
  8
8XV3_EC_PLATE_MIX_ISO-EDGE_CUTS
 66
1
 10
0.00
 20
0.00
 30
0.00
 40
0.20
 41
0.20
  0
VERTEX
  8
8XV3_EC_PLATE_MIX_ISO-EDGE_CUTS
 10
299.35006
 20
-191.353332
 30
0.00
  0
VERTEX
  8
8XV3_EC_PLATE_MIX_ISO-EDGE_CUTS
 10
286.65006
 20
-191.353332
 30
0.00
  0
SEQEND
  0
POLYLINE
  8
8XV3_EC_PLATE_MIX_ISO-EDGE_CUTS
 66
1
 10
0.00
 20
0.00
 30
0.00
 40
0.20
 41
0.20
  0
VERTEX
  8
8XV3_EC_PLATE_MIX_ISO-EDGE_CUTS
 10
300.35006
 20
-190.353332
 30
0.00
  0
VERTEX
  8
8XV3_EC_PLATE_MIX_ISO-EDGE_CUTS
 10
299.35006
 20
-191.353332
 30
0.00
  0
SEQEND
  0
POLYLINE
  8
8XV3_EC_PLATE_MIX_ISO-EDGE_CUTS
 66
1
 10
0.00
 20
0.00
 30
0.00
 40
0.20
 41
0.20
  0
VERTEX
  8
8XV3_EC_PLATE_MIX_ISO-EDGE_CUTS
 10
300.35006
 20
-178.253332
 30
0.00
  0
VERTEX
  8
8XV3_EC_PLATE_MIX_ISO-EDGE_CUTS
 10
300.35006
 20
-190.353332
 30
0.00
  0
SEQEND
  0
POLYLINE
  8
8XV3_EC_PLATE_MIX_ISO-EDGE_CUTS
 66
1
 10
0.00
 20
0.00
 30
0.00
 40
0.20
 41
0.20
  0
VERTEX
  8
8XV3_EC_PLATE_MIX_ISO-EDGE_CUTS
 10
299.35006
 20
-177.253332
 30
0.00
  0
VERTEX
  8
8XV3_EC_PLATE_MIX_ISO-EDGE_CUTS
 10
300.35006
 20
-178.253332
 30
0.00
  0
SEQEND
  0
POLYLINE
  8
8XV3_EC_PLATE_MIX_ISO-EDGE_CUTS
 66
1
 10
0.00
 20
0.00
 30
0.00
 40
0.20
 41
0.20
  0
VERTEX
  8
8XV3_EC_PLATE_MIX_ISO-EDGE_CUTS
 10
286.65006
 20
-177.253332
 30
0.00
  0
VERTEX
  8
8XV3_EC_PLATE_MIX_ISO-EDGE_CUTS
 10
299.35006
 20
-177.253332
 30
0.00
  0
SEQEND
  0
POLYLINE
  8
8XV3_EC_PLATE_MIX_ISO-EDGE_CUTS
 66
1
 10
0.00
 20
0.00
 30
0.00
 40
0.20
 41
0.20
  0
VERTEX
  8
8XV3_EC_PLATE_MIX_ISO-EDGE_CUTS
 10
271.36256
 20
-140.153332
 30
0.00
  0
VERTEX
  8
8XV3_EC_PLATE_MIX_ISO-EDGE_CUTS
 10
272.36256
 20
-139.153332
 30
0.00
  0
SEQEND
  0
POLYLINE
  8
8XV3_EC_PLATE_MIX_ISO-EDGE_CUTS
 66
1
 10
0.00
 20
0.00
 30
0.00
 40
0.20
 41
0.20
  0
VERTEX
  8
8XV3_EC_PLATE_MIX_ISO-EDGE_CUTS
 10
271.36256
 20
-152.253332
 30
0.00
  0
VERTEX
  8
8XV3_EC_PLATE_MIX_ISO-EDGE_CUTS
 10
271.36256
 20
-140.153332
 30
0.00
  0
SEQEND
  0
POLYLINE
  8
8XV3_EC_PLATE_MIX_ISO-EDGE_CUTS
 66
1
 10
0.00
 20
0.00
 30
0.00
 40
0.20
 41
0.20
  0
VERTEX
  8
8XV3_EC_PLATE_MIX_ISO-EDGE_CUTS
 10
272.36256
 20
-153.253332
 30
0.00
  0
VERTEX
  8
8XV3_EC_PLATE_MIX_ISO-EDGE_CUTS
 10
271.36256
 20
-152.253332
 30
0.00
  0
SEQEND
  0
POLYLINE
  8
8XV3_EC_PLATE_MIX_ISO-EDGE_CUTS
 66
1
 10
0.00
 20
0.00
 30
0.00
 40
0.20
 41
0.20
  0
VERTEX
  8
8XV3_EC_PLATE_MIX_ISO-EDGE_CUTS
 10
285.06256
 20
-153.253332
 30
0.00
  0
VERTEX
  8
8XV3_EC_PLATE_MIX_ISO-EDGE_CUTS
 10
272.36256
 20
-153.253332
 30
0.00
  0
SEQEND
  0
POLYLINE
  8
8XV3_EC_PLATE_MIX_ISO-EDGE_CUTS
 66
1
 10
0.00
 20
0.00
 30
0.00
 40
0.20
 41
0.20
  0
VERTEX
  8
8XV3_EC_PLATE_MIX_ISO-EDGE_CUTS
 10
286.06256
 20
-152.253332
 30
0.00
  0
VERTEX
  8
8XV3_EC_PLATE_MIX_ISO-EDGE_CUTS
 10
285.06256
 20
-153.253332
 30
0.00
  0
SEQEND
  0
POLYLINE
  8
8XV3_EC_PLATE_MIX_ISO-EDGE_CUTS
 66
1
 10
0.00
 20
0.00
 30
0.00
 40
0.20
 41
0.20
  0
VERTEX
  8
8XV3_EC_PLATE_MIX_ISO-EDGE_CUTS
 10
286.06256
 20
-140.153332
 30
0.00
  0
VERTEX
  8
8XV3_EC_PLATE_MIX_ISO-EDGE_CUTS
 10
286.06256
 20
-152.253332
 30
0.00
  0
SEQEND
  0
POLYLINE
  8
8XV3_EC_PLATE_MIX_ISO-EDGE_CUTS
 66
1
 10
0.00
 20
0.00
 30
0.00
 40
0.20
 41
0.20
  0
VERTEX
  8
8XV3_EC_PLATE_MIX_ISO-EDGE_CUTS
 10
285.06256
 20
-139.153332
 30
0.00
  0
VERTEX
  8
8XV3_EC_PLATE_MIX_ISO-EDGE_CUTS
 10
286.06256
 20
-140.153332
 30
0.00
  0
SEQEND
  0
POLYLINE
  8
8XV3_EC_PLATE_MIX_ISO-EDGE_CUTS
 66
1
 10
0.00
 20
0.00
 30
0.00
 40
0.20
 41
0.20
  0
VERTEX
  8
8XV3_EC_PLATE_MIX_ISO-EDGE_CUTS
 10
272.36256
 20
-139.153332
 30
0.00
  0
VERTEX
  8
8XV3_EC_PLATE_MIX_ISO-EDGE_CUTS
 10
285.06256
 20
-139.153332
 30
0.00
  0
SEQEND
  0
POLYLINE
  8
8XV3_EC_PLATE_MIX_ISO-EDGE_CUTS
 66
1
 10
0.00
 20
0.00
 30
0.00
 40
0.20
 41
0.20
  0
VERTEX
  8
8XV3_EC_PLATE_MIX_ISO-EDGE_CUTS
 10
266.60006
 20
-121.103332
 30
0.00
  0
VERTEX
  8
8XV3_EC_PLATE_MIX_ISO-EDGE_CUTS
 10
267.60006
 20
-120.103332
 30
0.00
  0
SEQEND
  0
POLYLINE
  8
8XV3_EC_PLATE_MIX_ISO-EDGE_CUTS
 66
1
 10
0.00
 20
0.00
 30
0.00
 40
0.20
 41
0.20
  0
VERTEX
  8
8XV3_EC_PLATE_MIX_ISO-EDGE_CUTS
 10
266.60006
 20
-133.203332
 30
0.00
  0
VERTEX
  8
8XV3_EC_PLATE_MIX_ISO-EDGE_CUTS
 10
266.60006
 20
-121.103332
 30
0.00
  0
SEQEND
  0
POLYLINE
  8
8XV3_EC_PLATE_MIX_ISO-EDGE_CUTS
 66
1
 10
0.00
 20
0.00
 30
0.00
 40
0.20
 41
0.20
  0
VERTEX
  8
8XV3_EC_PLATE_MIX_ISO-EDGE_CUTS
 10
267.60006
 20
-134.203332
 30
0.00
  0
VERTEX
  8
8XV3_EC_PLATE_MIX_ISO-EDGE_CUTS
 10
266.60006
 20
-133.203332
 30
0.00
  0
SEQEND
  0
POLYLINE
  8
8XV3_EC_PLATE_MIX_ISO-EDGE_CUTS
 66
1
 10
0.00
 20
0.00
 30
0.00
 40
0.20
 41
0.20
  0
VERTEX
  8
8XV3_EC_PLATE_MIX_ISO-EDGE_CUTS
 10
280.30006
 20
-134.203332
 30
0.00
  0
VERTEX
  8
8XV3_EC_PLATE_MIX_ISO-EDGE_CUTS
 10
267.60006
 20
-134.203332
 30
0.00
  0
SEQEND
  0
POLYLINE
  8
8XV3_EC_PLATE_MIX_ISO-EDGE_CUTS
 66
1
 10
0.00
 20
0.00
 30
0.00
 40
0.20
 41
0.20
  0
VERTEX
  8
8XV3_EC_PLATE_MIX_ISO-EDGE_CUTS
 10
281.30006
 20
-133.203332
 30
0.00
  0
VERTEX
  8
8XV3_EC_PLATE_MIX_ISO-EDGE_CUTS
 10
280.30006
 20
-134.203332
 30
0.00
  0
SEQEND
  0
POLYLINE
  8
8XV3_EC_PLATE_MIX_ISO-EDGE_CUTS
 66
1
 10
0.00
 20
0.00
 30
0.00
 40
0.20
 41
0.20
  0
VERTEX
  8
8XV3_EC_PLATE_MIX_ISO-EDGE_CUTS
 10
281.30006
 20
-121.103332
 30
0.00
  0
VERTEX
  8
8XV3_EC_PLATE_MIX_ISO-EDGE_CUTS
 10
281.30006
 20
-133.203332
 30
0.00
  0
SEQEND
  0
POLYLINE
  8
8XV3_EC_PLATE_MIX_ISO-EDGE_CUTS
 66
1
 10
0.00
 20
0.00
 30
0.00
 40
0.20
 41
0.20
  0
VERTEX
  8
8XV3_EC_PLATE_MIX_ISO-EDGE_CUTS
 10
280.30006
 20
-120.103332
 30
0.00
  0
VERTEX
  8
8XV3_EC_PLATE_MIX_ISO-EDGE_CUTS
 10
281.30006
 20
-121.103332
 30
0.00
  0
SEQEND
  0
POLYLINE
  8
8XV3_EC_PLATE_MIX_ISO-EDGE_CUTS
 66
1
 10
0.00
 20
0.00
 30
0.00
 40
0.20
 41
0.20
  0
VERTEX
  8
8XV3_EC_PLATE_MIX_ISO-EDGE_CUTS
 10
267.60006
 20
-120.103332
 30
0.00
  0
VERTEX
  8
8XV3_EC_PLATE_MIX_ISO-EDGE_CUTS
 10
280.30006
 20
-120.103332
 30
0.00
  0
SEQEND
  0
POLYLINE
  8
8XV3_EC_PLATE_MIX_ISO-EDGE_CUTS
 66
1
 10
0.00
 20
0.00
 30
0.00
 40
0.20
 41
0.20
  0
VERTEX
  8
8XV3_EC_PLATE_MIX_ISO-EDGE_CUTS
 10
257.07506
 20
-102.053332
 30
0.00
  0
VERTEX
  8
8XV3_EC_PLATE_MIX_ISO-EDGE_CUTS
 10
258.07506
 20
-101.053332
 30
0.00
  0
SEQEND
  0
POLYLINE
  8
8XV3_EC_PLATE_MIX_ISO-EDGE_CUTS
 66
1
 10
0.00
 20
0.00
 30
0.00
 40
0.20
 41
0.20
  0
VERTEX
  8
8XV3_EC_PLATE_MIX_ISO-EDGE_CUTS
 10
257.07506
 20
-114.153332
 30
0.00
  0
VERTEX
  8
8XV3_EC_PLATE_MIX_ISO-EDGE_CUTS
 10
257.07506
 20
-102.053332
 30
0.00
  0
SEQEND
  0
POLYLINE
  8
8XV3_EC_PLATE_MIX_ISO-EDGE_CUTS
 66
1
 10
0.00
 20
0.00
 30
0.00
 40
0.20
 41
0.20
  0
VERTEX
  8
8XV3_EC_PLATE_MIX_ISO-EDGE_CUTS
 10
258.07506
 20
-115.153332
 30
0.00
  0
VERTEX
  8
8XV3_EC_PLATE_MIX_ISO-EDGE_CUTS
 10
257.07506
 20
-114.153332
 30
0.00
  0
SEQEND
  0
POLYLINE
  8
8XV3_EC_PLATE_MIX_ISO-EDGE_CUTS
 66
1
 10
0.00
 20
0.00
 30
0.00
 40
0.20
 41
0.20
  0
VERTEX
  8
8XV3_EC_PLATE_MIX_ISO-EDGE_CUTS
 10
270.77506
 20
-115.153332
 30
0.00
  0
VERTEX
  8
8XV3_EC_PLATE_MIX_ISO-EDGE_CUTS
 10
258.07506
 20
-115.153332
 30
0.00
  0
SEQEND
  0
POLYLINE
  8
8XV3_EC_PLATE_MIX_ISO-EDGE_CUTS
 66
1
 10
0.00
 20
0.00
 30
0.00
 40
0.20
 41
0.20
  0
VERTEX
  8
8XV3_EC_PLATE_MIX_ISO-EDGE_CUTS
 10
271.77506
 20
-114.153332
 30
0.00
  0
VERTEX
  8
8XV3_EC_PLATE_MIX_ISO-EDGE_CUTS
 10
270.77506
 20
-115.153332
 30
0.00
  0
SEQEND
  0
POLYLINE
  8
8XV3_EC_PLATE_MIX_ISO-EDGE_CUTS
 66
1
 10
0.00
 20
0.00
 30
0.00
 40
0.20
 41
0.20
  0
VERTEX
  8
8XV3_EC_PLATE_MIX_ISO-EDGE_CUTS
 10
271.77506
 20
-102.053332
 30
0.00
  0
VERTEX
  8
8XV3_EC_PLATE_MIX_ISO-EDGE_CUTS
 10
271.77506
 20
-114.153332
 30
0.00
  0
SEQEND
  0
POLYLINE
  8
8XV3_EC_PLATE_MIX_ISO-EDGE_CUTS
 66
1
 10
0.00
 20
0.00
 30
0.00
 40
0.20
 41
0.20
  0
VERTEX
  8
8XV3_EC_PLATE_MIX_ISO-EDGE_CUTS
 10
270.77506
 20
-101.053332
 30
0.00
  0
VERTEX
  8
8XV3_EC_PLATE_MIX_ISO-EDGE_CUTS
 10
271.77506
 20
-102.053332
 30
0.00
  0
SEQEND
  0
POLYLINE
  8
8XV3_EC_PLATE_MIX_ISO-EDGE_CUTS
 66
1
 10
0.00
 20
0.00
 30
0.00
 40
0.20
 41
0.20
  0
VERTEX
  8
8XV3_EC_PLATE_MIX_ISO-EDGE_CUTS
 10
258.07506
 20
-101.053332
 30
0.00
  0
VERTEX
  8
8XV3_EC_PLATE_MIX_ISO-EDGE_CUTS
 10
270.77506
 20
-101.053332
 30
0.00
  0
SEQEND
  0
POLYLINE
  8
8XV3_EC_PLATE_MIX_ISO-EDGE_CUTS
 66
1
 10
0.00
 20
0.00
 30
0.00
 40
0.20
 41
0.20
  0
VERTEX
  8
8XV3_EC_PLATE_MIX_ISO-EDGE_CUTS
 10
276.13006
 20
-77.053332
 30
0.00
  0
VERTEX
  8
8XV3_EC_PLATE_MIX_ISO-EDGE_CUTS
 10
277.13006
 20
-76.053332
 30
0.00
  0
SEQEND
  0
POLYLINE
  8
8XV3_EC_PLATE_MIX_ISO-EDGE_CUTS
 66
1
 10
0.00
 20
0.00
 30
0.00
 40
0.20
 41
0.20
  0
VERTEX
  8
8XV3_EC_PLATE_MIX_ISO-EDGE_CUTS
 10
276.13006
 20
-89.153332
 30
0.00
  0
VERTEX
  8
8XV3_EC_PLATE_MIX_ISO-EDGE_CUTS
 10
276.13006
 20
-77.053332
 30
0.00
  0
SEQEND
  0
POLYLINE
  8
8XV3_EC_PLATE_MIX_ISO-EDGE_CUTS
 66
1
 10
0.00
 20
0.00
 30
0.00
 40
0.20
 41
0.20
  0
VERTEX
  8
8XV3_EC_PLATE_MIX_ISO-EDGE_CUTS
 10
277.13006
 20
-90.153332
 30
0.00
  0
VERTEX
  8
8XV3_EC_PLATE_MIX_ISO-EDGE_CUTS
 10
276.13006
 20
-89.153332
 30
0.00
  0
SEQEND
  0
POLYLINE
  8
8XV3_EC_PLATE_MIX_ISO-EDGE_CUTS
 66
1
 10
0.00
 20
0.00
 30
0.00
 40
0.20
 41
0.20
  0
VERTEX
  8
8XV3_EC_PLATE_MIX_ISO-EDGE_CUTS
 10
289.83006
 20
-90.153332
 30
0.00
  0
VERTEX
  8
8XV3_EC_PLATE_MIX_ISO-EDGE_CUTS
 10
277.13006
 20
-90.153332
 30
0.00
  0
SEQEND
  0
POLYLINE
  8
8XV3_EC_PLATE_MIX_ISO-EDGE_CUTS
 66
1
 10
0.00
 20
0.00
 30
0.00
 40
0.20
 41
0.20
  0
VERTEX
  8
8XV3_EC_PLATE_MIX_ISO-EDGE_CUTS
 10
290.83006
 20
-89.153332
 30
0.00
  0
VERTEX
  8
8XV3_EC_PLATE_MIX_ISO-EDGE_CUTS
 10
289.83006
 20
-90.153332
 30
0.00
  0
SEQEND
  0
POLYLINE
  8
8XV3_EC_PLATE_MIX_ISO-EDGE_CUTS
 66
1
 10
0.00
 20
0.00
 30
0.00
 40
0.20
 41
0.20
  0
VERTEX
  8
8XV3_EC_PLATE_MIX_ISO-EDGE_CUTS
 10
290.83006
 20
-77.053332
 30
0.00
  0
VERTEX
  8
8XV3_EC_PLATE_MIX_ISO-EDGE_CUTS
 10
290.83006
 20
-89.153332
 30
0.00
  0
SEQEND
  0
POLYLINE
  8
8XV3_EC_PLATE_MIX_ISO-EDGE_CUTS
 66
1
 10
0.00
 20
0.00
 30
0.00
 40
0.20
 41
0.20
  0
VERTEX
  8
8XV3_EC_PLATE_MIX_ISO-EDGE_CUTS
 10
289.83006
 20
-76.053332
 30
0.00
  0
VERTEX
  8
8XV3_EC_PLATE_MIX_ISO-EDGE_CUTS
 10
290.83006
 20
-77.053332
 30
0.00
  0
SEQEND
  0
POLYLINE
  8
8XV3_EC_PLATE_MIX_ISO-EDGE_CUTS
 66
1
 10
0.00
 20
0.00
 30
0.00
 40
0.20
 41
0.20
  0
VERTEX
  8
8XV3_EC_PLATE_MIX_ISO-EDGE_CUTS
 10
277.13006
 20
-76.053332
 30
0.00
  0
VERTEX
  8
8XV3_EC_PLATE_MIX_ISO-EDGE_CUTS
 10
289.83006
 20
-76.053332
 30
0.00
  0
SEQEND
  0
POLYLINE
  8
8XV3_EC_PLATE_MIX_ISO-EDGE_CUTS
 66
1
 10
0.00
 20
0.00
 30
0.00
 40
0.20
 41
0.20
  0
VERTEX
  8
8XV3_EC_PLATE_MIX_ISO-EDGE_CUTS
 10
295.18006
 20
-77.053332
 30
0.00
  0
VERTEX
  8
8XV3_EC_PLATE_MIX_ISO-EDGE_CUTS
 10
296.18006
 20
-76.053332
 30
0.00
  0
SEQEND
  0
POLYLINE
  8
8XV3_EC_PLATE_MIX_ISO-EDGE_CUTS
 66
1
 10
0.00
 20
0.00
 30
0.00
 40
0.20
 41
0.20
  0
VERTEX
  8
8XV3_EC_PLATE_MIX_ISO-EDGE_CUTS
 10
295.18006
 20
-89.153332
 30
0.00
  0
VERTEX
  8
8XV3_EC_PLATE_MIX_ISO-EDGE_CUTS
 10
295.18006
 20
-77.053332
 30
0.00
  0
SEQEND
  0
POLYLINE
  8
8XV3_EC_PLATE_MIX_ISO-EDGE_CUTS
 66
1
 10
0.00
 20
0.00
 30
0.00
 40
0.20
 41
0.20
  0
VERTEX
  8
8XV3_EC_PLATE_MIX_ISO-EDGE_CUTS
 10
296.18006
 20
-90.153332
 30
0.00
  0
VERTEX
  8
8XV3_EC_PLATE_MIX_ISO-EDGE_CUTS
 10
295.18006
 20
-89.153332
 30
0.00
  0
SEQEND
  0
POLYLINE
  8
8XV3_EC_PLATE_MIX_ISO-EDGE_CUTS
 66
1
 10
0.00
 20
0.00
 30
0.00
 40
0.20
 41
0.20
  0
VERTEX
  8
8XV3_EC_PLATE_MIX_ISO-EDGE_CUTS
 10
308.88006
 20
-90.153332
 30
0.00
  0
VERTEX
  8
8XV3_EC_PLATE_MIX_ISO-EDGE_CUTS
 10
296.18006
 20
-90.153332
 30
0.00
  0
SEQEND
  0
POLYLINE
  8
8XV3_EC_PLATE_MIX_ISO-EDGE_CUTS
 66
1
 10
0.00
 20
0.00
 30
0.00
 40
0.20
 41
0.20
  0
VERTEX
  8
8XV3_EC_PLATE_MIX_ISO-EDGE_CUTS
 10
309.88006
 20
-89.153332
 30
0.00
  0
VERTEX
  8
8XV3_EC_PLATE_MIX_ISO-EDGE_CUTS
 10
308.88006
 20
-90.153332
 30
0.00
  0
SEQEND
  0
POLYLINE
  8
8XV3_EC_PLATE_MIX_ISO-EDGE_CUTS
 66
1
 10
0.00
 20
0.00
 30
0.00
 40
0.20
 41
0.20
  0
VERTEX
  8
8XV3_EC_PLATE_MIX_ISO-EDGE_CUTS
 10
309.88006
 20
-77.053332
 30
0.00
  0
VERTEX
  8
8XV3_EC_PLATE_MIX_ISO-EDGE_CUTS
 10
309.88006
 20
-89.153332
 30
0.00
  0
SEQEND
  0
POLYLINE
  8
8XV3_EC_PLATE_MIX_ISO-EDGE_CUTS
 66
1
 10
0.00
 20
0.00
 30
0.00
 40
0.20
 41
0.20
  0
VERTEX
  8
8XV3_EC_PLATE_MIX_ISO-EDGE_CUTS
 10
308.88006
 20
-76.053332
 30
0.00
  0
VERTEX
  8
8XV3_EC_PLATE_MIX_ISO-EDGE_CUTS
 10
309.88006
 20
-77.053332
 30
0.00
  0
SEQEND
  0
POLYLINE
  8
8XV3_EC_PLATE_MIX_ISO-EDGE_CUTS
 66
1
 10
0.00
 20
0.00
 30
0.00
 40
0.20
 41
0.20
  0
VERTEX
  8
8XV3_EC_PLATE_MIX_ISO-EDGE_CUTS
 10
296.18006
 20
-76.053332
 30
0.00
  0
VERTEX
  8
8XV3_EC_PLATE_MIX_ISO-EDGE_CUTS
 10
308.88006
 20
-76.053332
 30
0.00
  0
SEQEND
  0
POLYLINE
  8
8XV3_EC_PLATE_MIX_ISO-EDGE_CUTS
 66
1
 10
0.00
 20
0.00
 30
0.00
 40
0.20
 41
0.20
  0
VERTEX
  8
8XV3_EC_PLATE_MIX_ISO-EDGE_CUTS
 10
261.83756
 20
-178.253332
 30
0.00
  0
VERTEX
  8
8XV3_EC_PLATE_MIX_ISO-EDGE_CUTS
 10
262.83756
 20
-177.253332
 30
0.00
  0
SEQEND
  0
POLYLINE
  8
8XV3_EC_PLATE_MIX_ISO-EDGE_CUTS
 66
1
 10
0.00
 20
0.00
 30
0.00
 40
0.20
 41
0.20
  0
VERTEX
  8
8XV3_EC_PLATE_MIX_ISO-EDGE_CUTS
 10
261.83756
 20
-190.353332
 30
0.00
  0
VERTEX
  8
8XV3_EC_PLATE_MIX_ISO-EDGE_CUTS
 10
261.83756
 20
-178.253332
 30
0.00
  0
SEQEND
  0
POLYLINE
  8
8XV3_EC_PLATE_MIX_ISO-EDGE_CUTS
 66
1
 10
0.00
 20
0.00
 30
0.00
 40
0.20
 41
0.20
  0
VERTEX
  8
8XV3_EC_PLATE_MIX_ISO-EDGE_CUTS
 10
262.83756
 20
-191.353332
 30
0.00
  0
VERTEX
  8
8XV3_EC_PLATE_MIX_ISO-EDGE_CUTS
 10
261.83756
 20
-190.353332
 30
0.00
  0
SEQEND
  0
POLYLINE
  8
8XV3_EC_PLATE_MIX_ISO-EDGE_CUTS
 66
1
 10
0.00
 20
0.00
 30
0.00
 40
0.20
 41
0.20
  0
VERTEX
  8
8XV3_EC_PLATE_MIX_ISO-EDGE_CUTS
 10
275.53756
 20
-191.353332
 30
0.00
  0
VERTEX
  8
8XV3_EC_PLATE_MIX_ISO-EDGE_CUTS
 10
262.83756
 20
-191.353332
 30
0.00
  0
SEQEND
  0
POLYLINE
  8
8XV3_EC_PLATE_MIX_ISO-EDGE_CUTS
 66
1
 10
0.00
 20
0.00
 30
0.00
 40
0.20
 41
0.20
  0
VERTEX
  8
8XV3_EC_PLATE_MIX_ISO-EDGE_CUTS
 10
276.53756
 20
-190.353332
 30
0.00
  0
VERTEX
  8
8XV3_EC_PLATE_MIX_ISO-EDGE_CUTS
 10
275.53756
 20
-191.353332
 30
0.00
  0
SEQEND
  0
POLYLINE
  8
8XV3_EC_PLATE_MIX_ISO-EDGE_CUTS
 66
1
 10
0.00
 20
0.00
 30
0.00
 40
0.20
 41
0.20
  0
VERTEX
  8
8XV3_EC_PLATE_MIX_ISO-EDGE_CUTS
 10
276.53756
 20
-178.253332
 30
0.00
  0
VERTEX
  8
8XV3_EC_PLATE_MIX_ISO-EDGE_CUTS
 10
276.53756
 20
-190.353332
 30
0.00
  0
SEQEND
  0
POLYLINE
  8
8XV3_EC_PLATE_MIX_ISO-EDGE_CUTS
 66
1
 10
0.00
 20
0.00
 30
0.00
 40
0.20
 41
0.20
  0
VERTEX
  8
8XV3_EC_PLATE_MIX_ISO-EDGE_CUTS
 10
275.53756
 20
-177.253332
 30
0.00
  0
VERTEX
  8
8XV3_EC_PLATE_MIX_ISO-EDGE_CUTS
 10
276.53756
 20
-178.253332
 30
0.00
  0
SEQEND
  0
POLYLINE
  8
8XV3_EC_PLATE_MIX_ISO-EDGE_CUTS
 66
1
 10
0.00
 20
0.00
 30
0.00
 40
0.20
 41
0.20
  0
VERTEX
  8
8XV3_EC_PLATE_MIX_ISO-EDGE_CUTS
 10
262.83756
 20
-177.253332
 30
0.00
  0
VERTEX
  8
8XV3_EC_PLATE_MIX_ISO-EDGE_CUTS
 10
275.53756
 20
-177.253332
 30
0.00
  0
SEQEND
  0
POLYLINE
  8
8XV3_EC_PLATE_MIX_ISO-EDGE_CUTS
 66
1
 10
0.00
 20
0.00
 30
0.00
 40
0.20
 41
0.20
  0
VERTEX
  8
8XV3_EC_PLATE_MIX_ISO-EDGE_CUTS
 10
261.83756
 20
-159.203332
 30
0.00
  0
VERTEX
  8
8XV3_EC_PLATE_MIX_ISO-EDGE_CUTS
 10
262.83756
 20
-158.203332
 30
0.00
  0
SEQEND
  0
POLYLINE
  8
8XV3_EC_PLATE_MIX_ISO-EDGE_CUTS
 66
1
 10
0.00
 20
0.00
 30
0.00
 40
0.20
 41
0.20
  0
VERTEX
  8
8XV3_EC_PLATE_MIX_ISO-EDGE_CUTS
 10
261.83756
 20
-171.303332
 30
0.00
  0
VERTEX
  8
8XV3_EC_PLATE_MIX_ISO-EDGE_CUTS
 10
261.83756
 20
-159.203332
 30
0.00
  0
SEQEND
  0
POLYLINE
  8
8XV3_EC_PLATE_MIX_ISO-EDGE_CUTS
 66
1
 10
0.00
 20
0.00
 30
0.00
 40
0.20
 41
0.20
  0
VERTEX
  8
8XV3_EC_PLATE_MIX_ISO-EDGE_CUTS
 10
262.83756
 20
-172.303332
 30
0.00
  0
VERTEX
  8
8XV3_EC_PLATE_MIX_ISO-EDGE_CUTS
 10
261.83756
 20
-171.303332
 30
0.00
  0
SEQEND
  0
POLYLINE
  8
8XV3_EC_PLATE_MIX_ISO-EDGE_CUTS
 66
1
 10
0.00
 20
0.00
 30
0.00
 40
0.20
 41
0.20
  0
VERTEX
  8
8XV3_EC_PLATE_MIX_ISO-EDGE_CUTS
 10
275.53756
 20
-172.303332
 30
0.00
  0
VERTEX
  8
8XV3_EC_PLATE_MIX_ISO-EDGE_CUTS
 10
262.83756
 20
-172.303332
 30
0.00
  0
SEQEND
  0
POLYLINE
  8
8XV3_EC_PLATE_MIX_ISO-EDGE_CUTS
 66
1
 10
0.00
 20
0.00
 30
0.00
 40
0.20
 41
0.20
  0
VERTEX
  8
8XV3_EC_PLATE_MIX_ISO-EDGE_CUTS
 10
276.53756
 20
-171.303332
 30
0.00
  0
VERTEX
  8
8XV3_EC_PLATE_MIX_ISO-EDGE_CUTS
 10
275.53756
 20
-172.303332
 30
0.00
  0
SEQEND
  0
POLYLINE
  8
8XV3_EC_PLATE_MIX_ISO-EDGE_CUTS
 66
1
 10
0.00
 20
0.00
 30
0.00
 40
0.20
 41
0.20
  0
VERTEX
  8
8XV3_EC_PLATE_MIX_ISO-EDGE_CUTS
 10
276.53756
 20
-159.203332
 30
0.00
  0
VERTEX
  8
8XV3_EC_PLATE_MIX_ISO-EDGE_CUTS
 10
276.53756
 20
-171.303332
 30
0.00
  0
SEQEND
  0
POLYLINE
  8
8XV3_EC_PLATE_MIX_ISO-EDGE_CUTS
 66
1
 10
0.00
 20
0.00
 30
0.00
 40
0.20
 41
0.20
  0
VERTEX
  8
8XV3_EC_PLATE_MIX_ISO-EDGE_CUTS
 10
275.53756
 20
-158.203332
 30
0.00
  0
VERTEX
  8
8XV3_EC_PLATE_MIX_ISO-EDGE_CUTS
 10
276.53756
 20
-159.203332
 30
0.00
  0
SEQEND
  0
POLYLINE
  8
8XV3_EC_PLATE_MIX_ISO-EDGE_CUTS
 66
1
 10
0.00
 20
0.00
 30
0.00
 40
0.20
 41
0.20
  0
VERTEX
  8
8XV3_EC_PLATE_MIX_ISO-EDGE_CUTS
 10
262.83756
 20
-158.203332
 30
0.00
  0
VERTEX
  8
8XV3_EC_PLATE_MIX_ISO-EDGE_CUTS
 10
275.53756
 20
-158.203332
 30
0.00
  0
SEQEND
  0
POLYLINE
  8
8XV3_EC_PLATE_MIX_ISO-EDGE_CUTS
 66
1
 10
0.00
 20
0.00
 30
0.00
 40
0.20
 41
0.20
  0
VERTEX
  8
8XV3_EC_PLATE_MIX_ISO-EDGE_CUTS
 10
252.31256
 20
-140.153332
 30
0.00
  0
VERTEX
  8
8XV3_EC_PLATE_MIX_ISO-EDGE_CUTS
 10
253.31256
 20
-139.153332
 30
0.00
  0
SEQEND
  0
POLYLINE
  8
8XV3_EC_PLATE_MIX_ISO-EDGE_CUTS
 66
1
 10
0.00
 20
0.00
 30
0.00
 40
0.20
 41
0.20
  0
VERTEX
  8
8XV3_EC_PLATE_MIX_ISO-EDGE_CUTS
 10
252.31256
 20
-152.253332
 30
0.00
  0
VERTEX
  8
8XV3_EC_PLATE_MIX_ISO-EDGE_CUTS
 10
252.31256
 20
-140.153332
 30
0.00
  0
SEQEND
  0
POLYLINE
  8
8XV3_EC_PLATE_MIX_ISO-EDGE_CUTS
 66
1
 10
0.00
 20
0.00
 30
0.00
 40
0.20
 41
0.20
  0
VERTEX
  8
8XV3_EC_PLATE_MIX_ISO-EDGE_CUTS
 10
253.31256
 20
-153.253332
 30
0.00
  0
VERTEX
  8
8XV3_EC_PLATE_MIX_ISO-EDGE_CUTS
 10
252.31256
 20
-152.253332
 30
0.00
  0
SEQEND
  0
POLYLINE
  8
8XV3_EC_PLATE_MIX_ISO-EDGE_CUTS
 66
1
 10
0.00
 20
0.00
 30
0.00
 40
0.20
 41
0.20
  0
VERTEX
  8
8XV3_EC_PLATE_MIX_ISO-EDGE_CUTS
 10
266.01256
 20
-153.253332
 30
0.00
  0
VERTEX
  8
8XV3_EC_PLATE_MIX_ISO-EDGE_CUTS
 10
253.31256
 20
-153.253332
 30
0.00
  0
SEQEND
  0
POLYLINE
  8
8XV3_EC_PLATE_MIX_ISO-EDGE_CUTS
 66
1
 10
0.00
 20
0.00
 30
0.00
 40
0.20
 41
0.20
  0
VERTEX
  8
8XV3_EC_PLATE_MIX_ISO-EDGE_CUTS
 10
267.01256
 20
-152.253332
 30
0.00
  0
VERTEX
  8
8XV3_EC_PLATE_MIX_ISO-EDGE_CUTS
 10
266.01256
 20
-153.253332
 30
0.00
  0
SEQEND
  0
POLYLINE
  8
8XV3_EC_PLATE_MIX_ISO-EDGE_CUTS
 66
1
 10
0.00
 20
0.00
 30
0.00
 40
0.20
 41
0.20
  0
VERTEX
  8
8XV3_EC_PLATE_MIX_ISO-EDGE_CUTS
 10
267.01256
 20
-140.153332
 30
0.00
  0
VERTEX
  8
8XV3_EC_PLATE_MIX_ISO-EDGE_CUTS
 10
267.01256
 20
-152.253332
 30
0.00
  0
SEQEND
  0
POLYLINE
  8
8XV3_EC_PLATE_MIX_ISO-EDGE_CUTS
 66
1
 10
0.00
 20
0.00
 30
0.00
 40
0.20
 41
0.20
  0
VERTEX
  8
8XV3_EC_PLATE_MIX_ISO-EDGE_CUTS
 10
266.01256
 20
-139.153332
 30
0.00
  0
VERTEX
  8
8XV3_EC_PLATE_MIX_ISO-EDGE_CUTS
 10
267.01256
 20
-140.153332
 30
0.00
  0
SEQEND
  0
POLYLINE
  8
8XV3_EC_PLATE_MIX_ISO-EDGE_CUTS
 66
1
 10
0.00
 20
0.00
 30
0.00
 40
0.20
 41
0.20
  0
VERTEX
  8
8XV3_EC_PLATE_MIX_ISO-EDGE_CUTS
 10
253.31256
 20
-139.153332
 30
0.00
  0
VERTEX
  8
8XV3_EC_PLATE_MIX_ISO-EDGE_CUTS
 10
266.01256
 20
-139.153332
 30
0.00
  0
SEQEND
  0
POLYLINE
  8
8XV3_EC_PLATE_MIX_ISO-EDGE_CUTS
 66
1
 10
0.00
 20
0.00
 30
0.00
 40
0.20
 41
0.20
  0
VERTEX
  8
8XV3_EC_PLATE_MIX_ISO-EDGE_CUTS
 10
247.55006
 20
-121.103332
 30
0.00
  0
VERTEX
  8
8XV3_EC_PLATE_MIX_ISO-EDGE_CUTS
 10
248.55006
 20
-120.103332
 30
0.00
  0
SEQEND
  0
POLYLINE
  8
8XV3_EC_PLATE_MIX_ISO-EDGE_CUTS
 66
1
 10
0.00
 20
0.00
 30
0.00
 40
0.20
 41
0.20
  0
VERTEX
  8
8XV3_EC_PLATE_MIX_ISO-EDGE_CUTS
 10
247.55006
 20
-133.203332
 30
0.00
  0
VERTEX
  8
8XV3_EC_PLATE_MIX_ISO-EDGE_CUTS
 10
247.55006
 20
-121.103332
 30
0.00
  0
SEQEND
  0
POLYLINE
  8
8XV3_EC_PLATE_MIX_ISO-EDGE_CUTS
 66
1
 10
0.00
 20
0.00
 30
0.00
 40
0.20
 41
0.20
  0
VERTEX
  8
8XV3_EC_PLATE_MIX_ISO-EDGE_CUTS
 10
248.55006
 20
-134.203332
 30
0.00
  0
VERTEX
  8
8XV3_EC_PLATE_MIX_ISO-EDGE_CUTS
 10
247.55006
 20
-133.203332
 30
0.00
  0
SEQEND
  0
POLYLINE
  8
8XV3_EC_PLATE_MIX_ISO-EDGE_CUTS
 66
1
 10
0.00
 20
0.00
 30
0.00
 40
0.20
 41
0.20
  0
VERTEX
  8
8XV3_EC_PLATE_MIX_ISO-EDGE_CUTS
 10
261.25006
 20
-134.203332
 30
0.00
  0
VERTEX
  8
8XV3_EC_PLATE_MIX_ISO-EDGE_CUTS
 10
248.55006
 20
-134.203332
 30
0.00
  0
SEQEND
  0
POLYLINE
  8
8XV3_EC_PLATE_MIX_ISO-EDGE_CUTS
 66
1
 10
0.00
 20
0.00
 30
0.00
 40
0.20
 41
0.20
  0
VERTEX
  8
8XV3_EC_PLATE_MIX_ISO-EDGE_CUTS
 10
262.25006
 20
-133.203332
 30
0.00
  0
VERTEX
  8
8XV3_EC_PLATE_MIX_ISO-EDGE_CUTS
 10
261.25006
 20
-134.203332
 30
0.00
  0
SEQEND
  0
POLYLINE
  8
8XV3_EC_PLATE_MIX_ISO-EDGE_CUTS
 66
1
 10
0.00
 20
0.00
 30
0.00
 40
0.20
 41
0.20
  0
VERTEX
  8
8XV3_EC_PLATE_MIX_ISO-EDGE_CUTS
 10
262.25006
 20
-121.103332
 30
0.00
  0
VERTEX
  8
8XV3_EC_PLATE_MIX_ISO-EDGE_CUTS
 10
262.25006
 20
-133.203332
 30
0.00
  0
SEQEND
  0
POLYLINE
  8
8XV3_EC_PLATE_MIX_ISO-EDGE_CUTS
 66
1
 10
0.00
 20
0.00
 30
0.00
 40
0.20
 41
0.20
  0
VERTEX
  8
8XV3_EC_PLATE_MIX_ISO-EDGE_CUTS
 10
261.25006
 20
-120.103332
 30
0.00
  0
VERTEX
  8
8XV3_EC_PLATE_MIX_ISO-EDGE_CUTS
 10
262.25006
 20
-121.103332
 30
0.00
  0
SEQEND
  0
POLYLINE
  8
8XV3_EC_PLATE_MIX_ISO-EDGE_CUTS
 66
1
 10
0.00
 20
0.00
 30
0.00
 40
0.20
 41
0.20
  0
VERTEX
  8
8XV3_EC_PLATE_MIX_ISO-EDGE_CUTS
 10
248.55006
 20
-120.103332
 30
0.00
  0
VERTEX
  8
8XV3_EC_PLATE_MIX_ISO-EDGE_CUTS
 10
261.25006
 20
-120.103332
 30
0.00
  0
SEQEND
  0
POLYLINE
  8
8XV3_EC_PLATE_MIX_ISO-EDGE_CUTS
 66
1
 10
0.00
 20
0.00
 30
0.00
 40
0.20
 41
0.20
  0
VERTEX
  8
8XV3_EC_PLATE_MIX_ISO-EDGE_CUTS
 10
238.02506
 20
-102.053332
 30
0.00
  0
VERTEX
  8
8XV3_EC_PLATE_MIX_ISO-EDGE_CUTS
 10
239.02506
 20
-101.053332
 30
0.00
  0
SEQEND
  0
POLYLINE
  8
8XV3_EC_PLATE_MIX_ISO-EDGE_CUTS
 66
1
 10
0.00
 20
0.00
 30
0.00
 40
0.20
 41
0.20
  0
VERTEX
  8
8XV3_EC_PLATE_MIX_ISO-EDGE_CUTS
 10
238.02506
 20
-114.153332
 30
0.00
  0
VERTEX
  8
8XV3_EC_PLATE_MIX_ISO-EDGE_CUTS
 10
238.02506
 20
-102.053332
 30
0.00
  0
SEQEND
  0
POLYLINE
  8
8XV3_EC_PLATE_MIX_ISO-EDGE_CUTS
 66
1
 10
0.00
 20
0.00
 30
0.00
 40
0.20
 41
0.20
  0
VERTEX
  8
8XV3_EC_PLATE_MIX_ISO-EDGE_CUTS
 10
239.02506
 20
-115.153332
 30
0.00
  0
VERTEX
  8
8XV3_EC_PLATE_MIX_ISO-EDGE_CUTS
 10
238.02506
 20
-114.153332
 30
0.00
  0
SEQEND
  0
POLYLINE
  8
8XV3_EC_PLATE_MIX_ISO-EDGE_CUTS
 66
1
 10
0.00
 20
0.00
 30
0.00
 40
0.20
 41
0.20
  0
VERTEX
  8
8XV3_EC_PLATE_MIX_ISO-EDGE_CUTS
 10
251.72506
 20
-115.153332
 30
0.00
  0
VERTEX
  8
8XV3_EC_PLATE_MIX_ISO-EDGE_CUTS
 10
239.02506
 20
-115.153332
 30
0.00
  0
SEQEND
  0
POLYLINE
  8
8XV3_EC_PLATE_MIX_ISO-EDGE_CUTS
 66
1
 10
0.00
 20
0.00
 30
0.00
 40
0.20
 41
0.20
  0
VERTEX
  8
8XV3_EC_PLATE_MIX_ISO-EDGE_CUTS
 10
252.72506
 20
-114.153332
 30
0.00
  0
VERTEX
  8
8XV3_EC_PLATE_MIX_ISO-EDGE_CUTS
 10
251.72506
 20
-115.153332
 30
0.00
  0
SEQEND
  0
POLYLINE
  8
8XV3_EC_PLATE_MIX_ISO-EDGE_CUTS
 66
1
 10
0.00
 20
0.00
 30
0.00
 40
0.20
 41
0.20
  0
VERTEX
  8
8XV3_EC_PLATE_MIX_ISO-EDGE_CUTS
 10
252.72506
 20
-102.053332
 30
0.00
  0
VERTEX
  8
8XV3_EC_PLATE_MIX_ISO-EDGE_CUTS
 10
252.72506
 20
-114.153332
 30
0.00
  0
SEQEND
  0
POLYLINE
  8
8XV3_EC_PLATE_MIX_ISO-EDGE_CUTS
 66
1
 10
0.00
 20
0.00
 30
0.00
 40
0.20
 41
0.20
  0
VERTEX
  8
8XV3_EC_PLATE_MIX_ISO-EDGE_CUTS
 10
251.72506
 20
-101.053332
 30
0.00
  0
VERTEX
  8
8XV3_EC_PLATE_MIX_ISO-EDGE_CUTS
 10
252.72506
 20
-102.053332
 30
0.00
  0
SEQEND
  0
POLYLINE
  8
8XV3_EC_PLATE_MIX_ISO-EDGE_CUTS
 66
1
 10
0.00
 20
0.00
 30
0.00
 40
0.20
 41
0.20
  0
VERTEX
  8
8XV3_EC_PLATE_MIX_ISO-EDGE_CUTS
 10
239.02506
 20
-101.053332
 30
0.00
  0
VERTEX
  8
8XV3_EC_PLATE_MIX_ISO-EDGE_CUTS
 10
251.72506
 20
-101.053332
 30
0.00
  0
SEQEND
  0
POLYLINE
  8
8XV3_EC_PLATE_MIX_ISO-EDGE_CUTS
 66
1
 10
0.00
 20
0.00
 30
0.00
 40
0.20
 41
0.20
  0
VERTEX
  8
8XV3_EC_PLATE_MIX_ISO-EDGE_CUTS
 10
242.78756
 20
-159.203332
 30
0.00
  0
VERTEX
  8
8XV3_EC_PLATE_MIX_ISO-EDGE_CUTS
 10
243.78756
 20
-158.203332
 30
0.00
  0
SEQEND
  0
POLYLINE
  8
8XV3_EC_PLATE_MIX_ISO-EDGE_CUTS
 66
1
 10
0.00
 20
0.00
 30
0.00
 40
0.20
 41
0.20
  0
VERTEX
  8
8XV3_EC_PLATE_MIX_ISO-EDGE_CUTS
 10
242.78756
 20
-171.303332
 30
0.00
  0
VERTEX
  8
8XV3_EC_PLATE_MIX_ISO-EDGE_CUTS
 10
242.78756
 20
-159.203332
 30
0.00
  0
SEQEND
  0
POLYLINE
  8
8XV3_EC_PLATE_MIX_ISO-EDGE_CUTS
 66
1
 10
0.00
 20
0.00
 30
0.00
 40
0.20
 41
0.20
  0
VERTEX
  8
8XV3_EC_PLATE_MIX_ISO-EDGE_CUTS
 10
243.78756
 20
-172.303332
 30
0.00
  0
VERTEX
  8
8XV3_EC_PLATE_MIX_ISO-EDGE_CUTS
 10
242.78756
 20
-171.303332
 30
0.00
  0
SEQEND
  0
POLYLINE
  8
8XV3_EC_PLATE_MIX_ISO-EDGE_CUTS
 66
1
 10
0.00
 20
0.00
 30
0.00
 40
0.20
 41
0.20
  0
VERTEX
  8
8XV3_EC_PLATE_MIX_ISO-EDGE_CUTS
 10
256.48756
 20
-172.303332
 30
0.00
  0
VERTEX
  8
8XV3_EC_PLATE_MIX_ISO-EDGE_CUTS
 10
243.78756
 20
-172.303332
 30
0.00
  0
SEQEND
  0
POLYLINE
  8
8XV3_EC_PLATE_MIX_ISO-EDGE_CUTS
 66
1
 10
0.00
 20
0.00
 30
0.00
 40
0.20
 41
0.20
  0
VERTEX
  8
8XV3_EC_PLATE_MIX_ISO-EDGE_CUTS
 10
257.48756
 20
-171.303332
 30
0.00
  0
VERTEX
  8
8XV3_EC_PLATE_MIX_ISO-EDGE_CUTS
 10
256.48756
 20
-172.303332
 30
0.00
  0
SEQEND
  0
POLYLINE
  8
8XV3_EC_PLATE_MIX_ISO-EDGE_CUTS
 66
1
 10
0.00
 20
0.00
 30
0.00
 40
0.20
 41
0.20
  0
VERTEX
  8
8XV3_EC_PLATE_MIX_ISO-EDGE_CUTS
 10
257.48756
 20
-159.203332
 30
0.00
  0
VERTEX
  8
8XV3_EC_PLATE_MIX_ISO-EDGE_CUTS
 10
257.48756
 20
-171.303332
 30
0.00
  0
SEQEND
  0
POLYLINE
  8
8XV3_EC_PLATE_MIX_ISO-EDGE_CUTS
 66
1
 10
0.00
 20
0.00
 30
0.00
 40
0.20
 41
0.20
  0
VERTEX
  8
8XV3_EC_PLATE_MIX_ISO-EDGE_CUTS
 10
256.48756
 20
-158.203332
 30
0.00
  0
VERTEX
  8
8XV3_EC_PLATE_MIX_ISO-EDGE_CUTS
 10
257.48756
 20
-159.203332
 30
0.00
  0
SEQEND
  0
POLYLINE
  8
8XV3_EC_PLATE_MIX_ISO-EDGE_CUTS
 66
1
 10
0.00
 20
0.00
 30
0.00
 40
0.20
 41
0.20
  0
VERTEX
  8
8XV3_EC_PLATE_MIX_ISO-EDGE_CUTS
 10
243.78756
 20
-158.203332
 30
0.00
  0
VERTEX
  8
8XV3_EC_PLATE_MIX_ISO-EDGE_CUTS
 10
256.48756
 20
-158.203332
 30
0.00
  0
SEQEND
  0
POLYLINE
  8
8XV3_EC_PLATE_MIX_ISO-EDGE_CUTS
 66
1
 10
0.00
 20
0.00
 30
0.00
 40
0.20
 41
0.20
  0
VERTEX
  8
8XV3_EC_PLATE_MIX_ISO-EDGE_CUTS
 10
233.26256
 20
-140.153332
 30
0.00
  0
VERTEX
  8
8XV3_EC_PLATE_MIX_ISO-EDGE_CUTS
 10
234.26256
 20
-139.153332
 30
0.00
  0
SEQEND
  0
POLYLINE
  8
8XV3_EC_PLATE_MIX_ISO-EDGE_CUTS
 66
1
 10
0.00
 20
0.00
 30
0.00
 40
0.20
 41
0.20
  0
VERTEX
  8
8XV3_EC_PLATE_MIX_ISO-EDGE_CUTS
 10
233.26256
 20
-152.253332
 30
0.00
  0
VERTEX
  8
8XV3_EC_PLATE_MIX_ISO-EDGE_CUTS
 10
233.26256
 20
-140.153332
 30
0.00
  0
SEQEND
  0
POLYLINE
  8
8XV3_EC_PLATE_MIX_ISO-EDGE_CUTS
 66
1
 10
0.00
 20
0.00
 30
0.00
 40
0.20
 41
0.20
  0
VERTEX
  8
8XV3_EC_PLATE_MIX_ISO-EDGE_CUTS
 10
234.26256
 20
-153.253332
 30
0.00
  0
VERTEX
  8
8XV3_EC_PLATE_MIX_ISO-EDGE_CUTS
 10
233.26256
 20
-152.253332
 30
0.00
  0
SEQEND
  0
POLYLINE
  8
8XV3_EC_PLATE_MIX_ISO-EDGE_CUTS
 66
1
 10
0.00
 20
0.00
 30
0.00
 40
0.20
 41
0.20
  0
VERTEX
  8
8XV3_EC_PLATE_MIX_ISO-EDGE_CUTS
 10
246.96256
 20
-153.253332
 30
0.00
  0
VERTEX
  8
8XV3_EC_PLATE_MIX_ISO-EDGE_CUTS
 10
234.26256
 20
-153.253332
 30
0.00
  0
SEQEND
  0
POLYLINE
  8
8XV3_EC_PLATE_MIX_ISO-EDGE_CUTS
 66
1
 10
0.00
 20
0.00
 30
0.00
 40
0.20
 41
0.20
  0
VERTEX
  8
8XV3_EC_PLATE_MIX_ISO-EDGE_CUTS
 10
247.96256
 20
-152.253332
 30
0.00
  0
VERTEX
  8
8XV3_EC_PLATE_MIX_ISO-EDGE_CUTS
 10
246.96256
 20
-153.253332
 30
0.00
  0
SEQEND
  0
POLYLINE
  8
8XV3_EC_PLATE_MIX_ISO-EDGE_CUTS
 66
1
 10
0.00
 20
0.00
 30
0.00
 40
0.20
 41
0.20
  0
VERTEX
  8
8XV3_EC_PLATE_MIX_ISO-EDGE_CUTS
 10
247.96256
 20
-140.153332
 30
0.00
  0
VERTEX
  8
8XV3_EC_PLATE_MIX_ISO-EDGE_CUTS
 10
247.96256
 20
-152.253332
 30
0.00
  0
SEQEND
  0
POLYLINE
  8
8XV3_EC_PLATE_MIX_ISO-EDGE_CUTS
 66
1
 10
0.00
 20
0.00
 30
0.00
 40
0.20
 41
0.20
  0
VERTEX
  8
8XV3_EC_PLATE_MIX_ISO-EDGE_CUTS
 10
246.96256
 20
-139.153332
 30
0.00
  0
VERTEX
  8
8XV3_EC_PLATE_MIX_ISO-EDGE_CUTS
 10
247.96256
 20
-140.153332
 30
0.00
  0
SEQEND
  0
POLYLINE
  8
8XV3_EC_PLATE_MIX_ISO-EDGE_CUTS
 66
1
 10
0.00
 20
0.00
 30
0.00
 40
0.20
 41
0.20
  0
VERTEX
  8
8XV3_EC_PLATE_MIX_ISO-EDGE_CUTS
 10
234.26256
 20
-139.153332
 30
0.00
  0
VERTEX
  8
8XV3_EC_PLATE_MIX_ISO-EDGE_CUTS
 10
246.96256
 20
-139.153332
 30
0.00
  0
SEQEND
  0
POLYLINE
  8
8XV3_EC_PLATE_MIX_ISO-EDGE_CUTS
 66
1
 10
0.00
 20
0.00
 30
0.00
 40
0.20
 41
0.20
  0
VERTEX
  8
8XV3_EC_PLATE_MIX_ISO-EDGE_CUTS
 10
228.50006
 20
-121.103332
 30
0.00
  0
VERTEX
  8
8XV3_EC_PLATE_MIX_ISO-EDGE_CUTS
 10
229.50006
 20
-120.103332
 30
0.00
  0
SEQEND
  0
POLYLINE
  8
8XV3_EC_PLATE_MIX_ISO-EDGE_CUTS
 66
1
 10
0.00
 20
0.00
 30
0.00
 40
0.20
 41
0.20
  0
VERTEX
  8
8XV3_EC_PLATE_MIX_ISO-EDGE_CUTS
 10
228.50006
 20
-133.203332
 30
0.00
  0
VERTEX
  8
8XV3_EC_PLATE_MIX_ISO-EDGE_CUTS
 10
228.50006
 20
-121.103332
 30
0.00
  0
SEQEND
  0
POLYLINE
  8
8XV3_EC_PLATE_MIX_ISO-EDGE_CUTS
 66
1
 10
0.00
 20
0.00
 30
0.00
 40
0.20
 41
0.20
  0
VERTEX
  8
8XV3_EC_PLATE_MIX_ISO-EDGE_CUTS
 10
229.50006
 20
-134.203332
 30
0.00
  0
VERTEX
  8
8XV3_EC_PLATE_MIX_ISO-EDGE_CUTS
 10
228.50006
 20
-133.203332
 30
0.00
  0
SEQEND
  0
POLYLINE
  8
8XV3_EC_PLATE_MIX_ISO-EDGE_CUTS
 66
1
 10
0.00
 20
0.00
 30
0.00
 40
0.20
 41
0.20
  0
VERTEX
  8
8XV3_EC_PLATE_MIX_ISO-EDGE_CUTS
 10
242.20006
 20
-134.203332
 30
0.00
  0
VERTEX
  8
8XV3_EC_PLATE_MIX_ISO-EDGE_CUTS
 10
229.50006
 20
-134.203332
 30
0.00
  0
SEQEND
  0
POLYLINE
  8
8XV3_EC_PLATE_MIX_ISO-EDGE_CUTS
 66
1
 10
0.00
 20
0.00
 30
0.00
 40
0.20
 41
0.20
  0
VERTEX
  8
8XV3_EC_PLATE_MIX_ISO-EDGE_CUTS
 10
243.20006
 20
-133.203332
 30
0.00
  0
VERTEX
  8
8XV3_EC_PLATE_MIX_ISO-EDGE_CUTS
 10
242.20006
 20
-134.203332
 30
0.00
  0
SEQEND
  0
POLYLINE
  8
8XV3_EC_PLATE_MIX_ISO-EDGE_CUTS
 66
1
 10
0.00
 20
0.00
 30
0.00
 40
0.20
 41
0.20
  0
VERTEX
  8
8XV3_EC_PLATE_MIX_ISO-EDGE_CUTS
 10
243.20006
 20
-121.103332
 30
0.00
  0
VERTEX
  8
8XV3_EC_PLATE_MIX_ISO-EDGE_CUTS
 10
243.20006
 20
-133.203332
 30
0.00
  0
SEQEND
  0
POLYLINE
  8
8XV3_EC_PLATE_MIX_ISO-EDGE_CUTS
 66
1
 10
0.00
 20
0.00
 30
0.00
 40
0.20
 41
0.20
  0
VERTEX
  8
8XV3_EC_PLATE_MIX_ISO-EDGE_CUTS
 10
242.20006
 20
-120.103332
 30
0.00
  0
VERTEX
  8
8XV3_EC_PLATE_MIX_ISO-EDGE_CUTS
 10
243.20006
 20
-121.103332
 30
0.00
  0
SEQEND
  0
POLYLINE
  8
8XV3_EC_PLATE_MIX_ISO-EDGE_CUTS
 66
1
 10
0.00
 20
0.00
 30
0.00
 40
0.20
 41
0.20
  0
VERTEX
  8
8XV3_EC_PLATE_MIX_ISO-EDGE_CUTS
 10
229.50006
 20
-120.103332
 30
0.00
  0
VERTEX
  8
8XV3_EC_PLATE_MIX_ISO-EDGE_CUTS
 10
242.20006
 20
-120.103332
 30
0.00
  0
SEQEND
  0
POLYLINE
  8
8XV3_EC_PLATE_MIX_ISO-EDGE_CUTS
 66
1
 10
0.00
 20
0.00
 30
0.00
 40
0.20
 41
0.20
  0
VERTEX
  8
8XV3_EC_PLATE_MIX_ISO-EDGE_CUTS
 10
218.97506
 20
-102.053332
 30
0.00
  0
VERTEX
  8
8XV3_EC_PLATE_MIX_ISO-EDGE_CUTS
 10
219.97506
 20
-101.053332
 30
0.00
  0
SEQEND
  0
POLYLINE
  8
8XV3_EC_PLATE_MIX_ISO-EDGE_CUTS
 66
1
 10
0.00
 20
0.00
 30
0.00
 40
0.20
 41
0.20
  0
VERTEX
  8
8XV3_EC_PLATE_MIX_ISO-EDGE_CUTS
 10
218.97506
 20
-114.153332
 30
0.00
  0
VERTEX
  8
8XV3_EC_PLATE_MIX_ISO-EDGE_CUTS
 10
218.97506
 20
-102.053332
 30
0.00
  0
SEQEND
  0
POLYLINE
  8
8XV3_EC_PLATE_MIX_ISO-EDGE_CUTS
 66
1
 10
0.00
 20
0.00
 30
0.00
 40
0.20
 41
0.20
  0
VERTEX
  8
8XV3_EC_PLATE_MIX_ISO-EDGE_CUTS
 10
219.97506
 20
-115.153332
 30
0.00
  0
VERTEX
  8
8XV3_EC_PLATE_MIX_ISO-EDGE_CUTS
 10
218.97506
 20
-114.153332
 30
0.00
  0
SEQEND
  0
POLYLINE
  8
8XV3_EC_PLATE_MIX_ISO-EDGE_CUTS
 66
1
 10
0.00
 20
0.00
 30
0.00
 40
0.20
 41
0.20
  0
VERTEX
  8
8XV3_EC_PLATE_MIX_ISO-EDGE_CUTS
 10
232.67506
 20
-115.153332
 30
0.00
  0
VERTEX
  8
8XV3_EC_PLATE_MIX_ISO-EDGE_CUTS
 10
219.97506
 20
-115.153332
 30
0.00
  0
SEQEND
  0
POLYLINE
  8
8XV3_EC_PLATE_MIX_ISO-EDGE_CUTS
 66
1
 10
0.00
 20
0.00
 30
0.00
 40
0.20
 41
0.20
  0
VERTEX
  8
8XV3_EC_PLATE_MIX_ISO-EDGE_CUTS
 10
233.67506
 20
-114.153332
 30
0.00
  0
VERTEX
  8
8XV3_EC_PLATE_MIX_ISO-EDGE_CUTS
 10
232.67506
 20
-115.153332
 30
0.00
  0
SEQEND
  0
POLYLINE
  8
8XV3_EC_PLATE_MIX_ISO-EDGE_CUTS
 66
1
 10
0.00
 20
0.00
 30
0.00
 40
0.20
 41
0.20
  0
VERTEX
  8
8XV3_EC_PLATE_MIX_ISO-EDGE_CUTS
 10
233.67506
 20
-102.053332
 30
0.00
  0
VERTEX
  8
8XV3_EC_PLATE_MIX_ISO-EDGE_CUTS
 10
233.67506
 20
-114.153332
 30
0.00
  0
SEQEND
  0
POLYLINE
  8
8XV3_EC_PLATE_MIX_ISO-EDGE_CUTS
 66
1
 10
0.00
 20
0.00
 30
0.00
 40
0.20
 41
0.20
  0
VERTEX
  8
8XV3_EC_PLATE_MIX_ISO-EDGE_CUTS
 10
232.67506
 20
-101.053332
 30
0.00
  0
VERTEX
  8
8XV3_EC_PLATE_MIX_ISO-EDGE_CUTS
 10
233.67506
 20
-102.053332
 30
0.00
  0
SEQEND
  0
POLYLINE
  8
8XV3_EC_PLATE_MIX_ISO-EDGE_CUTS
 66
1
 10
0.00
 20
0.00
 30
0.00
 40
0.20
 41
0.20
  0
VERTEX
  8
8XV3_EC_PLATE_MIX_ISO-EDGE_CUTS
 10
219.97506
 20
-101.053332
 30
0.00
  0
VERTEX
  8
8XV3_EC_PLATE_MIX_ISO-EDGE_CUTS
 10
232.67506
 20
-101.053332
 30
0.00
  0
SEQEND
  0
POLYLINE
  8
8XV3_EC_PLATE_MIX_ISO-EDGE_CUTS
 66
1
 10
0.00
 20
0.00
 30
0.00
 40
0.20
 41
0.20
  0
VERTEX
  8
8XV3_EC_PLATE_MIX_ISO-EDGE_CUTS
 10
257.08006
 20
-77.053332
 30
0.00
  0
VERTEX
  8
8XV3_EC_PLATE_MIX_ISO-EDGE_CUTS
 10
258.08006
 20
-76.053332
 30
0.00
  0
SEQEND
  0
POLYLINE
  8
8XV3_EC_PLATE_MIX_ISO-EDGE_CUTS
 66
1
 10
0.00
 20
0.00
 30
0.00
 40
0.20
 41
0.20
  0
VERTEX
  8
8XV3_EC_PLATE_MIX_ISO-EDGE_CUTS
 10
257.08006
 20
-89.153332
 30
0.00
  0
VERTEX
  8
8XV3_EC_PLATE_MIX_ISO-EDGE_CUTS
 10
257.08006
 20
-77.053332
 30
0.00
  0
SEQEND
  0
POLYLINE
  8
8XV3_EC_PLATE_MIX_ISO-EDGE_CUTS
 66
1
 10
0.00
 20
0.00
 30
0.00
 40
0.20
 41
0.20
  0
VERTEX
  8
8XV3_EC_PLATE_MIX_ISO-EDGE_CUTS
 10
258.08006
 20
-90.153332
 30
0.00
  0
VERTEX
  8
8XV3_EC_PLATE_MIX_ISO-EDGE_CUTS
 10
257.08006
 20
-89.153332
 30
0.00
  0
SEQEND
  0
POLYLINE
  8
8XV3_EC_PLATE_MIX_ISO-EDGE_CUTS
 66
1
 10
0.00
 20
0.00
 30
0.00
 40
0.20
 41
0.20
  0
VERTEX
  8
8XV3_EC_PLATE_MIX_ISO-EDGE_CUTS
 10
270.78006
 20
-90.153332
 30
0.00
  0
VERTEX
  8
8XV3_EC_PLATE_MIX_ISO-EDGE_CUTS
 10
258.08006
 20
-90.153332
 30
0.00
  0
SEQEND
  0
POLYLINE
  8
8XV3_EC_PLATE_MIX_ISO-EDGE_CUTS
 66
1
 10
0.00
 20
0.00
 30
0.00
 40
0.20
 41
0.20
  0
VERTEX
  8
8XV3_EC_PLATE_MIX_ISO-EDGE_CUTS
 10
271.78006
 20
-89.153332
 30
0.00
  0
VERTEX
  8
8XV3_EC_PLATE_MIX_ISO-EDGE_CUTS
 10
270.78006
 20
-90.153332
 30
0.00
  0
SEQEND
  0
POLYLINE
  8
8XV3_EC_PLATE_MIX_ISO-EDGE_CUTS
 66
1
 10
0.00
 20
0.00
 30
0.00
 40
0.20
 41
0.20
  0
VERTEX
  8
8XV3_EC_PLATE_MIX_ISO-EDGE_CUTS
 10
271.78006
 20
-77.053332
 30
0.00
  0
VERTEX
  8
8XV3_EC_PLATE_MIX_ISO-EDGE_CUTS
 10
271.78006
 20
-89.153332
 30
0.00
  0
SEQEND
  0
POLYLINE
  8
8XV3_EC_PLATE_MIX_ISO-EDGE_CUTS
 66
1
 10
0.00
 20
0.00
 30
0.00
 40
0.20
 41
0.20
  0
VERTEX
  8
8XV3_EC_PLATE_MIX_ISO-EDGE_CUTS
 10
270.78006
 20
-76.053332
 30
0.00
  0
VERTEX
  8
8XV3_EC_PLATE_MIX_ISO-EDGE_CUTS
 10
271.78006
 20
-77.053332
 30
0.00
  0
SEQEND
  0
POLYLINE
  8
8XV3_EC_PLATE_MIX_ISO-EDGE_CUTS
 66
1
 10
0.00
 20
0.00
 30
0.00
 40
0.20
 41
0.20
  0
VERTEX
  8
8XV3_EC_PLATE_MIX_ISO-EDGE_CUTS
 10
258.08006
 20
-76.053332
 30
0.00
  0
VERTEX
  8
8XV3_EC_PLATE_MIX_ISO-EDGE_CUTS
 10
270.78006
 20
-76.053332
 30
0.00
  0
SEQEND
  0
POLYLINE
  8
8XV3_EC_PLATE_MIX_ISO-EDGE_CUTS
 66
1
 10
0.00
 20
0.00
 30
0.00
 40
0.20
 41
0.20
  0
VERTEX
  8
8XV3_EC_PLATE_MIX_ISO-EDGE_CUTS
 10
223.73756
 20
-159.203332
 30
0.00
  0
VERTEX
  8
8XV3_EC_PLATE_MIX_ISO-EDGE_CUTS
 10
224.73756
 20
-158.203332
 30
0.00
  0
SEQEND
  0
POLYLINE
  8
8XV3_EC_PLATE_MIX_ISO-EDGE_CUTS
 66
1
 10
0.00
 20
0.00
 30
0.00
 40
0.20
 41
0.20
  0
VERTEX
  8
8XV3_EC_PLATE_MIX_ISO-EDGE_CUTS
 10
223.73756
 20
-171.303332
 30
0.00
  0
VERTEX
  8
8XV3_EC_PLATE_MIX_ISO-EDGE_CUTS
 10
223.73756
 20
-159.203332
 30
0.00
  0
SEQEND
  0
POLYLINE
  8
8XV3_EC_PLATE_MIX_ISO-EDGE_CUTS
 66
1
 10
0.00
 20
0.00
 30
0.00
 40
0.20
 41
0.20
  0
VERTEX
  8
8XV3_EC_PLATE_MIX_ISO-EDGE_CUTS
 10
224.73756
 20
-172.303332
 30
0.00
  0
VERTEX
  8
8XV3_EC_PLATE_MIX_ISO-EDGE_CUTS
 10
223.73756
 20
-171.303332
 30
0.00
  0
SEQEND
  0
POLYLINE
  8
8XV3_EC_PLATE_MIX_ISO-EDGE_CUTS
 66
1
 10
0.00
 20
0.00
 30
0.00
 40
0.20
 41
0.20
  0
VERTEX
  8
8XV3_EC_PLATE_MIX_ISO-EDGE_CUTS
 10
237.43756
 20
-172.303332
 30
0.00
  0
VERTEX
  8
8XV3_EC_PLATE_MIX_ISO-EDGE_CUTS
 10
224.73756
 20
-172.303332
 30
0.00
  0
SEQEND
  0
POLYLINE
  8
8XV3_EC_PLATE_MIX_ISO-EDGE_CUTS
 66
1
 10
0.00
 20
0.00
 30
0.00
 40
0.20
 41
0.20
  0
VERTEX
  8
8XV3_EC_PLATE_MIX_ISO-EDGE_CUTS
 10
238.43756
 20
-171.303332
 30
0.00
  0
VERTEX
  8
8XV3_EC_PLATE_MIX_ISO-EDGE_CUTS
 10
237.43756
 20
-172.303332
 30
0.00
  0
SEQEND
  0
POLYLINE
  8
8XV3_EC_PLATE_MIX_ISO-EDGE_CUTS
 66
1
 10
0.00
 20
0.00
 30
0.00
 40
0.20
 41
0.20
  0
VERTEX
  8
8XV3_EC_PLATE_MIX_ISO-EDGE_CUTS
 10
238.43756
 20
-159.203332
 30
0.00
  0
VERTEX
  8
8XV3_EC_PLATE_MIX_ISO-EDGE_CUTS
 10
238.43756
 20
-171.303332
 30
0.00
  0
SEQEND
  0
POLYLINE
  8
8XV3_EC_PLATE_MIX_ISO-EDGE_CUTS
 66
1
 10
0.00
 20
0.00
 30
0.00
 40
0.20
 41
0.20
  0
VERTEX
  8
8XV3_EC_PLATE_MIX_ISO-EDGE_CUTS
 10
237.43756
 20
-158.203332
 30
0.00
  0
VERTEX
  8
8XV3_EC_PLATE_MIX_ISO-EDGE_CUTS
 10
238.43756
 20
-159.203332
 30
0.00
  0
SEQEND
  0
POLYLINE
  8
8XV3_EC_PLATE_MIX_ISO-EDGE_CUTS
 66
1
 10
0.00
 20
0.00
 30
0.00
 40
0.20
 41
0.20
  0
VERTEX
  8
8XV3_EC_PLATE_MIX_ISO-EDGE_CUTS
 10
224.73756
 20
-158.203332
 30
0.00
  0
VERTEX
  8
8XV3_EC_PLATE_MIX_ISO-EDGE_CUTS
 10
237.43756
 20
-158.203332
 30
0.00
  0
SEQEND
  0
POLYLINE
  8
8XV3_EC_PLATE_MIX_ISO-EDGE_CUTS
 66
1
 10
0.00
 20
0.00
 30
0.00
 40
0.20
 41
0.20
  0
VERTEX
  8
8XV3_EC_PLATE_MIX_ISO-EDGE_CUTS
 10
214.21256
 20
-140.153332
 30
0.00
  0
VERTEX
  8
8XV3_EC_PLATE_MIX_ISO-EDGE_CUTS
 10
215.21256
 20
-139.153332
 30
0.00
  0
SEQEND
  0
POLYLINE
  8
8XV3_EC_PLATE_MIX_ISO-EDGE_CUTS
 66
1
 10
0.00
 20
0.00
 30
0.00
 40
0.20
 41
0.20
  0
VERTEX
  8
8XV3_EC_PLATE_MIX_ISO-EDGE_CUTS
 10
214.21256
 20
-152.253332
 30
0.00
  0
VERTEX
  8
8XV3_EC_PLATE_MIX_ISO-EDGE_CUTS
 10
214.21256
 20
-140.153332
 30
0.00
  0
SEQEND
  0
POLYLINE
  8
8XV3_EC_PLATE_MIX_ISO-EDGE_CUTS
 66
1
 10
0.00
 20
0.00
 30
0.00
 40
0.20
 41
0.20
  0
VERTEX
  8
8XV3_EC_PLATE_MIX_ISO-EDGE_CUTS
 10
215.21256
 20
-153.253332
 30
0.00
  0
VERTEX
  8
8XV3_EC_PLATE_MIX_ISO-EDGE_CUTS
 10
214.21256
 20
-152.253332
 30
0.00
  0
SEQEND
  0
POLYLINE
  8
8XV3_EC_PLATE_MIX_ISO-EDGE_CUTS
 66
1
 10
0.00
 20
0.00
 30
0.00
 40
0.20
 41
0.20
  0
VERTEX
  8
8XV3_EC_PLATE_MIX_ISO-EDGE_CUTS
 10
227.91256
 20
-153.253332
 30
0.00
  0
VERTEX
  8
8XV3_EC_PLATE_MIX_ISO-EDGE_CUTS
 10
215.21256
 20
-153.253332
 30
0.00
  0
SEQEND
  0
POLYLINE
  8
8XV3_EC_PLATE_MIX_ISO-EDGE_CUTS
 66
1
 10
0.00
 20
0.00
 30
0.00
 40
0.20
 41
0.20
  0
VERTEX
  8
8XV3_EC_PLATE_MIX_ISO-EDGE_CUTS
 10
228.91256
 20
-152.253332
 30
0.00
  0
VERTEX
  8
8XV3_EC_PLATE_MIX_ISO-EDGE_CUTS
 10
227.91256
 20
-153.253332
 30
0.00
  0
SEQEND
  0
POLYLINE
  8
8XV3_EC_PLATE_MIX_ISO-EDGE_CUTS
 66
1
 10
0.00
 20
0.00
 30
0.00
 40
0.20
 41
0.20
  0
VERTEX
  8
8XV3_EC_PLATE_MIX_ISO-EDGE_CUTS
 10
228.91256
 20
-140.153332
 30
0.00
  0
VERTEX
  8
8XV3_EC_PLATE_MIX_ISO-EDGE_CUTS
 10
228.91256
 20
-152.253332
 30
0.00
  0
SEQEND
  0
POLYLINE
  8
8XV3_EC_PLATE_MIX_ISO-EDGE_CUTS
 66
1
 10
0.00
 20
0.00
 30
0.00
 40
0.20
 41
0.20
  0
VERTEX
  8
8XV3_EC_PLATE_MIX_ISO-EDGE_CUTS
 10
227.91256
 20
-139.153332
 30
0.00
  0
VERTEX
  8
8XV3_EC_PLATE_MIX_ISO-EDGE_CUTS
 10
228.91256
 20
-140.153332
 30
0.00
  0
SEQEND
  0
POLYLINE
  8
8XV3_EC_PLATE_MIX_ISO-EDGE_CUTS
 66
1
 10
0.00
 20
0.00
 30
0.00
 40
0.20
 41
0.20
  0
VERTEX
  8
8XV3_EC_PLATE_MIX_ISO-EDGE_CUTS
 10
215.21256
 20
-139.153332
 30
0.00
  0
VERTEX
  8
8XV3_EC_PLATE_MIX_ISO-EDGE_CUTS
 10
227.91256
 20
-139.153332
 30
0.00
  0
SEQEND
  0
POLYLINE
  8
8XV3_EC_PLATE_MIX_ISO-EDGE_CUTS
 66
1
 10
0.00
 20
0.00
 30
0.00
 40
0.20
 41
0.20
  0
VERTEX
  8
8XV3_EC_PLATE_MIX_ISO-EDGE_CUTS
 10
209.45006
 20
-121.103332
 30
0.00
  0
VERTEX
  8
8XV3_EC_PLATE_MIX_ISO-EDGE_CUTS
 10
210.45006
 20
-120.103332
 30
0.00
  0
SEQEND
  0
POLYLINE
  8
8XV3_EC_PLATE_MIX_ISO-EDGE_CUTS
 66
1
 10
0.00
 20
0.00
 30
0.00
 40
0.20
 41
0.20
  0
VERTEX
  8
8XV3_EC_PLATE_MIX_ISO-EDGE_CUTS
 10
209.45006
 20
-133.203332
 30
0.00
  0
VERTEX
  8
8XV3_EC_PLATE_MIX_ISO-EDGE_CUTS
 10
209.45006
 20
-121.103332
 30
0.00
  0
SEQEND
  0
POLYLINE
  8
8XV3_EC_PLATE_MIX_ISO-EDGE_CUTS
 66
1
 10
0.00
 20
0.00
 30
0.00
 40
0.20
 41
0.20
  0
VERTEX
  8
8XV3_EC_PLATE_MIX_ISO-EDGE_CUTS
 10
210.45006
 20
-134.203332
 30
0.00
  0
VERTEX
  8
8XV3_EC_PLATE_MIX_ISO-EDGE_CUTS
 10
209.45006
 20
-133.203332
 30
0.00
  0
SEQEND
  0
POLYLINE
  8
8XV3_EC_PLATE_MIX_ISO-EDGE_CUTS
 66
1
 10
0.00
 20
0.00
 30
0.00
 40
0.20
 41
0.20
  0
VERTEX
  8
8XV3_EC_PLATE_MIX_ISO-EDGE_CUTS
 10
223.15006
 20
-134.203332
 30
0.00
  0
VERTEX
  8
8XV3_EC_PLATE_MIX_ISO-EDGE_CUTS
 10
210.45006
 20
-134.203332
 30
0.00
  0
SEQEND
  0
POLYLINE
  8
8XV3_EC_PLATE_MIX_ISO-EDGE_CUTS
 66
1
 10
0.00
 20
0.00
 30
0.00
 40
0.20
 41
0.20
  0
VERTEX
  8
8XV3_EC_PLATE_MIX_ISO-EDGE_CUTS
 10
224.15006
 20
-133.203332
 30
0.00
  0
VERTEX
  8
8XV3_EC_PLATE_MIX_ISO-EDGE_CUTS
 10
223.15006
 20
-134.203332
 30
0.00
  0
SEQEND
  0
POLYLINE
  8
8XV3_EC_PLATE_MIX_ISO-EDGE_CUTS
 66
1
 10
0.00
 20
0.00
 30
0.00
 40
0.20
 41
0.20
  0
VERTEX
  8
8XV3_EC_PLATE_MIX_ISO-EDGE_CUTS
 10
224.15006
 20
-121.103332
 30
0.00
  0
VERTEX
  8
8XV3_EC_PLATE_MIX_ISO-EDGE_CUTS
 10
224.15006
 20
-133.203332
 30
0.00
  0
SEQEND
  0
POLYLINE
  8
8XV3_EC_PLATE_MIX_ISO-EDGE_CUTS
 66
1
 10
0.00
 20
0.00
 30
0.00
 40
0.20
 41
0.20
  0
VERTEX
  8
8XV3_EC_PLATE_MIX_ISO-EDGE_CUTS
 10
223.15006
 20
-120.103332
 30
0.00
  0
VERTEX
  8
8XV3_EC_PLATE_MIX_ISO-EDGE_CUTS
 10
224.15006
 20
-121.103332
 30
0.00
  0
SEQEND
  0
POLYLINE
  8
8XV3_EC_PLATE_MIX_ISO-EDGE_CUTS
 66
1
 10
0.00
 20
0.00
 30
0.00
 40
0.20
 41
0.20
  0
VERTEX
  8
8XV3_EC_PLATE_MIX_ISO-EDGE_CUTS
 10
210.45006
 20
-120.103332
 30
0.00
  0
VERTEX
  8
8XV3_EC_PLATE_MIX_ISO-EDGE_CUTS
 10
223.15006
 20
-120.103332
 30
0.00
  0
SEQEND
  0
POLYLINE
  8
8XV3_EC_PLATE_MIX_ISO-EDGE_CUTS
 66
1
 10
0.00
 20
0.00
 30
0.00
 40
0.20
 41
0.20
  0
VERTEX
  8
8XV3_EC_PLATE_MIX_ISO-EDGE_CUTS
 10
199.92506
 20
-102.053332
 30
0.00
  0
VERTEX
  8
8XV3_EC_PLATE_MIX_ISO-EDGE_CUTS
 10
200.92506
 20
-101.053332
 30
0.00
  0
SEQEND
  0
POLYLINE
  8
8XV3_EC_PLATE_MIX_ISO-EDGE_CUTS
 66
1
 10
0.00
 20
0.00
 30
0.00
 40
0.20
 41
0.20
  0
VERTEX
  8
8XV3_EC_PLATE_MIX_ISO-EDGE_CUTS
 10
199.92506
 20
-114.153332
 30
0.00
  0
VERTEX
  8
8XV3_EC_PLATE_MIX_ISO-EDGE_CUTS
 10
199.92506
 20
-102.053332
 30
0.00
  0
SEQEND
  0
POLYLINE
  8
8XV3_EC_PLATE_MIX_ISO-EDGE_CUTS
 66
1
 10
0.00
 20
0.00
 30
0.00
 40
0.20
 41
0.20
  0
VERTEX
  8
8XV3_EC_PLATE_MIX_ISO-EDGE_CUTS
 10
200.92506
 20
-115.153332
 30
0.00
  0
VERTEX
  8
8XV3_EC_PLATE_MIX_ISO-EDGE_CUTS
 10
199.92506
 20
-114.153332
 30
0.00
  0
SEQEND
  0
POLYLINE
  8
8XV3_EC_PLATE_MIX_ISO-EDGE_CUTS
 66
1
 10
0.00
 20
0.00
 30
0.00
 40
0.20
 41
0.20
  0
VERTEX
  8
8XV3_EC_PLATE_MIX_ISO-EDGE_CUTS
 10
213.62506
 20
-115.153332
 30
0.00
  0
VERTEX
  8
8XV3_EC_PLATE_MIX_ISO-EDGE_CUTS
 10
200.92506
 20
-115.153332
 30
0.00
  0
SEQEND
  0
POLYLINE
  8
8XV3_EC_PLATE_MIX_ISO-EDGE_CUTS
 66
1
 10
0.00
 20
0.00
 30
0.00
 40
0.20
 41
0.20
  0
VERTEX
  8
8XV3_EC_PLATE_MIX_ISO-EDGE_CUTS
 10
214.62506
 20
-114.153332
 30
0.00
  0
VERTEX
  8
8XV3_EC_PLATE_MIX_ISO-EDGE_CUTS
 10
213.62506
 20
-115.153332
 30
0.00
  0
SEQEND
  0
POLYLINE
  8
8XV3_EC_PLATE_MIX_ISO-EDGE_CUTS
 66
1
 10
0.00
 20
0.00
 30
0.00
 40
0.20
 41
0.20
  0
VERTEX
  8
8XV3_EC_PLATE_MIX_ISO-EDGE_CUTS
 10
214.62506
 20
-102.053332
 30
0.00
  0
VERTEX
  8
8XV3_EC_PLATE_MIX_ISO-EDGE_CUTS
 10
214.62506
 20
-114.153332
 30
0.00
  0
SEQEND
  0
POLYLINE
  8
8XV3_EC_PLATE_MIX_ISO-EDGE_CUTS
 66
1
 10
0.00
 20
0.00
 30
0.00
 40
0.20
 41
0.20
  0
VERTEX
  8
8XV3_EC_PLATE_MIX_ISO-EDGE_CUTS
 10
213.62506
 20
-101.053332
 30
0.00
  0
VERTEX
  8
8XV3_EC_PLATE_MIX_ISO-EDGE_CUTS
 10
214.62506
 20
-102.053332
 30
0.00
  0
SEQEND
  0
POLYLINE
  8
8XV3_EC_PLATE_MIX_ISO-EDGE_CUTS
 66
1
 10
0.00
 20
0.00
 30
0.00
 40
0.20
 41
0.20
  0
VERTEX
  8
8XV3_EC_PLATE_MIX_ISO-EDGE_CUTS
 10
200.92506
 20
-101.053332
 30
0.00
  0
VERTEX
  8
8XV3_EC_PLATE_MIX_ISO-EDGE_CUTS
 10
213.62506
 20
-101.053332
 30
0.00
  0
SEQEND
  0
POLYLINE
  8
8XV3_EC_PLATE_MIX_ISO-EDGE_CUTS
 66
1
 10
0.00
 20
0.00
 30
0.00
 40
0.20
 41
0.20
  0
VERTEX
  8
8XV3_EC_PLATE_MIX_ISO-EDGE_CUTS
 10
228.50256
 20
-77.053332
 30
0.00
  0
VERTEX
  8
8XV3_EC_PLATE_MIX_ISO-EDGE_CUTS
 10
229.50256
 20
-76.053332
 30
0.00
  0
SEQEND
  0
POLYLINE
  8
8XV3_EC_PLATE_MIX_ISO-EDGE_CUTS
 66
1
 10
0.00
 20
0.00
 30
0.00
 40
0.20
 41
0.20
  0
VERTEX
  8
8XV3_EC_PLATE_MIX_ISO-EDGE_CUTS
 10
228.50256
 20
-89.153332
 30
0.00
  0
VERTEX
  8
8XV3_EC_PLATE_MIX_ISO-EDGE_CUTS
 10
228.50256
 20
-77.053332
 30
0.00
  0
SEQEND
  0
POLYLINE
  8
8XV3_EC_PLATE_MIX_ISO-EDGE_CUTS
 66
1
 10
0.00
 20
0.00
 30
0.00
 40
0.20
 41
0.20
  0
VERTEX
  8
8XV3_EC_PLATE_MIX_ISO-EDGE_CUTS
 10
229.50256
 20
-90.153332
 30
0.00
  0
VERTEX
  8
8XV3_EC_PLATE_MIX_ISO-EDGE_CUTS
 10
228.50256
 20
-89.153332
 30
0.00
  0
SEQEND
  0
POLYLINE
  8
8XV3_EC_PLATE_MIX_ISO-EDGE_CUTS
 66
1
 10
0.00
 20
0.00
 30
0.00
 40
0.20
 41
0.20
  0
VERTEX
  8
8XV3_EC_PLATE_MIX_ISO-EDGE_CUTS
 10
242.20256
 20
-90.153332
 30
0.00
  0
VERTEX
  8
8XV3_EC_PLATE_MIX_ISO-EDGE_CUTS
 10
229.50256
 20
-90.153332
 30
0.00
  0
SEQEND
  0
POLYLINE
  8
8XV3_EC_PLATE_MIX_ISO-EDGE_CUTS
 66
1
 10
0.00
 20
0.00
 30
0.00
 40
0.20
 41
0.20
  0
VERTEX
  8
8XV3_EC_PLATE_MIX_ISO-EDGE_CUTS
 10
243.20256
 20
-89.153332
 30
0.00
  0
VERTEX
  8
8XV3_EC_PLATE_MIX_ISO-EDGE_CUTS
 10
242.20256
 20
-90.153332
 30
0.00
  0
SEQEND
  0
POLYLINE
  8
8XV3_EC_PLATE_MIX_ISO-EDGE_CUTS
 66
1
 10
0.00
 20
0.00
 30
0.00
 40
0.20
 41
0.20
  0
VERTEX
  8
8XV3_EC_PLATE_MIX_ISO-EDGE_CUTS
 10
243.20256
 20
-77.053332
 30
0.00
  0
VERTEX
  8
8XV3_EC_PLATE_MIX_ISO-EDGE_CUTS
 10
243.20256
 20
-89.153332
 30
0.00
  0
SEQEND
  0
POLYLINE
  8
8XV3_EC_PLATE_MIX_ISO-EDGE_CUTS
 66
1
 10
0.00
 20
0.00
 30
0.00
 40
0.20
 41
0.20
  0
VERTEX
  8
8XV3_EC_PLATE_MIX_ISO-EDGE_CUTS
 10
242.20256
 20
-76.053332
 30
0.00
  0
VERTEX
  8
8XV3_EC_PLATE_MIX_ISO-EDGE_CUTS
 10
243.20256
 20
-77.053332
 30
0.00
  0
SEQEND
  0
POLYLINE
  8
8XV3_EC_PLATE_MIX_ISO-EDGE_CUTS
 66
1
 10
0.00
 20
0.00
 30
0.00
 40
0.20
 41
0.20
  0
VERTEX
  8
8XV3_EC_PLATE_MIX_ISO-EDGE_CUTS
 10
229.50256
 20
-76.053332
 30
0.00
  0
VERTEX
  8
8XV3_EC_PLATE_MIX_ISO-EDGE_CUTS
 10
242.20256
 20
-76.053332
 30
0.00
  0
SEQEND
  0
POLYLINE
  8
8XV3_EC_PLATE_MIX_ISO-EDGE_CUTS
 66
1
 10
0.00
 20
0.00
 30
0.00
 40
0.20
 41
0.20
  0
VERTEX
  8
8XV3_EC_PLATE_MIX_ISO-EDGE_CUTS
 10
204.68756
 20
-159.203332
 30
0.00
  0
VERTEX
  8
8XV3_EC_PLATE_MIX_ISO-EDGE_CUTS
 10
205.68756
 20
-158.203332
 30
0.00
  0
SEQEND
  0
POLYLINE
  8
8XV3_EC_PLATE_MIX_ISO-EDGE_CUTS
 66
1
 10
0.00
 20
0.00
 30
0.00
 40
0.20
 41
0.20
  0
VERTEX
  8
8XV3_EC_PLATE_MIX_ISO-EDGE_CUTS
 10
204.68756
 20
-171.303332
 30
0.00
  0
VERTEX
  8
8XV3_EC_PLATE_MIX_ISO-EDGE_CUTS
 10
204.68756
 20
-159.203332
 30
0.00
  0
SEQEND
  0
POLYLINE
  8
8XV3_EC_PLATE_MIX_ISO-EDGE_CUTS
 66
1
 10
0.00
 20
0.00
 30
0.00
 40
0.20
 41
0.20
  0
VERTEX
  8
8XV3_EC_PLATE_MIX_ISO-EDGE_CUTS
 10
205.68756
 20
-172.303332
 30
0.00
  0
VERTEX
  8
8XV3_EC_PLATE_MIX_ISO-EDGE_CUTS
 10
204.68756
 20
-171.303332
 30
0.00
  0
SEQEND
  0
POLYLINE
  8
8XV3_EC_PLATE_MIX_ISO-EDGE_CUTS
 66
1
 10
0.00
 20
0.00
 30
0.00
 40
0.20
 41
0.20
  0
VERTEX
  8
8XV3_EC_PLATE_MIX_ISO-EDGE_CUTS
 10
218.38756
 20
-172.303332
 30
0.00
  0
VERTEX
  8
8XV3_EC_PLATE_MIX_ISO-EDGE_CUTS
 10
205.68756
 20
-172.303332
 30
0.00
  0
SEQEND
  0
POLYLINE
  8
8XV3_EC_PLATE_MIX_ISO-EDGE_CUTS
 66
1
 10
0.00
 20
0.00
 30
0.00
 40
0.20
 41
0.20
  0
VERTEX
  8
8XV3_EC_PLATE_MIX_ISO-EDGE_CUTS
 10
219.38756
 20
-171.303332
 30
0.00
  0
VERTEX
  8
8XV3_EC_PLATE_MIX_ISO-EDGE_CUTS
 10
218.38756
 20
-172.303332
 30
0.00
  0
SEQEND
  0
POLYLINE
  8
8XV3_EC_PLATE_MIX_ISO-EDGE_CUTS
 66
1
 10
0.00
 20
0.00
 30
0.00
 40
0.20
 41
0.20
  0
VERTEX
  8
8XV3_EC_PLATE_MIX_ISO-EDGE_CUTS
 10
219.38756
 20
-159.203332
 30
0.00
  0
VERTEX
  8
8XV3_EC_PLATE_MIX_ISO-EDGE_CUTS
 10
219.38756
 20
-171.303332
 30
0.00
  0
SEQEND
  0
POLYLINE
  8
8XV3_EC_PLATE_MIX_ISO-EDGE_CUTS
 66
1
 10
0.00
 20
0.00
 30
0.00
 40
0.20
 41
0.20
  0
VERTEX
  8
8XV3_EC_PLATE_MIX_ISO-EDGE_CUTS
 10
218.38756
 20
-158.203332
 30
0.00
  0
VERTEX
  8
8XV3_EC_PLATE_MIX_ISO-EDGE_CUTS
 10
219.38756
 20
-159.203332
 30
0.00
  0
SEQEND
  0
POLYLINE
  8
8XV3_EC_PLATE_MIX_ISO-EDGE_CUTS
 66
1
 10
0.00
 20
0.00
 30
0.00
 40
0.20
 41
0.20
  0
VERTEX
  8
8XV3_EC_PLATE_MIX_ISO-EDGE_CUTS
 10
205.68756
 20
-158.203332
 30
0.00
  0
VERTEX
  8
8XV3_EC_PLATE_MIX_ISO-EDGE_CUTS
 10
218.38756
 20
-158.203332
 30
0.00
  0
SEQEND
  0
POLYLINE
  8
8XV3_EC_PLATE_MIX_ISO-EDGE_CUTS
 66
1
 10
0.00
 20
0.00
 30
0.00
 40
0.20
 41
0.20
  0
VERTEX
  8
8XV3_EC_PLATE_MIX_ISO-EDGE_CUTS
 10
195.16256
 20
-140.153332
 30
0.00
  0
VERTEX
  8
8XV3_EC_PLATE_MIX_ISO-EDGE_CUTS
 10
196.16256
 20
-139.153332
 30
0.00
  0
SEQEND
  0
POLYLINE
  8
8XV3_EC_PLATE_MIX_ISO-EDGE_CUTS
 66
1
 10
0.00
 20
0.00
 30
0.00
 40
0.20
 41
0.20
  0
VERTEX
  8
8XV3_EC_PLATE_MIX_ISO-EDGE_CUTS
 10
195.16256
 20
-152.253332
 30
0.00
  0
VERTEX
  8
8XV3_EC_PLATE_MIX_ISO-EDGE_CUTS
 10
195.16256
 20
-140.153332
 30
0.00
  0
SEQEND
  0
POLYLINE
  8
8XV3_EC_PLATE_MIX_ISO-EDGE_CUTS
 66
1
 10
0.00
 20
0.00
 30
0.00
 40
0.20
 41
0.20
  0
VERTEX
  8
8XV3_EC_PLATE_MIX_ISO-EDGE_CUTS
 10
196.16256
 20
-153.253332
 30
0.00
  0
VERTEX
  8
8XV3_EC_PLATE_MIX_ISO-EDGE_CUTS
 10
195.16256
 20
-152.253332
 30
0.00
  0
SEQEND
  0
POLYLINE
  8
8XV3_EC_PLATE_MIX_ISO-EDGE_CUTS
 66
1
 10
0.00
 20
0.00
 30
0.00
 40
0.20
 41
0.20
  0
VERTEX
  8
8XV3_EC_PLATE_MIX_ISO-EDGE_CUTS
 10
208.86256
 20
-153.253332
 30
0.00
  0
VERTEX
  8
8XV3_EC_PLATE_MIX_ISO-EDGE_CUTS
 10
196.16256
 20
-153.253332
 30
0.00
  0
SEQEND
  0
POLYLINE
  8
8XV3_EC_PLATE_MIX_ISO-EDGE_CUTS
 66
1
 10
0.00
 20
0.00
 30
0.00
 40
0.20
 41
0.20
  0
VERTEX
  8
8XV3_EC_PLATE_MIX_ISO-EDGE_CUTS
 10
209.86256
 20
-152.253332
 30
0.00
  0
VERTEX
  8
8XV3_EC_PLATE_MIX_ISO-EDGE_CUTS
 10
208.86256
 20
-153.253332
 30
0.00
  0
SEQEND
  0
POLYLINE
  8
8XV3_EC_PLATE_MIX_ISO-EDGE_CUTS
 66
1
 10
0.00
 20
0.00
 30
0.00
 40
0.20
 41
0.20
  0
VERTEX
  8
8XV3_EC_PLATE_MIX_ISO-EDGE_CUTS
 10
209.86256
 20
-140.153332
 30
0.00
  0
VERTEX
  8
8XV3_EC_PLATE_MIX_ISO-EDGE_CUTS
 10
209.86256
 20
-152.253332
 30
0.00
  0
SEQEND
  0
POLYLINE
  8
8XV3_EC_PLATE_MIX_ISO-EDGE_CUTS
 66
1
 10
0.00
 20
0.00
 30
0.00
 40
0.20
 41
0.20
  0
VERTEX
  8
8XV3_EC_PLATE_MIX_ISO-EDGE_CUTS
 10
208.86256
 20
-139.153332
 30
0.00
  0
VERTEX
  8
8XV3_EC_PLATE_MIX_ISO-EDGE_CUTS
 10
209.86256
 20
-140.153332
 30
0.00
  0
SEQEND
  0
POLYLINE
  8
8XV3_EC_PLATE_MIX_ISO-EDGE_CUTS
 66
1
 10
0.00
 20
0.00
 30
0.00
 40
0.20
 41
0.20
  0
VERTEX
  8
8XV3_EC_PLATE_MIX_ISO-EDGE_CUTS
 10
196.16256
 20
-139.153332
 30
0.00
  0
VERTEX
  8
8XV3_EC_PLATE_MIX_ISO-EDGE_CUTS
 10
208.86256
 20
-139.153332
 30
0.00
  0
SEQEND
  0
POLYLINE
  8
8XV3_EC_PLATE_MIX_ISO-EDGE_CUTS
 66
1
 10
0.00
 20
0.00
 30
0.00
 40
0.20
 41
0.20
  0
VERTEX
  8
8XV3_EC_PLATE_MIX_ISO-EDGE_CUTS
 10
190.40006
 20
-121.103332
 30
0.00
  0
VERTEX
  8
8XV3_EC_PLATE_MIX_ISO-EDGE_CUTS
 10
191.40006
 20
-120.103332
 30
0.00
  0
SEQEND
  0
POLYLINE
  8
8XV3_EC_PLATE_MIX_ISO-EDGE_CUTS
 66
1
 10
0.00
 20
0.00
 30
0.00
 40
0.20
 41
0.20
  0
VERTEX
  8
8XV3_EC_PLATE_MIX_ISO-EDGE_CUTS
 10
190.40006
 20
-133.203332
 30
0.00
  0
VERTEX
  8
8XV3_EC_PLATE_MIX_ISO-EDGE_CUTS
 10
190.40006
 20
-121.103332
 30
0.00
  0
SEQEND
  0
POLYLINE
  8
8XV3_EC_PLATE_MIX_ISO-EDGE_CUTS
 66
1
 10
0.00
 20
0.00
 30
0.00
 40
0.20
 41
0.20
  0
VERTEX
  8
8XV3_EC_PLATE_MIX_ISO-EDGE_CUTS
 10
191.40006
 20
-134.203332
 30
0.00
  0
VERTEX
  8
8XV3_EC_PLATE_MIX_ISO-EDGE_CUTS
 10
190.40006
 20
-133.203332
 30
0.00
  0
SEQEND
  0
POLYLINE
  8
8XV3_EC_PLATE_MIX_ISO-EDGE_CUTS
 66
1
 10
0.00
 20
0.00
 30
0.00
 40
0.20
 41
0.20
  0
VERTEX
  8
8XV3_EC_PLATE_MIX_ISO-EDGE_CUTS
 10
204.10006
 20
-134.203332
 30
0.00
  0
VERTEX
  8
8XV3_EC_PLATE_MIX_ISO-EDGE_CUTS
 10
191.40006
 20
-134.203332
 30
0.00
  0
SEQEND
  0
POLYLINE
  8
8XV3_EC_PLATE_MIX_ISO-EDGE_CUTS
 66
1
 10
0.00
 20
0.00
 30
0.00
 40
0.20
 41
0.20
  0
VERTEX
  8
8XV3_EC_PLATE_MIX_ISO-EDGE_CUTS
 10
205.10006
 20
-133.203332
 30
0.00
  0
VERTEX
  8
8XV3_EC_PLATE_MIX_ISO-EDGE_CUTS
 10
204.10006
 20
-134.203332
 30
0.00
  0
SEQEND
  0
POLYLINE
  8
8XV3_EC_PLATE_MIX_ISO-EDGE_CUTS
 66
1
 10
0.00
 20
0.00
 30
0.00
 40
0.20
 41
0.20
  0
VERTEX
  8
8XV3_EC_PLATE_MIX_ISO-EDGE_CUTS
 10
205.10006
 20
-121.103332
 30
0.00
  0
VERTEX
  8
8XV3_EC_PLATE_MIX_ISO-EDGE_CUTS
 10
205.10006
 20
-133.203332
 30
0.00
  0
SEQEND
  0
POLYLINE
  8
8XV3_EC_PLATE_MIX_ISO-EDGE_CUTS
 66
1
 10
0.00
 20
0.00
 30
0.00
 40
0.20
 41
0.20
  0
VERTEX
  8
8XV3_EC_PLATE_MIX_ISO-EDGE_CUTS
 10
204.10006
 20
-120.103332
 30
0.00
  0
VERTEX
  8
8XV3_EC_PLATE_MIX_ISO-EDGE_CUTS
 10
205.10006
 20
-121.103332
 30
0.00
  0
SEQEND
  0
POLYLINE
  8
8XV3_EC_PLATE_MIX_ISO-EDGE_CUTS
 66
1
 10
0.00
 20
0.00
 30
0.00
 40
0.20
 41
0.20
  0
VERTEX
  8
8XV3_EC_PLATE_MIX_ISO-EDGE_CUTS
 10
191.40006
 20
-120.103332
 30
0.00
  0
VERTEX
  8
8XV3_EC_PLATE_MIX_ISO-EDGE_CUTS
 10
204.10006
 20
-120.103332
 30
0.00
  0
SEQEND
  0
POLYLINE
  8
8XV3_EC_PLATE_MIX_ISO-EDGE_CUTS
 66
1
 10
0.00
 20
0.00
 30
0.00
 40
0.20
 41
0.20
  0
VERTEX
  8
8XV3_EC_PLATE_MIX_ISO-EDGE_CUTS
 10
180.87506
 20
-102.053332
 30
0.00
  0
VERTEX
  8
8XV3_EC_PLATE_MIX_ISO-EDGE_CUTS
 10
181.87506
 20
-101.053332
 30
0.00
  0
SEQEND
  0
POLYLINE
  8
8XV3_EC_PLATE_MIX_ISO-EDGE_CUTS
 66
1
 10
0.00
 20
0.00
 30
0.00
 40
0.20
 41
0.20
  0
VERTEX
  8
8XV3_EC_PLATE_MIX_ISO-EDGE_CUTS
 10
180.87506
 20
-114.153332
 30
0.00
  0
VERTEX
  8
8XV3_EC_PLATE_MIX_ISO-EDGE_CUTS
 10
180.87506
 20
-102.053332
 30
0.00
  0
SEQEND
  0
POLYLINE
  8
8XV3_EC_PLATE_MIX_ISO-EDGE_CUTS
 66
1
 10
0.00
 20
0.00
 30
0.00
 40
0.20
 41
0.20
  0
VERTEX
  8
8XV3_EC_PLATE_MIX_ISO-EDGE_CUTS
 10
181.87506
 20
-115.153332
 30
0.00
  0
VERTEX
  8
8XV3_EC_PLATE_MIX_ISO-EDGE_CUTS
 10
180.87506
 20
-114.153332
 30
0.00
  0
SEQEND
  0
POLYLINE
  8
8XV3_EC_PLATE_MIX_ISO-EDGE_CUTS
 66
1
 10
0.00
 20
0.00
 30
0.00
 40
0.20
 41
0.20
  0
VERTEX
  8
8XV3_EC_PLATE_MIX_ISO-EDGE_CUTS
 10
194.57506
 20
-115.153332
 30
0.00
  0
VERTEX
  8
8XV3_EC_PLATE_MIX_ISO-EDGE_CUTS
 10
181.87506
 20
-115.153332
 30
0.00
  0
SEQEND
  0
POLYLINE
  8
8XV3_EC_PLATE_MIX_ISO-EDGE_CUTS
 66
1
 10
0.00
 20
0.00
 30
0.00
 40
0.20
 41
0.20
  0
VERTEX
  8
8XV3_EC_PLATE_MIX_ISO-EDGE_CUTS
 10
195.57506
 20
-114.153332
 30
0.00
  0
VERTEX
  8
8XV3_EC_PLATE_MIX_ISO-EDGE_CUTS
 10
194.57506
 20
-115.153332
 30
0.00
  0
SEQEND
  0
POLYLINE
  8
8XV3_EC_PLATE_MIX_ISO-EDGE_CUTS
 66
1
 10
0.00
 20
0.00
 30
0.00
 40
0.20
 41
0.20
  0
VERTEX
  8
8XV3_EC_PLATE_MIX_ISO-EDGE_CUTS
 10
195.57506
 20
-102.053332
 30
0.00
  0
VERTEX
  8
8XV3_EC_PLATE_MIX_ISO-EDGE_CUTS
 10
195.57506
 20
-114.153332
 30
0.00
  0
SEQEND
  0
POLYLINE
  8
8XV3_EC_PLATE_MIX_ISO-EDGE_CUTS
 66
1
 10
0.00
 20
0.00
 30
0.00
 40
0.20
 41
0.20
  0
VERTEX
  8
8XV3_EC_PLATE_MIX_ISO-EDGE_CUTS
 10
194.57506
 20
-101.053332
 30
0.00
  0
VERTEX
  8
8XV3_EC_PLATE_MIX_ISO-EDGE_CUTS
 10
195.57506
 20
-102.053332
 30
0.00
  0
SEQEND
  0
POLYLINE
  8
8XV3_EC_PLATE_MIX_ISO-EDGE_CUTS
 66
1
 10
0.00
 20
0.00
 30
0.00
 40
0.20
 41
0.20
  0
VERTEX
  8
8XV3_EC_PLATE_MIX_ISO-EDGE_CUTS
 10
181.87506
 20
-101.053332
 30
0.00
  0
VERTEX
  8
8XV3_EC_PLATE_MIX_ISO-EDGE_CUTS
 10
194.57506
 20
-101.053332
 30
0.00
  0
SEQEND
  0
POLYLINE
  8
8XV3_EC_PLATE_MIX_ISO-EDGE_CUTS
 66
1
 10
0.00
 20
0.00
 30
0.00
 40
0.20
 41
0.20
  0
VERTEX
  8
8XV3_EC_PLATE_MIX_ISO-EDGE_CUTS
 10
209.4476
 20
-77.053332
 30
0.00
  0
VERTEX
  8
8XV3_EC_PLATE_MIX_ISO-EDGE_CUTS
 10
210.4476
 20
-76.053332
 30
0.00
  0
SEQEND
  0
POLYLINE
  8
8XV3_EC_PLATE_MIX_ISO-EDGE_CUTS
 66
1
 10
0.00
 20
0.00
 30
0.00
 40
0.20
 41
0.20
  0
VERTEX
  8
8XV3_EC_PLATE_MIX_ISO-EDGE_CUTS
 10
209.4476
 20
-89.153332
 30
0.00
  0
VERTEX
  8
8XV3_EC_PLATE_MIX_ISO-EDGE_CUTS
 10
209.4476
 20
-77.053332
 30
0.00
  0
SEQEND
  0
POLYLINE
  8
8XV3_EC_PLATE_MIX_ISO-EDGE_CUTS
 66
1
 10
0.00
 20
0.00
 30
0.00
 40
0.20
 41
0.20
  0
VERTEX
  8
8XV3_EC_PLATE_MIX_ISO-EDGE_CUTS
 10
210.4476
 20
-90.153332
 30
0.00
  0
VERTEX
  8
8XV3_EC_PLATE_MIX_ISO-EDGE_CUTS
 10
209.4476
 20
-89.153332
 30
0.00
  0
SEQEND
  0
POLYLINE
  8
8XV3_EC_PLATE_MIX_ISO-EDGE_CUTS
 66
1
 10
0.00
 20
0.00
 30
0.00
 40
0.20
 41
0.20
  0
VERTEX
  8
8XV3_EC_PLATE_MIX_ISO-EDGE_CUTS
 10
223.1476
 20
-90.153332
 30
0.00
  0
VERTEX
  8
8XV3_EC_PLATE_MIX_ISO-EDGE_CUTS
 10
210.4476
 20
-90.153332
 30
0.00
  0
SEQEND
  0
POLYLINE
  8
8XV3_EC_PLATE_MIX_ISO-EDGE_CUTS
 66
1
 10
0.00
 20
0.00
 30
0.00
 40
0.20
 41
0.20
  0
VERTEX
  8
8XV3_EC_PLATE_MIX_ISO-EDGE_CUTS
 10
224.1476
 20
-89.153332
 30
0.00
  0
VERTEX
  8
8XV3_EC_PLATE_MIX_ISO-EDGE_CUTS
 10
223.1476
 20
-90.153332
 30
0.00
  0
SEQEND
  0
POLYLINE
  8
8XV3_EC_PLATE_MIX_ISO-EDGE_CUTS
 66
1
 10
0.00
 20
0.00
 30
0.00
 40
0.20
 41
0.20
  0
VERTEX
  8
8XV3_EC_PLATE_MIX_ISO-EDGE_CUTS
 10
224.1476
 20
-77.053332
 30
0.00
  0
VERTEX
  8
8XV3_EC_PLATE_MIX_ISO-EDGE_CUTS
 10
224.1476
 20
-89.153332
 30
0.00
  0
SEQEND
  0
POLYLINE
  8
8XV3_EC_PLATE_MIX_ISO-EDGE_CUTS
 66
1
 10
0.00
 20
0.00
 30
0.00
 40
0.20
 41
0.20
  0
VERTEX
  8
8XV3_EC_PLATE_MIX_ISO-EDGE_CUTS
 10
223.1476
 20
-76.053332
 30
0.00
  0
VERTEX
  8
8XV3_EC_PLATE_MIX_ISO-EDGE_CUTS
 10
224.1476
 20
-77.053332
 30
0.00
  0
SEQEND
  0
POLYLINE
  8
8XV3_EC_PLATE_MIX_ISO-EDGE_CUTS
 66
1
 10
0.00
 20
0.00
 30
0.00
 40
0.20
 41
0.20
  0
VERTEX
  8
8XV3_EC_PLATE_MIX_ISO-EDGE_CUTS
 10
210.4476
 20
-76.053332
 30
0.00
  0
VERTEX
  8
8XV3_EC_PLATE_MIX_ISO-EDGE_CUTS
 10
223.1476
 20
-76.053332
 30
0.00
  0
SEQEND
  0
POLYLINE
  8
8XV3_EC_PLATE_MIX_ISO-EDGE_CUTS
 66
1
 10
0.00
 20
0.00
 30
0.00
 40
0.20
 41
0.20
  0
VERTEX
  8
8XV3_EC_PLATE_MIX_ISO-EDGE_CUTS
 10
185.63756
 20
-159.203332
 30
0.00
  0
VERTEX
  8
8XV3_EC_PLATE_MIX_ISO-EDGE_CUTS
 10
186.63756
 20
-158.203332
 30
0.00
  0
SEQEND
  0
POLYLINE
  8
8XV3_EC_PLATE_MIX_ISO-EDGE_CUTS
 66
1
 10
0.00
 20
0.00
 30
0.00
 40
0.20
 41
0.20
  0
VERTEX
  8
8XV3_EC_PLATE_MIX_ISO-EDGE_CUTS
 10
185.63756
 20
-171.303332
 30
0.00
  0
VERTEX
  8
8XV3_EC_PLATE_MIX_ISO-EDGE_CUTS
 10
185.63756
 20
-159.203332
 30
0.00
  0
SEQEND
  0
POLYLINE
  8
8XV3_EC_PLATE_MIX_ISO-EDGE_CUTS
 66
1
 10
0.00
 20
0.00
 30
0.00
 40
0.20
 41
0.20
  0
VERTEX
  8
8XV3_EC_PLATE_MIX_ISO-EDGE_CUTS
 10
186.63756
 20
-172.303332
 30
0.00
  0
VERTEX
  8
8XV3_EC_PLATE_MIX_ISO-EDGE_CUTS
 10
185.63756
 20
-171.303332
 30
0.00
  0
SEQEND
  0
POLYLINE
  8
8XV3_EC_PLATE_MIX_ISO-EDGE_CUTS
 66
1
 10
0.00
 20
0.00
 30
0.00
 40
0.20
 41
0.20
  0
VERTEX
  8
8XV3_EC_PLATE_MIX_ISO-EDGE_CUTS
 10
199.33756
 20
-172.303332
 30
0.00
  0
VERTEX
  8
8XV3_EC_PLATE_MIX_ISO-EDGE_CUTS
 10
186.63756
 20
-172.303332
 30
0.00
  0
SEQEND
  0
POLYLINE
  8
8XV3_EC_PLATE_MIX_ISO-EDGE_CUTS
 66
1
 10
0.00
 20
0.00
 30
0.00
 40
0.20
 41
0.20
  0
VERTEX
  8
8XV3_EC_PLATE_MIX_ISO-EDGE_CUTS
 10
200.33756
 20
-171.303332
 30
0.00
  0
VERTEX
  8
8XV3_EC_PLATE_MIX_ISO-EDGE_CUTS
 10
199.33756
 20
-172.303332
 30
0.00
  0
SEQEND
  0
POLYLINE
  8
8XV3_EC_PLATE_MIX_ISO-EDGE_CUTS
 66
1
 10
0.00
 20
0.00
 30
0.00
 40
0.20
 41
0.20
  0
VERTEX
  8
8XV3_EC_PLATE_MIX_ISO-EDGE_CUTS
 10
200.33756
 20
-159.203332
 30
0.00
  0
VERTEX
  8
8XV3_EC_PLATE_MIX_ISO-EDGE_CUTS
 10
200.33756
 20
-171.303332
 30
0.00
  0
SEQEND
  0
POLYLINE
  8
8XV3_EC_PLATE_MIX_ISO-EDGE_CUTS
 66
1
 10
0.00
 20
0.00
 30
0.00
 40
0.20
 41
0.20
  0
VERTEX
  8
8XV3_EC_PLATE_MIX_ISO-EDGE_CUTS
 10
199.33756
 20
-158.203332
 30
0.00
  0
VERTEX
  8
8XV3_EC_PLATE_MIX_ISO-EDGE_CUTS
 10
200.33756
 20
-159.203332
 30
0.00
  0
SEQEND
  0
POLYLINE
  8
8XV3_EC_PLATE_MIX_ISO-EDGE_CUTS
 66
1
 10
0.00
 20
0.00
 30
0.00
 40
0.20
 41
0.20
  0
VERTEX
  8
8XV3_EC_PLATE_MIX_ISO-EDGE_CUTS
 10
186.63756
 20
-158.203332
 30
0.00
  0
VERTEX
  8
8XV3_EC_PLATE_MIX_ISO-EDGE_CUTS
 10
199.33756
 20
-158.203332
 30
0.00
  0
SEQEND
  0
POLYLINE
  8
8XV3_EC_PLATE_MIX_ISO-EDGE_CUTS
 66
1
 10
0.00
 20
0.00
 30
0.00
 40
0.20
 41
0.20
  0
VERTEX
  8
8XV3_EC_PLATE_MIX_ISO-EDGE_CUTS
 10
176.11256
 20
-140.153332
 30
0.00
  0
VERTEX
  8
8XV3_EC_PLATE_MIX_ISO-EDGE_CUTS
 10
177.11256
 20
-139.153332
 30
0.00
  0
SEQEND
  0
POLYLINE
  8
8XV3_EC_PLATE_MIX_ISO-EDGE_CUTS
 66
1
 10
0.00
 20
0.00
 30
0.00
 40
0.20
 41
0.20
  0
VERTEX
  8
8XV3_EC_PLATE_MIX_ISO-EDGE_CUTS
 10
176.11256
 20
-152.253332
 30
0.00
  0
VERTEX
  8
8XV3_EC_PLATE_MIX_ISO-EDGE_CUTS
 10
176.11256
 20
-140.153332
 30
0.00
  0
SEQEND
  0
POLYLINE
  8
8XV3_EC_PLATE_MIX_ISO-EDGE_CUTS
 66
1
 10
0.00
 20
0.00
 30
0.00
 40
0.20
 41
0.20
  0
VERTEX
  8
8XV3_EC_PLATE_MIX_ISO-EDGE_CUTS
 10
177.11256
 20
-153.253332
 30
0.00
  0
VERTEX
  8
8XV3_EC_PLATE_MIX_ISO-EDGE_CUTS
 10
176.11256
 20
-152.253332
 30
0.00
  0
SEQEND
  0
POLYLINE
  8
8XV3_EC_PLATE_MIX_ISO-EDGE_CUTS
 66
1
 10
0.00
 20
0.00
 30
0.00
 40
0.20
 41
0.20
  0
VERTEX
  8
8XV3_EC_PLATE_MIX_ISO-EDGE_CUTS
 10
189.81256
 20
-153.253332
 30
0.00
  0
VERTEX
  8
8XV3_EC_PLATE_MIX_ISO-EDGE_CUTS
 10
177.11256
 20
-153.253332
 30
0.00
  0
SEQEND
  0
POLYLINE
  8
8XV3_EC_PLATE_MIX_ISO-EDGE_CUTS
 66
1
 10
0.00
 20
0.00
 30
0.00
 40
0.20
 41
0.20
  0
VERTEX
  8
8XV3_EC_PLATE_MIX_ISO-EDGE_CUTS
 10
190.81256
 20
-152.253332
 30
0.00
  0
VERTEX
  8
8XV3_EC_PLATE_MIX_ISO-EDGE_CUTS
 10
189.81256
 20
-153.253332
 30
0.00
  0
SEQEND
  0
POLYLINE
  8
8XV3_EC_PLATE_MIX_ISO-EDGE_CUTS
 66
1
 10
0.00
 20
0.00
 30
0.00
 40
0.20
 41
0.20
  0
VERTEX
  8
8XV3_EC_PLATE_MIX_ISO-EDGE_CUTS
 10
190.81256
 20
-140.153332
 30
0.00
  0
VERTEX
  8
8XV3_EC_PLATE_MIX_ISO-EDGE_CUTS
 10
190.81256
 20
-152.253332
 30
0.00
  0
SEQEND
  0
POLYLINE
  8
8XV3_EC_PLATE_MIX_ISO-EDGE_CUTS
 66
1
 10
0.00
 20
0.00
 30
0.00
 40
0.20
 41
0.20
  0
VERTEX
  8
8XV3_EC_PLATE_MIX_ISO-EDGE_CUTS
 10
189.81256
 20
-139.153332
 30
0.00
  0
VERTEX
  8
8XV3_EC_PLATE_MIX_ISO-EDGE_CUTS
 10
190.81256
 20
-140.153332
 30
0.00
  0
SEQEND
  0
POLYLINE
  8
8XV3_EC_PLATE_MIX_ISO-EDGE_CUTS
 66
1
 10
0.00
 20
0.00
 30
0.00
 40
0.20
 41
0.20
  0
VERTEX
  8
8XV3_EC_PLATE_MIX_ISO-EDGE_CUTS
 10
177.11256
 20
-139.153332
 30
0.00
  0
VERTEX
  8
8XV3_EC_PLATE_MIX_ISO-EDGE_CUTS
 10
189.81256
 20
-139.153332
 30
0.00
  0
SEQEND
  0
POLYLINE
  8
8XV3_EC_PLATE_MIX_ISO-EDGE_CUTS
 66
1
 10
0.00
 20
0.00
 30
0.00
 40
0.20
 41
0.20
  0
VERTEX
  8
8XV3_EC_PLATE_MIX_ISO-EDGE_CUTS
 10
171.35006
 20
-121.103332
 30
0.00
  0
VERTEX
  8
8XV3_EC_PLATE_MIX_ISO-EDGE_CUTS
 10
172.35006
 20
-120.103332
 30
0.00
  0
SEQEND
  0
POLYLINE
  8
8XV3_EC_PLATE_MIX_ISO-EDGE_CUTS
 66
1
 10
0.00
 20
0.00
 30
0.00
 40
0.20
 41
0.20
  0
VERTEX
  8
8XV3_EC_PLATE_MIX_ISO-EDGE_CUTS
 10
171.35006
 20
-133.203332
 30
0.00
  0
VERTEX
  8
8XV3_EC_PLATE_MIX_ISO-EDGE_CUTS
 10
171.35006
 20
-121.103332
 30
0.00
  0
SEQEND
  0
POLYLINE
  8
8XV3_EC_PLATE_MIX_ISO-EDGE_CUTS
 66
1
 10
0.00
 20
0.00
 30
0.00
 40
0.20
 41
0.20
  0
VERTEX
  8
8XV3_EC_PLATE_MIX_ISO-EDGE_CUTS
 10
172.35006
 20
-134.203332
 30
0.00
  0
VERTEX
  8
8XV3_EC_PLATE_MIX_ISO-EDGE_CUTS
 10
171.35006
 20
-133.203332
 30
0.00
  0
SEQEND
  0
POLYLINE
  8
8XV3_EC_PLATE_MIX_ISO-EDGE_CUTS
 66
1
 10
0.00
 20
0.00
 30
0.00
 40
0.20
 41
0.20
  0
VERTEX
  8
8XV3_EC_PLATE_MIX_ISO-EDGE_CUTS
 10
185.05006
 20
-134.203332
 30
0.00
  0
VERTEX
  8
8XV3_EC_PLATE_MIX_ISO-EDGE_CUTS
 10
172.35006
 20
-134.203332
 30
0.00
  0
SEQEND
  0
POLYLINE
  8
8XV3_EC_PLATE_MIX_ISO-EDGE_CUTS
 66
1
 10
0.00
 20
0.00
 30
0.00
 40
0.20
 41
0.20
  0
VERTEX
  8
8XV3_EC_PLATE_MIX_ISO-EDGE_CUTS
 10
186.05006
 20
-133.203332
 30
0.00
  0
VERTEX
  8
8XV3_EC_PLATE_MIX_ISO-EDGE_CUTS
 10
185.05006
 20
-134.203332
 30
0.00
  0
SEQEND
  0
POLYLINE
  8
8XV3_EC_PLATE_MIX_ISO-EDGE_CUTS
 66
1
 10
0.00
 20
0.00
 30
0.00
 40
0.20
 41
0.20
  0
VERTEX
  8
8XV3_EC_PLATE_MIX_ISO-EDGE_CUTS
 10
186.05006
 20
-121.103332
 30
0.00
  0
VERTEX
  8
8XV3_EC_PLATE_MIX_ISO-EDGE_CUTS
 10
186.05006
 20
-133.203332
 30
0.00
  0
SEQEND
  0
POLYLINE
  8
8XV3_EC_PLATE_MIX_ISO-EDGE_CUTS
 66
1
 10
0.00
 20
0.00
 30
0.00
 40
0.20
 41
0.20
  0
VERTEX
  8
8XV3_EC_PLATE_MIX_ISO-EDGE_CUTS
 10
185.05006
 20
-120.103332
 30
0.00
  0
VERTEX
  8
8XV3_EC_PLATE_MIX_ISO-EDGE_CUTS
 10
186.05006
 20
-121.103332
 30
0.00
  0
SEQEND
  0
POLYLINE
  8
8XV3_EC_PLATE_MIX_ISO-EDGE_CUTS
 66
1
 10
0.00
 20
0.00
 30
0.00
 40
0.20
 41
0.20
  0
VERTEX
  8
8XV3_EC_PLATE_MIX_ISO-EDGE_CUTS
 10
172.35006
 20
-120.103332
 30
0.00
  0
VERTEX
  8
8XV3_EC_PLATE_MIX_ISO-EDGE_CUTS
 10
185.05006
 20
-120.103332
 30
0.00
  0
SEQEND
  0
POLYLINE
  8
8XV3_EC_PLATE_MIX_ISO-EDGE_CUTS
 66
1
 10
0.00
 20
0.00
 30
0.00
 40
0.20
 41
0.20
  0
VERTEX
  8
8XV3_EC_PLATE_MIX_ISO-EDGE_CUTS
 10
161.82506
 20
-102.053332
 30
0.00
  0
VERTEX
  8
8XV3_EC_PLATE_MIX_ISO-EDGE_CUTS
 10
162.82506
 20
-101.053332
 30
0.00
  0
SEQEND
  0
POLYLINE
  8
8XV3_EC_PLATE_MIX_ISO-EDGE_CUTS
 66
1
 10
0.00
 20
0.00
 30
0.00
 40
0.20
 41
0.20
  0
VERTEX
  8
8XV3_EC_PLATE_MIX_ISO-EDGE_CUTS
 10
161.82506
 20
-114.153332
 30
0.00
  0
VERTEX
  8
8XV3_EC_PLATE_MIX_ISO-EDGE_CUTS
 10
161.82506
 20
-102.053332
 30
0.00
  0
SEQEND
  0
POLYLINE
  8
8XV3_EC_PLATE_MIX_ISO-EDGE_CUTS
 66
1
 10
0.00
 20
0.00
 30
0.00
 40
0.20
 41
0.20
  0
VERTEX
  8
8XV3_EC_PLATE_MIX_ISO-EDGE_CUTS
 10
162.82506
 20
-115.153332
 30
0.00
  0
VERTEX
  8
8XV3_EC_PLATE_MIX_ISO-EDGE_CUTS
 10
161.82506
 20
-114.153332
 30
0.00
  0
SEQEND
  0
POLYLINE
  8
8XV3_EC_PLATE_MIX_ISO-EDGE_CUTS
 66
1
 10
0.00
 20
0.00
 30
0.00
 40
0.20
 41
0.20
  0
VERTEX
  8
8XV3_EC_PLATE_MIX_ISO-EDGE_CUTS
 10
175.52506
 20
-115.153332
 30
0.00
  0
VERTEX
  8
8XV3_EC_PLATE_MIX_ISO-EDGE_CUTS
 10
162.82506
 20
-115.153332
 30
0.00
  0
SEQEND
  0
POLYLINE
  8
8XV3_EC_PLATE_MIX_ISO-EDGE_CUTS
 66
1
 10
0.00
 20
0.00
 30
0.00
 40
0.20
 41
0.20
  0
VERTEX
  8
8XV3_EC_PLATE_MIX_ISO-EDGE_CUTS
 10
176.52506
 20
-114.153332
 30
0.00
  0
VERTEX
  8
8XV3_EC_PLATE_MIX_ISO-EDGE_CUTS
 10
175.52506
 20
-115.153332
 30
0.00
  0
SEQEND
  0
POLYLINE
  8
8XV3_EC_PLATE_MIX_ISO-EDGE_CUTS
 66
1
 10
0.00
 20
0.00
 30
0.00
 40
0.20
 41
0.20
  0
VERTEX
  8
8XV3_EC_PLATE_MIX_ISO-EDGE_CUTS
 10
176.52506
 20
-102.053332
 30
0.00
  0
VERTEX
  8
8XV3_EC_PLATE_MIX_ISO-EDGE_CUTS
 10
176.52506
 20
-114.153332
 30
0.00
  0
SEQEND
  0
POLYLINE
  8
8XV3_EC_PLATE_MIX_ISO-EDGE_CUTS
 66
1
 10
0.00
 20
0.00
 30
0.00
 40
0.20
 41
0.20
  0
VERTEX
  8
8XV3_EC_PLATE_MIX_ISO-EDGE_CUTS
 10
175.52506
 20
-101.053332
 30
0.00
  0
VERTEX
  8
8XV3_EC_PLATE_MIX_ISO-EDGE_CUTS
 10
176.52506
 20
-102.053332
 30
0.00
  0
SEQEND
  0
POLYLINE
  8
8XV3_EC_PLATE_MIX_ISO-EDGE_CUTS
 66
1
 10
0.00
 20
0.00
 30
0.00
 40
0.20
 41
0.20
  0
VERTEX
  8
8XV3_EC_PLATE_MIX_ISO-EDGE_CUTS
 10
162.82506
 20
-101.053332
 30
0.00
  0
VERTEX
  8
8XV3_EC_PLATE_MIX_ISO-EDGE_CUTS
 10
175.52506
 20
-101.053332
 30
0.00
  0
SEQEND
  0
POLYLINE
  8
8XV3_EC_PLATE_MIX_ISO-EDGE_CUTS
 66
1
 10
0.00
 20
0.00
 30
0.00
 40
0.20
 41
0.20
  0
VERTEX
  8
8XV3_EC_PLATE_MIX_ISO-EDGE_CUTS
 10
190.40256
 20
-77.053332
 30
0.00
  0
VERTEX
  8
8XV3_EC_PLATE_MIX_ISO-EDGE_CUTS
 10
191.40256
 20
-76.053332
 30
0.00
  0
SEQEND
  0
POLYLINE
  8
8XV3_EC_PLATE_MIX_ISO-EDGE_CUTS
 66
1
 10
0.00
 20
0.00
 30
0.00
 40
0.20
 41
0.20
  0
VERTEX
  8
8XV3_EC_PLATE_MIX_ISO-EDGE_CUTS
 10
190.40256
 20
-89.153332
 30
0.00
  0
VERTEX
  8
8XV3_EC_PLATE_MIX_ISO-EDGE_CUTS
 10
190.40256
 20
-77.053332
 30
0.00
  0
SEQEND
  0
POLYLINE
  8
8XV3_EC_PLATE_MIX_ISO-EDGE_CUTS
 66
1
 10
0.00
 20
0.00
 30
0.00
 40
0.20
 41
0.20
  0
VERTEX
  8
8XV3_EC_PLATE_MIX_ISO-EDGE_CUTS
 10
191.40256
 20
-90.153332
 30
0.00
  0
VERTEX
  8
8XV3_EC_PLATE_MIX_ISO-EDGE_CUTS
 10
190.40256
 20
-89.153332
 30
0.00
  0
SEQEND
  0
POLYLINE
  8
8XV3_EC_PLATE_MIX_ISO-EDGE_CUTS
 66
1
 10
0.00
 20
0.00
 30
0.00
 40
0.20
 41
0.20
  0
VERTEX
  8
8XV3_EC_PLATE_MIX_ISO-EDGE_CUTS
 10
204.10256
 20
-90.153332
 30
0.00
  0
VERTEX
  8
8XV3_EC_PLATE_MIX_ISO-EDGE_CUTS
 10
191.40256
 20
-90.153332
 30
0.00
  0
SEQEND
  0
POLYLINE
  8
8XV3_EC_PLATE_MIX_ISO-EDGE_CUTS
 66
1
 10
0.00
 20
0.00
 30
0.00
 40
0.20
 41
0.20
  0
VERTEX
  8
8XV3_EC_PLATE_MIX_ISO-EDGE_CUTS
 10
205.10256
 20
-89.153332
 30
0.00
  0
VERTEX
  8
8XV3_EC_PLATE_MIX_ISO-EDGE_CUTS
 10
204.10256
 20
-90.153332
 30
0.00
  0
SEQEND
  0
POLYLINE
  8
8XV3_EC_PLATE_MIX_ISO-EDGE_CUTS
 66
1
 10
0.00
 20
0.00
 30
0.00
 40
0.20
 41
0.20
  0
VERTEX
  8
8XV3_EC_PLATE_MIX_ISO-EDGE_CUTS
 10
205.10256
 20
-77.053332
 30
0.00
  0
VERTEX
  8
8XV3_EC_PLATE_MIX_ISO-EDGE_CUTS
 10
205.10256
 20
-89.153332
 30
0.00
  0
SEQEND
  0
POLYLINE
  8
8XV3_EC_PLATE_MIX_ISO-EDGE_CUTS
 66
1
 10
0.00
 20
0.00
 30
0.00
 40
0.20
 41
0.20
  0
VERTEX
  8
8XV3_EC_PLATE_MIX_ISO-EDGE_CUTS
 10
204.10256
 20
-76.053332
 30
0.00
  0
VERTEX
  8
8XV3_EC_PLATE_MIX_ISO-EDGE_CUTS
 10
205.10256
 20
-77.053332
 30
0.00
  0
SEQEND
  0
POLYLINE
  8
8XV3_EC_PLATE_MIX_ISO-EDGE_CUTS
 66
1
 10
0.00
 20
0.00
 30
0.00
 40
0.20
 41
0.20
  0
VERTEX
  8
8XV3_EC_PLATE_MIX_ISO-EDGE_CUTS
 10
191.40256
 20
-76.053332
 30
0.00
  0
VERTEX
  8
8XV3_EC_PLATE_MIX_ISO-EDGE_CUTS
 10
204.10256
 20
-76.053332
 30
0.00
  0
SEQEND
  0
POLYLINE
  8
8XV3_EC_PLATE_MIX_ISO-EDGE_CUTS
 66
1
 10
0.00
 20
0.00
 30
0.00
 40
0.20
 41
0.20
  0
VERTEX
  8
8XV3_EC_PLATE_MIX_ISO-EDGE_CUTS
 10
166.58756
 20
-159.203332
 30
0.00
  0
VERTEX
  8
8XV3_EC_PLATE_MIX_ISO-EDGE_CUTS
 10
167.58756
 20
-158.203332
 30
0.00
  0
SEQEND
  0
POLYLINE
  8
8XV3_EC_PLATE_MIX_ISO-EDGE_CUTS
 66
1
 10
0.00
 20
0.00
 30
0.00
 40
0.20
 41
0.20
  0
VERTEX
  8
8XV3_EC_PLATE_MIX_ISO-EDGE_CUTS
 10
166.58756
 20
-171.303332
 30
0.00
  0
VERTEX
  8
8XV3_EC_PLATE_MIX_ISO-EDGE_CUTS
 10
166.58756
 20
-159.203332
 30
0.00
  0
SEQEND
  0
POLYLINE
  8
8XV3_EC_PLATE_MIX_ISO-EDGE_CUTS
 66
1
 10
0.00
 20
0.00
 30
0.00
 40
0.20
 41
0.20
  0
VERTEX
  8
8XV3_EC_PLATE_MIX_ISO-EDGE_CUTS
 10
167.58756
 20
-172.303332
 30
0.00
  0
VERTEX
  8
8XV3_EC_PLATE_MIX_ISO-EDGE_CUTS
 10
166.58756
 20
-171.303332
 30
0.00
  0
SEQEND
  0
POLYLINE
  8
8XV3_EC_PLATE_MIX_ISO-EDGE_CUTS
 66
1
 10
0.00
 20
0.00
 30
0.00
 40
0.20
 41
0.20
  0
VERTEX
  8
8XV3_EC_PLATE_MIX_ISO-EDGE_CUTS
 10
180.28756
 20
-172.303332
 30
0.00
  0
VERTEX
  8
8XV3_EC_PLATE_MIX_ISO-EDGE_CUTS
 10
167.58756
 20
-172.303332
 30
0.00
  0
SEQEND
  0
POLYLINE
  8
8XV3_EC_PLATE_MIX_ISO-EDGE_CUTS
 66
1
 10
0.00
 20
0.00
 30
0.00
 40
0.20
 41
0.20
  0
VERTEX
  8
8XV3_EC_PLATE_MIX_ISO-EDGE_CUTS
 10
181.28756
 20
-171.303332
 30
0.00
  0
VERTEX
  8
8XV3_EC_PLATE_MIX_ISO-EDGE_CUTS
 10
180.28756
 20
-172.303332
 30
0.00
  0
SEQEND
  0
POLYLINE
  8
8XV3_EC_PLATE_MIX_ISO-EDGE_CUTS
 66
1
 10
0.00
 20
0.00
 30
0.00
 40
0.20
 41
0.20
  0
VERTEX
  8
8XV3_EC_PLATE_MIX_ISO-EDGE_CUTS
 10
181.28756
 20
-159.203332
 30
0.00
  0
VERTEX
  8
8XV3_EC_PLATE_MIX_ISO-EDGE_CUTS
 10
181.28756
 20
-171.303332
 30
0.00
  0
SEQEND
  0
POLYLINE
  8
8XV3_EC_PLATE_MIX_ISO-EDGE_CUTS
 66
1
 10
0.00
 20
0.00
 30
0.00
 40
0.20
 41
0.20
  0
VERTEX
  8
8XV3_EC_PLATE_MIX_ISO-EDGE_CUTS
 10
180.28756
 20
-158.203332
 30
0.00
  0
VERTEX
  8
8XV3_EC_PLATE_MIX_ISO-EDGE_CUTS
 10
181.28756
 20
-159.203332
 30
0.00
  0
SEQEND
  0
POLYLINE
  8
8XV3_EC_PLATE_MIX_ISO-EDGE_CUTS
 66
1
 10
0.00
 20
0.00
 30
0.00
 40
0.20
 41
0.20
  0
VERTEX
  8
8XV3_EC_PLATE_MIX_ISO-EDGE_CUTS
 10
167.58756
 20
-158.203332
 30
0.00
  0
VERTEX
  8
8XV3_EC_PLATE_MIX_ISO-EDGE_CUTS
 10
180.28756
 20
-158.203332
 30
0.00
  0
SEQEND
  0
POLYLINE
  8
8XV3_EC_PLATE_MIX_ISO-EDGE_CUTS
 66
1
 10
0.00
 20
0.00
 30
0.00
 40
0.20
 41
0.20
  0
VERTEX
  8
8XV3_EC_PLATE_MIX_ISO-EDGE_CUTS
 10
157.06256
 20
-140.153332
 30
0.00
  0
VERTEX
  8
8XV3_EC_PLATE_MIX_ISO-EDGE_CUTS
 10
158.06256
 20
-139.153332
 30
0.00
  0
SEQEND
  0
POLYLINE
  8
8XV3_EC_PLATE_MIX_ISO-EDGE_CUTS
 66
1
 10
0.00
 20
0.00
 30
0.00
 40
0.20
 41
0.20
  0
VERTEX
  8
8XV3_EC_PLATE_MIX_ISO-EDGE_CUTS
 10
157.06256
 20
-152.253332
 30
0.00
  0
VERTEX
  8
8XV3_EC_PLATE_MIX_ISO-EDGE_CUTS
 10
157.06256
 20
-140.153332
 30
0.00
  0
SEQEND
  0
POLYLINE
  8
8XV3_EC_PLATE_MIX_ISO-EDGE_CUTS
 66
1
 10
0.00
 20
0.00
 30
0.00
 40
0.20
 41
0.20
  0
VERTEX
  8
8XV3_EC_PLATE_MIX_ISO-EDGE_CUTS
 10
158.06256
 20
-153.253332
 30
0.00
  0
VERTEX
  8
8XV3_EC_PLATE_MIX_ISO-EDGE_CUTS
 10
157.06256
 20
-152.253332
 30
0.00
  0
SEQEND
  0
POLYLINE
  8
8XV3_EC_PLATE_MIX_ISO-EDGE_CUTS
 66
1
 10
0.00
 20
0.00
 30
0.00
 40
0.20
 41
0.20
  0
VERTEX
  8
8XV3_EC_PLATE_MIX_ISO-EDGE_CUTS
 10
170.76256
 20
-153.253332
 30
0.00
  0
VERTEX
  8
8XV3_EC_PLATE_MIX_ISO-EDGE_CUTS
 10
158.06256
 20
-153.253332
 30
0.00
  0
SEQEND
  0
POLYLINE
  8
8XV3_EC_PLATE_MIX_ISO-EDGE_CUTS
 66
1
 10
0.00
 20
0.00
 30
0.00
 40
0.20
 41
0.20
  0
VERTEX
  8
8XV3_EC_PLATE_MIX_ISO-EDGE_CUTS
 10
171.76256
 20
-152.253332
 30
0.00
  0
VERTEX
  8
8XV3_EC_PLATE_MIX_ISO-EDGE_CUTS
 10
170.76256
 20
-153.253332
 30
0.00
  0
SEQEND
  0
POLYLINE
  8
8XV3_EC_PLATE_MIX_ISO-EDGE_CUTS
 66
1
 10
0.00
 20
0.00
 30
0.00
 40
0.20
 41
0.20
  0
VERTEX
  8
8XV3_EC_PLATE_MIX_ISO-EDGE_CUTS
 10
171.76256
 20
-140.153332
 30
0.00
  0
VERTEX
  8
8XV3_EC_PLATE_MIX_ISO-EDGE_CUTS
 10
171.76256
 20
-152.253332
 30
0.00
  0
SEQEND
  0
POLYLINE
  8
8XV3_EC_PLATE_MIX_ISO-EDGE_CUTS
 66
1
 10
0.00
 20
0.00
 30
0.00
 40
0.20
 41
0.20
  0
VERTEX
  8
8XV3_EC_PLATE_MIX_ISO-EDGE_CUTS
 10
170.76256
 20
-139.153332
 30
0.00
  0
VERTEX
  8
8XV3_EC_PLATE_MIX_ISO-EDGE_CUTS
 10
171.76256
 20
-140.153332
 30
0.00
  0
SEQEND
  0
POLYLINE
  8
8XV3_EC_PLATE_MIX_ISO-EDGE_CUTS
 66
1
 10
0.00
 20
0.00
 30
0.00
 40
0.20
 41
0.20
  0
VERTEX
  8
8XV3_EC_PLATE_MIX_ISO-EDGE_CUTS
 10
158.06256
 20
-139.153332
 30
0.00
  0
VERTEX
  8
8XV3_EC_PLATE_MIX_ISO-EDGE_CUTS
 10
170.76256
 20
-139.153332
 30
0.00
  0
SEQEND
  0
POLYLINE
  8
8XV3_EC_PLATE_MIX_ISO-EDGE_CUTS
 66
1
 10
0.00
 20
0.00
 30
0.00
 40
0.20
 41
0.20
  0
VERTEX
  8
8XV3_EC_PLATE_MIX_ISO-EDGE_CUTS
 10
152.30006
 20
-121.103332
 30
0.00
  0
VERTEX
  8
8XV3_EC_PLATE_MIX_ISO-EDGE_CUTS
 10
153.30006
 20
-120.103332
 30
0.00
  0
SEQEND
  0
POLYLINE
  8
8XV3_EC_PLATE_MIX_ISO-EDGE_CUTS
 66
1
 10
0.00
 20
0.00
 30
0.00
 40
0.20
 41
0.20
  0
VERTEX
  8
8XV3_EC_PLATE_MIX_ISO-EDGE_CUTS
 10
152.30006
 20
-133.203332
 30
0.00
  0
VERTEX
  8
8XV3_EC_PLATE_MIX_ISO-EDGE_CUTS
 10
152.30006
 20
-121.103332
 30
0.00
  0
SEQEND
  0
POLYLINE
  8
8XV3_EC_PLATE_MIX_ISO-EDGE_CUTS
 66
1
 10
0.00
 20
0.00
 30
0.00
 40
0.20
 41
0.20
  0
VERTEX
  8
8XV3_EC_PLATE_MIX_ISO-EDGE_CUTS
 10
153.30006
 20
-134.203332
 30
0.00
  0
VERTEX
  8
8XV3_EC_PLATE_MIX_ISO-EDGE_CUTS
 10
152.30006
 20
-133.203332
 30
0.00
  0
SEQEND
  0
POLYLINE
  8
8XV3_EC_PLATE_MIX_ISO-EDGE_CUTS
 66
1
 10
0.00
 20
0.00
 30
0.00
 40
0.20
 41
0.20
  0
VERTEX
  8
8XV3_EC_PLATE_MIX_ISO-EDGE_CUTS
 10
166.00006
 20
-134.203332
 30
0.00
  0
VERTEX
  8
8XV3_EC_PLATE_MIX_ISO-EDGE_CUTS
 10
153.30006
 20
-134.203332
 30
0.00
  0
SEQEND
  0
POLYLINE
  8
8XV3_EC_PLATE_MIX_ISO-EDGE_CUTS
 66
1
 10
0.00
 20
0.00
 30
0.00
 40
0.20
 41
0.20
  0
VERTEX
  8
8XV3_EC_PLATE_MIX_ISO-EDGE_CUTS
 10
167.00006
 20
-133.203332
 30
0.00
  0
VERTEX
  8
8XV3_EC_PLATE_MIX_ISO-EDGE_CUTS
 10
166.00006
 20
-134.203332
 30
0.00
  0
SEQEND
  0
POLYLINE
  8
8XV3_EC_PLATE_MIX_ISO-EDGE_CUTS
 66
1
 10
0.00
 20
0.00
 30
0.00
 40
0.20
 41
0.20
  0
VERTEX
  8
8XV3_EC_PLATE_MIX_ISO-EDGE_CUTS
 10
167.00006
 20
-121.103332
 30
0.00
  0
VERTEX
  8
8XV3_EC_PLATE_MIX_ISO-EDGE_CUTS
 10
167.00006
 20
-133.203332
 30
0.00
  0
SEQEND
  0
POLYLINE
  8
8XV3_EC_PLATE_MIX_ISO-EDGE_CUTS
 66
1
 10
0.00
 20
0.00
 30
0.00
 40
0.20
 41
0.20
  0
VERTEX
  8
8XV3_EC_PLATE_MIX_ISO-EDGE_CUTS
 10
166.00006
 20
-120.103332
 30
0.00
  0
VERTEX
  8
8XV3_EC_PLATE_MIX_ISO-EDGE_CUTS
 10
167.00006
 20
-121.103332
 30
0.00
  0
SEQEND
  0
POLYLINE
  8
8XV3_EC_PLATE_MIX_ISO-EDGE_CUTS
 66
1
 10
0.00
 20
0.00
 30
0.00
 40
0.20
 41
0.20
  0
VERTEX
  8
8XV3_EC_PLATE_MIX_ISO-EDGE_CUTS
 10
153.30006
 20
-120.103332
 30
0.00
  0
VERTEX
  8
8XV3_EC_PLATE_MIX_ISO-EDGE_CUTS
 10
166.00006
 20
-120.103332
 30
0.00
  0
SEQEND
  0
POLYLINE
  8
8XV3_EC_PLATE_MIX_ISO-EDGE_CUTS
 66
1
 10
0.00
 20
0.00
 30
0.00
 40
0.20
 41
0.20
  0
VERTEX
  8
8XV3_EC_PLATE_MIX_ISO-EDGE_CUTS
 10
142.77506
 20
-102.053332
 30
0.00
  0
VERTEX
  8
8XV3_EC_PLATE_MIX_ISO-EDGE_CUTS
 10
143.77506
 20
-101.053332
 30
0.00
  0
SEQEND
  0
POLYLINE
  8
8XV3_EC_PLATE_MIX_ISO-EDGE_CUTS
 66
1
 10
0.00
 20
0.00
 30
0.00
 40
0.20
 41
0.20
  0
VERTEX
  8
8XV3_EC_PLATE_MIX_ISO-EDGE_CUTS
 10
142.77506
 20
-114.153332
 30
0.00
  0
VERTEX
  8
8XV3_EC_PLATE_MIX_ISO-EDGE_CUTS
 10
142.77506
 20
-102.053332
 30
0.00
  0
SEQEND
  0
POLYLINE
  8
8XV3_EC_PLATE_MIX_ISO-EDGE_CUTS
 66
1
 10
0.00
 20
0.00
 30
0.00
 40
0.20
 41
0.20
  0
VERTEX
  8
8XV3_EC_PLATE_MIX_ISO-EDGE_CUTS
 10
143.77506
 20
-115.153332
 30
0.00
  0
VERTEX
  8
8XV3_EC_PLATE_MIX_ISO-EDGE_CUTS
 10
142.77506
 20
-114.153332
 30
0.00
  0
SEQEND
  0
POLYLINE
  8
8XV3_EC_PLATE_MIX_ISO-EDGE_CUTS
 66
1
 10
0.00
 20
0.00
 30
0.00
 40
0.20
 41
0.20
  0
VERTEX
  8
8XV3_EC_PLATE_MIX_ISO-EDGE_CUTS
 10
156.47506
 20
-115.153332
 30
0.00
  0
VERTEX
  8
8XV3_EC_PLATE_MIX_ISO-EDGE_CUTS
 10
143.77506
 20
-115.153332
 30
0.00
  0
SEQEND
  0
POLYLINE
  8
8XV3_EC_PLATE_MIX_ISO-EDGE_CUTS
 66
1
 10
0.00
 20
0.00
 30
0.00
 40
0.20
 41
0.20
  0
VERTEX
  8
8XV3_EC_PLATE_MIX_ISO-EDGE_CUTS
 10
157.47506
 20
-114.153332
 30
0.00
  0
VERTEX
  8
8XV3_EC_PLATE_MIX_ISO-EDGE_CUTS
 10
156.47506
 20
-115.153332
 30
0.00
  0
SEQEND
  0
POLYLINE
  8
8XV3_EC_PLATE_MIX_ISO-EDGE_CUTS
 66
1
 10
0.00
 20
0.00
 30
0.00
 40
0.20
 41
0.20
  0
VERTEX
  8
8XV3_EC_PLATE_MIX_ISO-EDGE_CUTS
 10
157.47506
 20
-102.053332
 30
0.00
  0
VERTEX
  8
8XV3_EC_PLATE_MIX_ISO-EDGE_CUTS
 10
157.47506
 20
-114.153332
 30
0.00
  0
SEQEND
  0
POLYLINE
  8
8XV3_EC_PLATE_MIX_ISO-EDGE_CUTS
 66
1
 10
0.00
 20
0.00
 30
0.00
 40
0.20
 41
0.20
  0
VERTEX
  8
8XV3_EC_PLATE_MIX_ISO-EDGE_CUTS
 10
156.47506
 20
-101.053332
 30
0.00
  0
VERTEX
  8
8XV3_EC_PLATE_MIX_ISO-EDGE_CUTS
 10
157.47506
 20
-102.053332
 30
0.00
  0
SEQEND
  0
POLYLINE
  8
8XV3_EC_PLATE_MIX_ISO-EDGE_CUTS
 66
1
 10
0.00
 20
0.00
 30
0.00
 40
0.20
 41
0.20
  0
VERTEX
  8
8XV3_EC_PLATE_MIX_ISO-EDGE_CUTS
 10
143.77506
 20
-101.053332
 30
0.00
  0
VERTEX
  8
8XV3_EC_PLATE_MIX_ISO-EDGE_CUTS
 10
156.47506
 20
-101.053332
 30
0.00
  0
SEQEND
  0
POLYLINE
  8
8XV3_EC_PLATE_MIX_ISO-EDGE_CUTS
 66
1
 10
0.00
 20
0.00
 30
0.00
 40
0.20
 41
0.20
  0
VERTEX
  8
8XV3_EC_PLATE_MIX_ISO-EDGE_CUTS
 10
171.35256
 20
-77.053332
 30
0.00
  0
VERTEX
  8
8XV3_EC_PLATE_MIX_ISO-EDGE_CUTS
 10
172.35256
 20
-76.053332
 30
0.00
  0
SEQEND
  0
POLYLINE
  8
8XV3_EC_PLATE_MIX_ISO-EDGE_CUTS
 66
1
 10
0.00
 20
0.00
 30
0.00
 40
0.20
 41
0.20
  0
VERTEX
  8
8XV3_EC_PLATE_MIX_ISO-EDGE_CUTS
 10
171.35256
 20
-89.153332
 30
0.00
  0
VERTEX
  8
8XV3_EC_PLATE_MIX_ISO-EDGE_CUTS
 10
171.35256
 20
-77.053332
 30
0.00
  0
SEQEND
  0
POLYLINE
  8
8XV3_EC_PLATE_MIX_ISO-EDGE_CUTS
 66
1
 10
0.00
 20
0.00
 30
0.00
 40
0.20
 41
0.20
  0
VERTEX
  8
8XV3_EC_PLATE_MIX_ISO-EDGE_CUTS
 10
172.35256
 20
-90.153332
 30
0.00
  0
VERTEX
  8
8XV3_EC_PLATE_MIX_ISO-EDGE_CUTS
 10
171.35256
 20
-89.153332
 30
0.00
  0
SEQEND
  0
POLYLINE
  8
8XV3_EC_PLATE_MIX_ISO-EDGE_CUTS
 66
1
 10
0.00
 20
0.00
 30
0.00
 40
0.20
 41
0.20
  0
VERTEX
  8
8XV3_EC_PLATE_MIX_ISO-EDGE_CUTS
 10
185.05256
 20
-90.153332
 30
0.00
  0
VERTEX
  8
8XV3_EC_PLATE_MIX_ISO-EDGE_CUTS
 10
172.35256
 20
-90.153332
 30
0.00
  0
SEQEND
  0
POLYLINE
  8
8XV3_EC_PLATE_MIX_ISO-EDGE_CUTS
 66
1
 10
0.00
 20
0.00
 30
0.00
 40
0.20
 41
0.20
  0
VERTEX
  8
8XV3_EC_PLATE_MIX_ISO-EDGE_CUTS
 10
186.05256
 20
-89.153332
 30
0.00
  0
VERTEX
  8
8XV3_EC_PLATE_MIX_ISO-EDGE_CUTS
 10
185.05256
 20
-90.153332
 30
0.00
  0
SEQEND
  0
POLYLINE
  8
8XV3_EC_PLATE_MIX_ISO-EDGE_CUTS
 66
1
 10
0.00
 20
0.00
 30
0.00
 40
0.20
 41
0.20
  0
VERTEX
  8
8XV3_EC_PLATE_MIX_ISO-EDGE_CUTS
 10
186.05256
 20
-77.053332
 30
0.00
  0
VERTEX
  8
8XV3_EC_PLATE_MIX_ISO-EDGE_CUTS
 10
186.05256
 20
-89.153332
 30
0.00
  0
SEQEND
  0
POLYLINE
  8
8XV3_EC_PLATE_MIX_ISO-EDGE_CUTS
 66
1
 10
0.00
 20
0.00
 30
0.00
 40
0.20
 41
0.20
  0
VERTEX
  8
8XV3_EC_PLATE_MIX_ISO-EDGE_CUTS
 10
185.05256
 20
-76.053332
 30
0.00
  0
VERTEX
  8
8XV3_EC_PLATE_MIX_ISO-EDGE_CUTS
 10
186.05256
 20
-77.053332
 30
0.00
  0
SEQEND
  0
POLYLINE
  8
8XV3_EC_PLATE_MIX_ISO-EDGE_CUTS
 66
1
 10
0.00
 20
0.00
 30
0.00
 40
0.20
 41
0.20
  0
VERTEX
  8
8XV3_EC_PLATE_MIX_ISO-EDGE_CUTS
 10
172.35256
 20
-76.053332
 30
0.00
  0
VERTEX
  8
8XV3_EC_PLATE_MIX_ISO-EDGE_CUTS
 10
185.05256
 20
-76.053332
 30
0.00
  0
SEQEND
  0
POLYLINE
  8
8XV3_EC_PLATE_MIX_ISO-EDGE_CUTS
 66
1
 10
0.00
 20
0.00
 30
0.00
 40
0.20
 41
0.20
  0
VERTEX
  8
8XV3_EC_PLATE_MIX_ISO-EDGE_CUTS
 10
147.53756
 20
-159.203332
 30
0.00
  0
VERTEX
  8
8XV3_EC_PLATE_MIX_ISO-EDGE_CUTS
 10
148.53756
 20
-158.203332
 30
0.00
  0
SEQEND
  0
POLYLINE
  8
8XV3_EC_PLATE_MIX_ISO-EDGE_CUTS
 66
1
 10
0.00
 20
0.00
 30
0.00
 40
0.20
 41
0.20
  0
VERTEX
  8
8XV3_EC_PLATE_MIX_ISO-EDGE_CUTS
 10
147.53756
 20
-171.303332
 30
0.00
  0
VERTEX
  8
8XV3_EC_PLATE_MIX_ISO-EDGE_CUTS
 10
147.53756
 20
-159.203332
 30
0.00
  0
SEQEND
  0
POLYLINE
  8
8XV3_EC_PLATE_MIX_ISO-EDGE_CUTS
 66
1
 10
0.00
 20
0.00
 30
0.00
 40
0.20
 41
0.20
  0
VERTEX
  8
8XV3_EC_PLATE_MIX_ISO-EDGE_CUTS
 10
148.53756
 20
-172.303332
 30
0.00
  0
VERTEX
  8
8XV3_EC_PLATE_MIX_ISO-EDGE_CUTS
 10
147.53756
 20
-171.303332
 30
0.00
  0
SEQEND
  0
POLYLINE
  8
8XV3_EC_PLATE_MIX_ISO-EDGE_CUTS
 66
1
 10
0.00
 20
0.00
 30
0.00
 40
0.20
 41
0.20
  0
VERTEX
  8
8XV3_EC_PLATE_MIX_ISO-EDGE_CUTS
 10
161.23756
 20
-172.303332
 30
0.00
  0
VERTEX
  8
8XV3_EC_PLATE_MIX_ISO-EDGE_CUTS
 10
148.53756
 20
-172.303332
 30
0.00
  0
SEQEND
  0
POLYLINE
  8
8XV3_EC_PLATE_MIX_ISO-EDGE_CUTS
 66
1
 10
0.00
 20
0.00
 30
0.00
 40
0.20
 41
0.20
  0
VERTEX
  8
8XV3_EC_PLATE_MIX_ISO-EDGE_CUTS
 10
162.23756
 20
-171.303332
 30
0.00
  0
VERTEX
  8
8XV3_EC_PLATE_MIX_ISO-EDGE_CUTS
 10
161.23756
 20
-172.303332
 30
0.00
  0
SEQEND
  0
POLYLINE
  8
8XV3_EC_PLATE_MIX_ISO-EDGE_CUTS
 66
1
 10
0.00
 20
0.00
 30
0.00
 40
0.20
 41
0.20
  0
VERTEX
  8
8XV3_EC_PLATE_MIX_ISO-EDGE_CUTS
 10
162.23756
 20
-159.203332
 30
0.00
  0
VERTEX
  8
8XV3_EC_PLATE_MIX_ISO-EDGE_CUTS
 10
162.23756
 20
-171.303332
 30
0.00
  0
SEQEND
  0
POLYLINE
  8
8XV3_EC_PLATE_MIX_ISO-EDGE_CUTS
 66
1
 10
0.00
 20
0.00
 30
0.00
 40
0.20
 41
0.20
  0
VERTEX
  8
8XV3_EC_PLATE_MIX_ISO-EDGE_CUTS
 10
161.23756
 20
-158.203332
 30
0.00
  0
VERTEX
  8
8XV3_EC_PLATE_MIX_ISO-EDGE_CUTS
 10
162.23756
 20
-159.203332
 30
0.00
  0
SEQEND
  0
POLYLINE
  8
8XV3_EC_PLATE_MIX_ISO-EDGE_CUTS
 66
1
 10
0.00
 20
0.00
 30
0.00
 40
0.20
 41
0.20
  0
VERTEX
  8
8XV3_EC_PLATE_MIX_ISO-EDGE_CUTS
 10
148.53756
 20
-158.203332
 30
0.00
  0
VERTEX
  8
8XV3_EC_PLATE_MIX_ISO-EDGE_CUTS
 10
161.23756
 20
-158.203332
 30
0.00
  0
SEQEND
  0
POLYLINE
  8
8XV3_EC_PLATE_MIX_ISO-EDGE_CUTS
 66
1
 10
0.00
 20
0.00
 30
0.00
 40
0.20
 41
0.20
  0
VERTEX
  8
8XV3_EC_PLATE_MIX_ISO-EDGE_CUTS
 10
128.48756
 20
-159.203332
 30
0.00
  0
VERTEX
  8
8XV3_EC_PLATE_MIX_ISO-EDGE_CUTS
 10
129.48756
 20
-158.203332
 30
0.00
  0
SEQEND
  0
POLYLINE
  8
8XV3_EC_PLATE_MIX_ISO-EDGE_CUTS
 66
1
 10
0.00
 20
0.00
 30
0.00
 40
0.20
 41
0.20
  0
VERTEX
  8
8XV3_EC_PLATE_MIX_ISO-EDGE_CUTS
 10
128.48756
 20
-171.303332
 30
0.00
  0
VERTEX
  8
8XV3_EC_PLATE_MIX_ISO-EDGE_CUTS
 10
128.48756
 20
-159.203332
 30
0.00
  0
SEQEND
  0
POLYLINE
  8
8XV3_EC_PLATE_MIX_ISO-EDGE_CUTS
 66
1
 10
0.00
 20
0.00
 30
0.00
 40
0.20
 41
0.20
  0
VERTEX
  8
8XV3_EC_PLATE_MIX_ISO-EDGE_CUTS
 10
129.48756
 20
-172.303332
 30
0.00
  0
VERTEX
  8
8XV3_EC_PLATE_MIX_ISO-EDGE_CUTS
 10
128.48756
 20
-171.303332
 30
0.00
  0
SEQEND
  0
POLYLINE
  8
8XV3_EC_PLATE_MIX_ISO-EDGE_CUTS
 66
1
 10
0.00
 20
0.00
 30
0.00
 40
0.20
 41
0.20
  0
VERTEX
  8
8XV3_EC_PLATE_MIX_ISO-EDGE_CUTS
 10
142.18756
 20
-172.303332
 30
0.00
  0
VERTEX
  8
8XV3_EC_PLATE_MIX_ISO-EDGE_CUTS
 10
129.48756
 20
-172.303332
 30
0.00
  0
SEQEND
  0
POLYLINE
  8
8XV3_EC_PLATE_MIX_ISO-EDGE_CUTS
 66
1
 10
0.00
 20
0.00
 30
0.00
 40
0.20
 41
0.20
  0
VERTEX
  8
8XV3_EC_PLATE_MIX_ISO-EDGE_CUTS
 10
143.18756
 20
-171.303332
 30
0.00
  0
VERTEX
  8
8XV3_EC_PLATE_MIX_ISO-EDGE_CUTS
 10
142.18756
 20
-172.303332
 30
0.00
  0
SEQEND
  0
POLYLINE
  8
8XV3_EC_PLATE_MIX_ISO-EDGE_CUTS
 66
1
 10
0.00
 20
0.00
 30
0.00
 40
0.20
 41
0.20
  0
VERTEX
  8
8XV3_EC_PLATE_MIX_ISO-EDGE_CUTS
 10
143.18756
 20
-159.203332
 30
0.00
  0
VERTEX
  8
8XV3_EC_PLATE_MIX_ISO-EDGE_CUTS
 10
143.18756
 20
-171.303332
 30
0.00
  0
SEQEND
  0
POLYLINE
  8
8XV3_EC_PLATE_MIX_ISO-EDGE_CUTS
 66
1
 10
0.00
 20
0.00
 30
0.00
 40
0.20
 41
0.20
  0
VERTEX
  8
8XV3_EC_PLATE_MIX_ISO-EDGE_CUTS
 10
142.18756
 20
-158.203332
 30
0.00
  0
VERTEX
  8
8XV3_EC_PLATE_MIX_ISO-EDGE_CUTS
 10
143.18756
 20
-159.203332
 30
0.00
  0
SEQEND
  0
POLYLINE
  8
8XV3_EC_PLATE_MIX_ISO-EDGE_CUTS
 66
1
 10
0.00
 20
0.00
 30
0.00
 40
0.20
 41
0.20
  0
VERTEX
  8
8XV3_EC_PLATE_MIX_ISO-EDGE_CUTS
 10
129.48756
 20
-158.203332
 30
0.00
  0
VERTEX
  8
8XV3_EC_PLATE_MIX_ISO-EDGE_CUTS
 10
142.18756
 20
-158.203332
 30
0.00
  0
SEQEND
  0
POLYLINE
  8
8XV3_EC_PLATE_MIX_ISO-EDGE_CUTS
 66
1
 10
0.00
 20
0.00
 30
0.00
 40
0.20
 41
0.20
  0
VERTEX
  8
8XV3_EC_PLATE_MIX_ISO-EDGE_CUTS
 10
138.01256
 20
-140.153332
 30
0.00
  0
VERTEX
  8
8XV3_EC_PLATE_MIX_ISO-EDGE_CUTS
 10
139.01256
 20
-139.153332
 30
0.00
  0
SEQEND
  0
POLYLINE
  8
8XV3_EC_PLATE_MIX_ISO-EDGE_CUTS
 66
1
 10
0.00
 20
0.00
 30
0.00
 40
0.20
 41
0.20
  0
VERTEX
  8
8XV3_EC_PLATE_MIX_ISO-EDGE_CUTS
 10
138.01256
 20
-152.253332
 30
0.00
  0
VERTEX
  8
8XV3_EC_PLATE_MIX_ISO-EDGE_CUTS
 10
138.01256
 20
-140.153332
 30
0.00
  0
SEQEND
  0
POLYLINE
  8
8XV3_EC_PLATE_MIX_ISO-EDGE_CUTS
 66
1
 10
0.00
 20
0.00
 30
0.00
 40
0.20
 41
0.20
  0
VERTEX
  8
8XV3_EC_PLATE_MIX_ISO-EDGE_CUTS
 10
139.01256
 20
-153.253332
 30
0.00
  0
VERTEX
  8
8XV3_EC_PLATE_MIX_ISO-EDGE_CUTS
 10
138.01256
 20
-152.253332
 30
0.00
  0
SEQEND
  0
POLYLINE
  8
8XV3_EC_PLATE_MIX_ISO-EDGE_CUTS
 66
1
 10
0.00
 20
0.00
 30
0.00
 40
0.20
 41
0.20
  0
VERTEX
  8
8XV3_EC_PLATE_MIX_ISO-EDGE_CUTS
 10
151.71256
 20
-153.253332
 30
0.00
  0
VERTEX
  8
8XV3_EC_PLATE_MIX_ISO-EDGE_CUTS
 10
139.01256
 20
-153.253332
 30
0.00
  0
SEQEND
  0
POLYLINE
  8
8XV3_EC_PLATE_MIX_ISO-EDGE_CUTS
 66
1
 10
0.00
 20
0.00
 30
0.00
 40
0.20
 41
0.20
  0
VERTEX
  8
8XV3_EC_PLATE_MIX_ISO-EDGE_CUTS
 10
152.71256
 20
-152.253332
 30
0.00
  0
VERTEX
  8
8XV3_EC_PLATE_MIX_ISO-EDGE_CUTS
 10
151.71256
 20
-153.253332
 30
0.00
  0
SEQEND
  0
POLYLINE
  8
8XV3_EC_PLATE_MIX_ISO-EDGE_CUTS
 66
1
 10
0.00
 20
0.00
 30
0.00
 40
0.20
 41
0.20
  0
VERTEX
  8
8XV3_EC_PLATE_MIX_ISO-EDGE_CUTS
 10
152.71256
 20
-140.153332
 30
0.00
  0
VERTEX
  8
8XV3_EC_PLATE_MIX_ISO-EDGE_CUTS
 10
152.71256
 20
-152.253332
 30
0.00
  0
SEQEND
  0
POLYLINE
  8
8XV3_EC_PLATE_MIX_ISO-EDGE_CUTS
 66
1
 10
0.00
 20
0.00
 30
0.00
 40
0.20
 41
0.20
  0
VERTEX
  8
8XV3_EC_PLATE_MIX_ISO-EDGE_CUTS
 10
151.71256
 20
-139.153332
 30
0.00
  0
VERTEX
  8
8XV3_EC_PLATE_MIX_ISO-EDGE_CUTS
 10
152.71256
 20
-140.153332
 30
0.00
  0
SEQEND
  0
POLYLINE
  8
8XV3_EC_PLATE_MIX_ISO-EDGE_CUTS
 66
1
 10
0.00
 20
0.00
 30
0.00
 40
0.20
 41
0.20
  0
VERTEX
  8
8XV3_EC_PLATE_MIX_ISO-EDGE_CUTS
 10
139.01256
 20
-139.153332
 30
0.00
  0
VERTEX
  8
8XV3_EC_PLATE_MIX_ISO-EDGE_CUTS
 10
151.71256
 20
-139.153332
 30
0.00
  0
SEQEND
  0
POLYLINE
  8
8XV3_EC_PLATE_MIX_ISO-EDGE_CUTS
 66
1
 10
0.00
 20
0.00
 30
0.00
 40
0.20
 41
0.20
  0
VERTEX
  8
8XV3_EC_PLATE_MIX_ISO-EDGE_CUTS
 10
133.25006
 20
-121.103332
 30
0.00
  0
VERTEX
  8
8XV3_EC_PLATE_MIX_ISO-EDGE_CUTS
 10
134.25006
 20
-120.103332
 30
0.00
  0
SEQEND
  0
POLYLINE
  8
8XV3_EC_PLATE_MIX_ISO-EDGE_CUTS
 66
1
 10
0.00
 20
0.00
 30
0.00
 40
0.20
 41
0.20
  0
VERTEX
  8
8XV3_EC_PLATE_MIX_ISO-EDGE_CUTS
 10
133.25006
 20
-133.203332
 30
0.00
  0
VERTEX
  8
8XV3_EC_PLATE_MIX_ISO-EDGE_CUTS
 10
133.25006
 20
-121.103332
 30
0.00
  0
SEQEND
  0
POLYLINE
  8
8XV3_EC_PLATE_MIX_ISO-EDGE_CUTS
 66
1
 10
0.00
 20
0.00
 30
0.00
 40
0.20
 41
0.20
  0
VERTEX
  8
8XV3_EC_PLATE_MIX_ISO-EDGE_CUTS
 10
134.25006
 20
-134.203332
 30
0.00
  0
VERTEX
  8
8XV3_EC_PLATE_MIX_ISO-EDGE_CUTS
 10
133.25006
 20
-133.203332
 30
0.00
  0
SEQEND
  0
POLYLINE
  8
8XV3_EC_PLATE_MIX_ISO-EDGE_CUTS
 66
1
 10
0.00
 20
0.00
 30
0.00
 40
0.20
 41
0.20
  0
VERTEX
  8
8XV3_EC_PLATE_MIX_ISO-EDGE_CUTS
 10
146.95006
 20
-134.203332
 30
0.00
  0
VERTEX
  8
8XV3_EC_PLATE_MIX_ISO-EDGE_CUTS
 10
134.25006
 20
-134.203332
 30
0.00
  0
SEQEND
  0
POLYLINE
  8
8XV3_EC_PLATE_MIX_ISO-EDGE_CUTS
 66
1
 10
0.00
 20
0.00
 30
0.00
 40
0.20
 41
0.20
  0
VERTEX
  8
8XV3_EC_PLATE_MIX_ISO-EDGE_CUTS
 10
147.95006
 20
-133.203332
 30
0.00
  0
VERTEX
  8
8XV3_EC_PLATE_MIX_ISO-EDGE_CUTS
 10
146.95006
 20
-134.203332
 30
0.00
  0
SEQEND
  0
POLYLINE
  8
8XV3_EC_PLATE_MIX_ISO-EDGE_CUTS
 66
1
 10
0.00
 20
0.00
 30
0.00
 40
0.20
 41
0.20
  0
VERTEX
  8
8XV3_EC_PLATE_MIX_ISO-EDGE_CUTS
 10
147.95006
 20
-121.103332
 30
0.00
  0
VERTEX
  8
8XV3_EC_PLATE_MIX_ISO-EDGE_CUTS
 10
147.95006
 20
-133.203332
 30
0.00
  0
SEQEND
  0
POLYLINE
  8
8XV3_EC_PLATE_MIX_ISO-EDGE_CUTS
 66
1
 10
0.00
 20
0.00
 30
0.00
 40
0.20
 41
0.20
  0
VERTEX
  8
8XV3_EC_PLATE_MIX_ISO-EDGE_CUTS
 10
146.95006
 20
-120.103332
 30
0.00
  0
VERTEX
  8
8XV3_EC_PLATE_MIX_ISO-EDGE_CUTS
 10
147.95006
 20
-121.103332
 30
0.00
  0
SEQEND
  0
POLYLINE
  8
8XV3_EC_PLATE_MIX_ISO-EDGE_CUTS
 66
1
 10
0.00
 20
0.00
 30
0.00
 40
0.20
 41
0.20
  0
VERTEX
  8
8XV3_EC_PLATE_MIX_ISO-EDGE_CUTS
 10
134.25006
 20
-120.103332
 30
0.00
  0
VERTEX
  8
8XV3_EC_PLATE_MIX_ISO-EDGE_CUTS
 10
146.95006
 20
-120.103332
 30
0.00
  0
SEQEND
  0
POLYLINE
  8
8XV3_EC_PLATE_MIX_ISO-EDGE_CUTS
 66
1
 10
0.00
 20
0.00
 30
0.00
 40
0.20
 41
0.20
  0
VERTEX
  8
8XV3_EC_PLATE_MIX_ISO-EDGE_CUTS
 10
123.72506
 20
-102.053332
 30
0.00
  0
VERTEX
  8
8XV3_EC_PLATE_MIX_ISO-EDGE_CUTS
 10
124.72506
 20
-101.053332
 30
0.00
  0
SEQEND
  0
POLYLINE
  8
8XV3_EC_PLATE_MIX_ISO-EDGE_CUTS
 66
1
 10
0.00
 20
0.00
 30
0.00
 40
0.20
 41
0.20
  0
VERTEX
  8
8XV3_EC_PLATE_MIX_ISO-EDGE_CUTS
 10
123.72506
 20
-114.153332
 30
0.00
  0
VERTEX
  8
8XV3_EC_PLATE_MIX_ISO-EDGE_CUTS
 10
123.72506
 20
-102.053332
 30
0.00
  0
SEQEND
  0
POLYLINE
  8
8XV3_EC_PLATE_MIX_ISO-EDGE_CUTS
 66
1
 10
0.00
 20
0.00
 30
0.00
 40
0.20
 41
0.20
  0
VERTEX
  8
8XV3_EC_PLATE_MIX_ISO-EDGE_CUTS
 10
124.72506
 20
-115.153332
 30
0.00
  0
VERTEX
  8
8XV3_EC_PLATE_MIX_ISO-EDGE_CUTS
 10
123.72506
 20
-114.153332
 30
0.00
  0
SEQEND
  0
POLYLINE
  8
8XV3_EC_PLATE_MIX_ISO-EDGE_CUTS
 66
1
 10
0.00
 20
0.00
 30
0.00
 40
0.20
 41
0.20
  0
VERTEX
  8
8XV3_EC_PLATE_MIX_ISO-EDGE_CUTS
 10
137.42506
 20
-115.153332
 30
0.00
  0
VERTEX
  8
8XV3_EC_PLATE_MIX_ISO-EDGE_CUTS
 10
124.72506
 20
-115.153332
 30
0.00
  0
SEQEND
  0
POLYLINE
  8
8XV3_EC_PLATE_MIX_ISO-EDGE_CUTS
 66
1
 10
0.00
 20
0.00
 30
0.00
 40
0.20
 41
0.20
  0
VERTEX
  8
8XV3_EC_PLATE_MIX_ISO-EDGE_CUTS
 10
138.42506
 20
-114.153332
 30
0.00
  0
VERTEX
  8
8XV3_EC_PLATE_MIX_ISO-EDGE_CUTS
 10
137.42506
 20
-115.153332
 30
0.00
  0
SEQEND
  0
POLYLINE
  8
8XV3_EC_PLATE_MIX_ISO-EDGE_CUTS
 66
1
 10
0.00
 20
0.00
 30
0.00
 40
0.20
 41
0.20
  0
VERTEX
  8
8XV3_EC_PLATE_MIX_ISO-EDGE_CUTS
 10
138.42506
 20
-102.053332
 30
0.00
  0
VERTEX
  8
8XV3_EC_PLATE_MIX_ISO-EDGE_CUTS
 10
138.42506
 20
-114.153332
 30
0.00
  0
SEQEND
  0
POLYLINE
  8
8XV3_EC_PLATE_MIX_ISO-EDGE_CUTS
 66
1
 10
0.00
 20
0.00
 30
0.00
 40
0.20
 41
0.20
  0
VERTEX
  8
8XV3_EC_PLATE_MIX_ISO-EDGE_CUTS
 10
137.42506
 20
-101.053332
 30
0.00
  0
VERTEX
  8
8XV3_EC_PLATE_MIX_ISO-EDGE_CUTS
 10
138.42506
 20
-102.053332
 30
0.00
  0
SEQEND
  0
POLYLINE
  8
8XV3_EC_PLATE_MIX_ISO-EDGE_CUTS
 66
1
 10
0.00
 20
0.00
 30
0.00
 40
0.20
 41
0.20
  0
VERTEX
  8
8XV3_EC_PLATE_MIX_ISO-EDGE_CUTS
 10
124.72506
 20
-101.053332
 30
0.00
  0
VERTEX
  8
8XV3_EC_PLATE_MIX_ISO-EDGE_CUTS
 10
137.42506
 20
-101.053332
 30
0.00
  0
SEQEND
  0
POLYLINE
  8
8XV3_EC_PLATE_MIX_ISO-EDGE_CUTS
 66
1
 10
0.00
 20
0.00
 30
0.00
 40
0.20
 41
0.20
  0
VERTEX
  8
8XV3_EC_PLATE_MIX_ISO-EDGE_CUTS
 10
142.77506
 20
-77.053332
 30
0.00
  0
VERTEX
  8
8XV3_EC_PLATE_MIX_ISO-EDGE_CUTS
 10
143.77506
 20
-76.053332
 30
0.00
  0
SEQEND
  0
POLYLINE
  8
8XV3_EC_PLATE_MIX_ISO-EDGE_CUTS
 66
1
 10
0.00
 20
0.00
 30
0.00
 40
0.20
 41
0.20
  0
VERTEX
  8
8XV3_EC_PLATE_MIX_ISO-EDGE_CUTS
 10
142.77506
 20
-89.153332
 30
0.00
  0
VERTEX
  8
8XV3_EC_PLATE_MIX_ISO-EDGE_CUTS
 10
142.77506
 20
-77.053332
 30
0.00
  0
SEQEND
  0
POLYLINE
  8
8XV3_EC_PLATE_MIX_ISO-EDGE_CUTS
 66
1
 10
0.00
 20
0.00
 30
0.00
 40
0.20
 41
0.20
  0
VERTEX
  8
8XV3_EC_PLATE_MIX_ISO-EDGE_CUTS
 10
143.77506
 20
-90.153332
 30
0.00
  0
VERTEX
  8
8XV3_EC_PLATE_MIX_ISO-EDGE_CUTS
 10
142.77506
 20
-89.153332
 30
0.00
  0
SEQEND
  0
POLYLINE
  8
8XV3_EC_PLATE_MIX_ISO-EDGE_CUTS
 66
1
 10
0.00
 20
0.00
 30
0.00
 40
0.20
 41
0.20
  0
VERTEX
  8
8XV3_EC_PLATE_MIX_ISO-EDGE_CUTS
 10
156.47506
 20
-90.153332
 30
0.00
  0
VERTEX
  8
8XV3_EC_PLATE_MIX_ISO-EDGE_CUTS
 10
143.77506
 20
-90.153332
 30
0.00
  0
SEQEND
  0
POLYLINE
  8
8XV3_EC_PLATE_MIX_ISO-EDGE_CUTS
 66
1
 10
0.00
 20
0.00
 30
0.00
 40
0.20
 41
0.20
  0
VERTEX
  8
8XV3_EC_PLATE_MIX_ISO-EDGE_CUTS
 10
157.47506
 20
-89.153332
 30
0.00
  0
VERTEX
  8
8XV3_EC_PLATE_MIX_ISO-EDGE_CUTS
 10
156.47506
 20
-90.153332
 30
0.00
  0
SEQEND
  0
POLYLINE
  8
8XV3_EC_PLATE_MIX_ISO-EDGE_CUTS
 66
1
 10
0.00
 20
0.00
 30
0.00
 40
0.20
 41
0.20
  0
VERTEX
  8
8XV3_EC_PLATE_MIX_ISO-EDGE_CUTS
 10
157.47506
 20
-77.053332
 30
0.00
  0
VERTEX
  8
8XV3_EC_PLATE_MIX_ISO-EDGE_CUTS
 10
157.47506
 20
-89.153332
 30
0.00
  0
SEQEND
  0
POLYLINE
  8
8XV3_EC_PLATE_MIX_ISO-EDGE_CUTS
 66
1
 10
0.00
 20
0.00
 30
0.00
 40
0.20
 41
0.20
  0
VERTEX
  8
8XV3_EC_PLATE_MIX_ISO-EDGE_CUTS
 10
156.47506
 20
-76.053332
 30
0.00
  0
VERTEX
  8
8XV3_EC_PLATE_MIX_ISO-EDGE_CUTS
 10
157.47506
 20
-77.053332
 30
0.00
  0
SEQEND
  0
POLYLINE
  8
8XV3_EC_PLATE_MIX_ISO-EDGE_CUTS
 66
1
 10
0.00
 20
0.00
 30
0.00
 40
0.20
 41
0.20
  0
VERTEX
  8
8XV3_EC_PLATE_MIX_ISO-EDGE_CUTS
 10
143.77506
 20
-76.053332
 30
0.00
  0
VERTEX
  8
8XV3_EC_PLATE_MIX_ISO-EDGE_CUTS
 10
156.47506
 20
-76.053332
 30
0.00
  0
SEQEND
  0
POLYLINE
  8
8XV3_EC_PLATE_MIX_ISO-EDGE_CUTS
 66
1
 10
0.00
 20
0.00
 30
0.00
 40
0.20
 41
0.20
  0
VERTEX
  8
8XV3_EC_PLATE_MIX_ISO-EDGE_CUTS
 10
99.91256
 20
-178.253332
 30
0.00
  0
VERTEX
  8
8XV3_EC_PLATE_MIX_ISO-EDGE_CUTS
 10
100.91256
 20
-177.253332
 30
0.00
  0
SEQEND
  0
POLYLINE
  8
8XV3_EC_PLATE_MIX_ISO-EDGE_CUTS
 66
1
 10
0.00
 20
0.00
 30
0.00
 40
0.20
 41
0.20
  0
VERTEX
  8
8XV3_EC_PLATE_MIX_ISO-EDGE_CUTS
 10
99.91256
 20
-190.353332
 30
0.00
  0
VERTEX
  8
8XV3_EC_PLATE_MIX_ISO-EDGE_CUTS
 10
99.91256
 20
-178.253332
 30
0.00
  0
SEQEND
  0
POLYLINE
  8
8XV3_EC_PLATE_MIX_ISO-EDGE_CUTS
 66
1
 10
0.00
 20
0.00
 30
0.00
 40
0.20
 41
0.20
  0
VERTEX
  8
8XV3_EC_PLATE_MIX_ISO-EDGE_CUTS
 10
100.91256
 20
-191.353332
 30
0.00
  0
VERTEX
  8
8XV3_EC_PLATE_MIX_ISO-EDGE_CUTS
 10
99.91256
 20
-190.353332
 30
0.00
  0
SEQEND
  0
POLYLINE
  8
8XV3_EC_PLATE_MIX_ISO-EDGE_CUTS
 66
1
 10
0.00
 20
0.00
 30
0.00
 40
0.20
 41
0.20
  0
VERTEX
  8
8XV3_EC_PLATE_MIX_ISO-EDGE_CUTS
 10
113.61256
 20
-191.353332
 30
0.00
  0
VERTEX
  8
8XV3_EC_PLATE_MIX_ISO-EDGE_CUTS
 10
100.91256
 20
-191.353332
 30
0.00
  0
SEQEND
  0
POLYLINE
  8
8XV3_EC_PLATE_MIX_ISO-EDGE_CUTS
 66
1
 10
0.00
 20
0.00
 30
0.00
 40
0.20
 41
0.20
  0
VERTEX
  8
8XV3_EC_PLATE_MIX_ISO-EDGE_CUTS
 10
114.61256
 20
-190.353332
 30
0.00
  0
VERTEX
  8
8XV3_EC_PLATE_MIX_ISO-EDGE_CUTS
 10
113.61256
 20
-191.353332
 30
0.00
  0
SEQEND
  0
POLYLINE
  8
8XV3_EC_PLATE_MIX_ISO-EDGE_CUTS
 66
1
 10
0.00
 20
0.00
 30
0.00
 40
0.20
 41
0.20
  0
VERTEX
  8
8XV3_EC_PLATE_MIX_ISO-EDGE_CUTS
 10
114.61256
 20
-178.253332
 30
0.00
  0
VERTEX
  8
8XV3_EC_PLATE_MIX_ISO-EDGE_CUTS
 10
114.61256
 20
-190.353332
 30
0.00
  0
SEQEND
  0
POLYLINE
  8
8XV3_EC_PLATE_MIX_ISO-EDGE_CUTS
 66
1
 10
0.00
 20
0.00
 30
0.00
 40
0.20
 41
0.20
  0
VERTEX
  8
8XV3_EC_PLATE_MIX_ISO-EDGE_CUTS
 10
113.61256
 20
-177.253332
 30
0.00
  0
VERTEX
  8
8XV3_EC_PLATE_MIX_ISO-EDGE_CUTS
 10
114.61256
 20
-178.253332
 30
0.00
  0
SEQEND
  0
POLYLINE
  8
8XV3_EC_PLATE_MIX_ISO-EDGE_CUTS
 66
1
 10
0.00
 20
0.00
 30
0.00
 40
0.20
 41
0.20
  0
VERTEX
  8
8XV3_EC_PLATE_MIX_ISO-EDGE_CUTS
 10
100.91256
 20
-177.253332
 30
0.00
  0
VERTEX
  8
8XV3_EC_PLATE_MIX_ISO-EDGE_CUTS
 10
113.61256
 20
-177.253332
 30
0.00
  0
SEQEND
  0
POLYLINE
  8
8XV3_EC_PLATE_MIX_ISO-EDGE_CUTS
 66
1
 10
0.00
 20
0.00
 30
0.00
 40
0.20
 41
0.20
  0
VERTEX
  8
8XV3_EC_PLATE_MIX_ISO-EDGE_CUTS
 10
109.43756
 20
-159.203332
 30
0.00
  0
VERTEX
  8
8XV3_EC_PLATE_MIX_ISO-EDGE_CUTS
 10
110.43756
 20
-158.203332
 30
0.00
  0
SEQEND
  0
POLYLINE
  8
8XV3_EC_PLATE_MIX_ISO-EDGE_CUTS
 66
1
 10
0.00
 20
0.00
 30
0.00
 40
0.20
 41
0.20
  0
VERTEX
  8
8XV3_EC_PLATE_MIX_ISO-EDGE_CUTS
 10
109.43756
 20
-171.303332
 30
0.00
  0
VERTEX
  8
8XV3_EC_PLATE_MIX_ISO-EDGE_CUTS
 10
109.43756
 20
-159.203332
 30
0.00
  0
SEQEND
  0
POLYLINE
  8
8XV3_EC_PLATE_MIX_ISO-EDGE_CUTS
 66
1
 10
0.00
 20
0.00
 30
0.00
 40
0.20
 41
0.20
  0
VERTEX
  8
8XV3_EC_PLATE_MIX_ISO-EDGE_CUTS
 10
110.43756
 20
-172.303332
 30
0.00
  0
VERTEX
  8
8XV3_EC_PLATE_MIX_ISO-EDGE_CUTS
 10
109.43756
 20
-171.303332
 30
0.00
  0
SEQEND
  0
POLYLINE
  8
8XV3_EC_PLATE_MIX_ISO-EDGE_CUTS
 66
1
 10
0.00
 20
0.00
 30
0.00
 40
0.20
 41
0.20
  0
VERTEX
  8
8XV3_EC_PLATE_MIX_ISO-EDGE_CUTS
 10
123.13756
 20
-172.303332
 30
0.00
  0
VERTEX
  8
8XV3_EC_PLATE_MIX_ISO-EDGE_CUTS
 10
110.43756
 20
-172.303332
 30
0.00
  0
SEQEND
  0
POLYLINE
  8
8XV3_EC_PLATE_MIX_ISO-EDGE_CUTS
 66
1
 10
0.00
 20
0.00
 30
0.00
 40
0.20
 41
0.20
  0
VERTEX
  8
8XV3_EC_PLATE_MIX_ISO-EDGE_CUTS
 10
124.13756
 20
-171.303332
 30
0.00
  0
VERTEX
  8
8XV3_EC_PLATE_MIX_ISO-EDGE_CUTS
 10
123.13756
 20
-172.303332
 30
0.00
  0
SEQEND
  0
POLYLINE
  8
8XV3_EC_PLATE_MIX_ISO-EDGE_CUTS
 66
1
 10
0.00
 20
0.00
 30
0.00
 40
0.20
 41
0.20
  0
VERTEX
  8
8XV3_EC_PLATE_MIX_ISO-EDGE_CUTS
 10
124.13756
 20
-159.203332
 30
0.00
  0
VERTEX
  8
8XV3_EC_PLATE_MIX_ISO-EDGE_CUTS
 10
124.13756
 20
-171.303332
 30
0.00
  0
SEQEND
  0
POLYLINE
  8
8XV3_EC_PLATE_MIX_ISO-EDGE_CUTS
 66
1
 10
0.00
 20
0.00
 30
0.00
 40
0.20
 41
0.20
  0
VERTEX
  8
8XV3_EC_PLATE_MIX_ISO-EDGE_CUTS
 10
123.13756
 20
-158.203332
 30
0.00
  0
VERTEX
  8
8XV3_EC_PLATE_MIX_ISO-EDGE_CUTS
 10
124.13756
 20
-159.203332
 30
0.00
  0
SEQEND
  0
POLYLINE
  8
8XV3_EC_PLATE_MIX_ISO-EDGE_CUTS
 66
1
 10
0.00
 20
0.00
 30
0.00
 40
0.20
 41
0.20
  0
VERTEX
  8
8XV3_EC_PLATE_MIX_ISO-EDGE_CUTS
 10
110.43756
 20
-158.203332
 30
0.00
  0
VERTEX
  8
8XV3_EC_PLATE_MIX_ISO-EDGE_CUTS
 10
123.13756
 20
-158.203332
 30
0.00
  0
SEQEND
  0
POLYLINE
  8
8XV3_EC_PLATE_MIX_ISO-EDGE_CUTS
 66
1
 10
0.00
 20
0.00
 30
0.00
 40
0.20
 41
0.20
  0
VERTEX
  8
8XV3_EC_PLATE_MIX_ISO-EDGE_CUTS
 10
118.96256
 20
-140.153332
 30
0.00
  0
VERTEX
  8
8XV3_EC_PLATE_MIX_ISO-EDGE_CUTS
 10
119.96256
 20
-139.153332
 30
0.00
  0
SEQEND
  0
POLYLINE
  8
8XV3_EC_PLATE_MIX_ISO-EDGE_CUTS
 66
1
 10
0.00
 20
0.00
 30
0.00
 40
0.20
 41
0.20
  0
VERTEX
  8
8XV3_EC_PLATE_MIX_ISO-EDGE_CUTS
 10
118.96256
 20
-152.253332
 30
0.00
  0
VERTEX
  8
8XV3_EC_PLATE_MIX_ISO-EDGE_CUTS
 10
118.96256
 20
-140.153332
 30
0.00
  0
SEQEND
  0
POLYLINE
  8
8XV3_EC_PLATE_MIX_ISO-EDGE_CUTS
 66
1
 10
0.00
 20
0.00
 30
0.00
 40
0.20
 41
0.20
  0
VERTEX
  8
8XV3_EC_PLATE_MIX_ISO-EDGE_CUTS
 10
119.96256
 20
-153.253332
 30
0.00
  0
VERTEX
  8
8XV3_EC_PLATE_MIX_ISO-EDGE_CUTS
 10
118.96256
 20
-152.253332
 30
0.00
  0
SEQEND
  0
POLYLINE
  8
8XV3_EC_PLATE_MIX_ISO-EDGE_CUTS
 66
1
 10
0.00
 20
0.00
 30
0.00
 40
0.20
 41
0.20
  0
VERTEX
  8
8XV3_EC_PLATE_MIX_ISO-EDGE_CUTS
 10
132.66256
 20
-153.253332
 30
0.00
  0
VERTEX
  8
8XV3_EC_PLATE_MIX_ISO-EDGE_CUTS
 10
119.96256
 20
-153.253332
 30
0.00
  0
SEQEND
  0
POLYLINE
  8
8XV3_EC_PLATE_MIX_ISO-EDGE_CUTS
 66
1
 10
0.00
 20
0.00
 30
0.00
 40
0.20
 41
0.20
  0
VERTEX
  8
8XV3_EC_PLATE_MIX_ISO-EDGE_CUTS
 10
133.66256
 20
-152.253332
 30
0.00
  0
VERTEX
  8
8XV3_EC_PLATE_MIX_ISO-EDGE_CUTS
 10
132.66256
 20
-153.253332
 30
0.00
  0
SEQEND
  0
POLYLINE
  8
8XV3_EC_PLATE_MIX_ISO-EDGE_CUTS
 66
1
 10
0.00
 20
0.00
 30
0.00
 40
0.20
 41
0.20
  0
VERTEX
  8
8XV3_EC_PLATE_MIX_ISO-EDGE_CUTS
 10
133.66256
 20
-140.153332
 30
0.00
  0
VERTEX
  8
8XV3_EC_PLATE_MIX_ISO-EDGE_CUTS
 10
133.66256
 20
-152.253332
 30
0.00
  0
SEQEND
  0
POLYLINE
  8
8XV3_EC_PLATE_MIX_ISO-EDGE_CUTS
 66
1
 10
0.00
 20
0.00
 30
0.00
 40
0.20
 41
0.20
  0
VERTEX
  8
8XV3_EC_PLATE_MIX_ISO-EDGE_CUTS
 10
132.66256
 20
-139.153332
 30
0.00
  0
VERTEX
  8
8XV3_EC_PLATE_MIX_ISO-EDGE_CUTS
 10
133.66256
 20
-140.153332
 30
0.00
  0
SEQEND
  0
POLYLINE
  8
8XV3_EC_PLATE_MIX_ISO-EDGE_CUTS
 66
1
 10
0.00
 20
0.00
 30
0.00
 40
0.20
 41
0.20
  0
VERTEX
  8
8XV3_EC_PLATE_MIX_ISO-EDGE_CUTS
 10
119.96256
 20
-139.153332
 30
0.00
  0
VERTEX
  8
8XV3_EC_PLATE_MIX_ISO-EDGE_CUTS
 10
132.66256
 20
-139.153332
 30
0.00
  0
SEQEND
  0
POLYLINE
  8
8XV3_EC_PLATE_MIX_ISO-EDGE_CUTS
 66
1
 10
0.00
 20
0.00
 30
0.00
 40
0.20
 41
0.20
  0
VERTEX
  8
8XV3_EC_PLATE_MIX_ISO-EDGE_CUTS
 10
114.20006
 20
-121.103332
 30
0.00
  0
VERTEX
  8
8XV3_EC_PLATE_MIX_ISO-EDGE_CUTS
 10
115.20006
 20
-120.103332
 30
0.00
  0
SEQEND
  0
POLYLINE
  8
8XV3_EC_PLATE_MIX_ISO-EDGE_CUTS
 66
1
 10
0.00
 20
0.00
 30
0.00
 40
0.20
 41
0.20
  0
VERTEX
  8
8XV3_EC_PLATE_MIX_ISO-EDGE_CUTS
 10
114.20006
 20
-133.203332
 30
0.00
  0
VERTEX
  8
8XV3_EC_PLATE_MIX_ISO-EDGE_CUTS
 10
114.20006
 20
-121.103332
 30
0.00
  0
SEQEND
  0
POLYLINE
  8
8XV3_EC_PLATE_MIX_ISO-EDGE_CUTS
 66
1
 10
0.00
 20
0.00
 30
0.00
 40
0.20
 41
0.20
  0
VERTEX
  8
8XV3_EC_PLATE_MIX_ISO-EDGE_CUTS
 10
115.20006
 20
-134.203332
 30
0.00
  0
VERTEX
  8
8XV3_EC_PLATE_MIX_ISO-EDGE_CUTS
 10
114.20006
 20
-133.203332
 30
0.00
  0
SEQEND
  0
POLYLINE
  8
8XV3_EC_PLATE_MIX_ISO-EDGE_CUTS
 66
1
 10
0.00
 20
0.00
 30
0.00
 40
0.20
 41
0.20
  0
VERTEX
  8
8XV3_EC_PLATE_MIX_ISO-EDGE_CUTS
 10
127.90006
 20
-134.203332
 30
0.00
  0
VERTEX
  8
8XV3_EC_PLATE_MIX_ISO-EDGE_CUTS
 10
115.20006
 20
-134.203332
 30
0.00
  0
SEQEND
  0
POLYLINE
  8
8XV3_EC_PLATE_MIX_ISO-EDGE_CUTS
 66
1
 10
0.00
 20
0.00
 30
0.00
 40
0.20
 41
0.20
  0
VERTEX
  8
8XV3_EC_PLATE_MIX_ISO-EDGE_CUTS
 10
128.90006
 20
-133.203332
 30
0.00
  0
VERTEX
  8
8XV3_EC_PLATE_MIX_ISO-EDGE_CUTS
 10
127.90006
 20
-134.203332
 30
0.00
  0
SEQEND
  0
POLYLINE
  8
8XV3_EC_PLATE_MIX_ISO-EDGE_CUTS
 66
1
 10
0.00
 20
0.00
 30
0.00
 40
0.20
 41
0.20
  0
VERTEX
  8
8XV3_EC_PLATE_MIX_ISO-EDGE_CUTS
 10
128.90006
 20
-121.103332
 30
0.00
  0
VERTEX
  8
8XV3_EC_PLATE_MIX_ISO-EDGE_CUTS
 10
128.90006
 20
-133.203332
 30
0.00
  0
SEQEND
  0
POLYLINE
  8
8XV3_EC_PLATE_MIX_ISO-EDGE_CUTS
 66
1
 10
0.00
 20
0.00
 30
0.00
 40
0.20
 41
0.20
  0
VERTEX
  8
8XV3_EC_PLATE_MIX_ISO-EDGE_CUTS
 10
127.90006
 20
-120.103332
 30
0.00
  0
VERTEX
  8
8XV3_EC_PLATE_MIX_ISO-EDGE_CUTS
 10
128.90006
 20
-121.103332
 30
0.00
  0
SEQEND
  0
POLYLINE
  8
8XV3_EC_PLATE_MIX_ISO-EDGE_CUTS
 66
1
 10
0.00
 20
0.00
 30
0.00
 40
0.20
 41
0.20
  0
VERTEX
  8
8XV3_EC_PLATE_MIX_ISO-EDGE_CUTS
 10
115.20006
 20
-120.103332
 30
0.00
  0
VERTEX
  8
8XV3_EC_PLATE_MIX_ISO-EDGE_CUTS
 10
127.90006
 20
-120.103332
 30
0.00
  0
SEQEND
  0
POLYLINE
  8
8XV3_EC_PLATE_MIX_ISO-EDGE_CUTS
 66
1
 10
0.00
 20
0.00
 30
0.00
 40
0.20
 41
0.20
  0
VERTEX
  8
8XV3_EC_PLATE_MIX_ISO-EDGE_CUTS
 10
104.67506
 20
-102.053332
 30
0.00
  0
VERTEX
  8
8XV3_EC_PLATE_MIX_ISO-EDGE_CUTS
 10
105.67506
 20
-101.053332
 30
0.00
  0
SEQEND
  0
POLYLINE
  8
8XV3_EC_PLATE_MIX_ISO-EDGE_CUTS
 66
1
 10
0.00
 20
0.00
 30
0.00
 40
0.20
 41
0.20
  0
VERTEX
  8
8XV3_EC_PLATE_MIX_ISO-EDGE_CUTS
 10
104.67506
 20
-114.153332
 30
0.00
  0
VERTEX
  8
8XV3_EC_PLATE_MIX_ISO-EDGE_CUTS
 10
104.67506
 20
-102.053332
 30
0.00
  0
SEQEND
  0
POLYLINE
  8
8XV3_EC_PLATE_MIX_ISO-EDGE_CUTS
 66
1
 10
0.00
 20
0.00
 30
0.00
 40
0.20
 41
0.20
  0
VERTEX
  8
8XV3_EC_PLATE_MIX_ISO-EDGE_CUTS
 10
105.67506
 20
-115.153332
 30
0.00
  0
VERTEX
  8
8XV3_EC_PLATE_MIX_ISO-EDGE_CUTS
 10
104.67506
 20
-114.153332
 30
0.00
  0
SEQEND
  0
POLYLINE
  8
8XV3_EC_PLATE_MIX_ISO-EDGE_CUTS
 66
1
 10
0.00
 20
0.00
 30
0.00
 40
0.20
 41
0.20
  0
VERTEX
  8
8XV3_EC_PLATE_MIX_ISO-EDGE_CUTS
 10
118.37506
 20
-115.153332
 30
0.00
  0
VERTEX
  8
8XV3_EC_PLATE_MIX_ISO-EDGE_CUTS
 10
105.67506
 20
-115.153332
 30
0.00
  0
SEQEND
  0
POLYLINE
  8
8XV3_EC_PLATE_MIX_ISO-EDGE_CUTS
 66
1
 10
0.00
 20
0.00
 30
0.00
 40
0.20
 41
0.20
  0
VERTEX
  8
8XV3_EC_PLATE_MIX_ISO-EDGE_CUTS
 10
119.37506
 20
-114.153332
 30
0.00
  0
VERTEX
  8
8XV3_EC_PLATE_MIX_ISO-EDGE_CUTS
 10
118.37506
 20
-115.153332
 30
0.00
  0
SEQEND
  0
POLYLINE
  8
8XV3_EC_PLATE_MIX_ISO-EDGE_CUTS
 66
1
 10
0.00
 20
0.00
 30
0.00
 40
0.20
 41
0.20
  0
VERTEX
  8
8XV3_EC_PLATE_MIX_ISO-EDGE_CUTS
 10
119.37506
 20
-102.053332
 30
0.00
  0
VERTEX
  8
8XV3_EC_PLATE_MIX_ISO-EDGE_CUTS
 10
119.37506
 20
-114.153332
 30
0.00
  0
SEQEND
  0
POLYLINE
  8
8XV3_EC_PLATE_MIX_ISO-EDGE_CUTS
 66
1
 10
0.00
 20
0.00
 30
0.00
 40
0.20
 41
0.20
  0
VERTEX
  8
8XV3_EC_PLATE_MIX_ISO-EDGE_CUTS
 10
118.37506
 20
-101.053332
 30
0.00
  0
VERTEX
  8
8XV3_EC_PLATE_MIX_ISO-EDGE_CUTS
 10
119.37506
 20
-102.053332
 30
0.00
  0
SEQEND
  0
POLYLINE
  8
8XV3_EC_PLATE_MIX_ISO-EDGE_CUTS
 66
1
 10
0.00
 20
0.00
 30
0.00
 40
0.20
 41
0.20
  0
VERTEX
  8
8XV3_EC_PLATE_MIX_ISO-EDGE_CUTS
 10
105.67506
 20
-101.053332
 30
0.00
  0
VERTEX
  8
8XV3_EC_PLATE_MIX_ISO-EDGE_CUTS
 10
118.37506
 20
-101.053332
 30
0.00
  0
SEQEND
  0
POLYLINE
  8
8XV3_EC_PLATE_MIX_ISO-EDGE_CUTS
 66
1
 10
0.00
 20
0.00
 30
0.00
 40
0.20
 41
0.20
  0
VERTEX
  8
8XV3_EC_PLATE_MIX_ISO-EDGE_CUTS
 10
123.72506
 20
-77.053332
 30
0.00
  0
VERTEX
  8
8XV3_EC_PLATE_MIX_ISO-EDGE_CUTS
 10
124.72506
 20
-76.053332
 30
0.00
  0
SEQEND
  0
POLYLINE
  8
8XV3_EC_PLATE_MIX_ISO-EDGE_CUTS
 66
1
 10
0.00
 20
0.00
 30
0.00
 40
0.20
 41
0.20
  0
VERTEX
  8
8XV3_EC_PLATE_MIX_ISO-EDGE_CUTS
 10
123.72506
 20
-89.153332
 30
0.00
  0
VERTEX
  8
8XV3_EC_PLATE_MIX_ISO-EDGE_CUTS
 10
123.72506
 20
-77.053332
 30
0.00
  0
SEQEND
  0
POLYLINE
  8
8XV3_EC_PLATE_MIX_ISO-EDGE_CUTS
 66
1
 10
0.00
 20
0.00
 30
0.00
 40
0.20
 41
0.20
  0
VERTEX
  8
8XV3_EC_PLATE_MIX_ISO-EDGE_CUTS
 10
124.72506
 20
-90.153332
 30
0.00
  0
VERTEX
  8
8XV3_EC_PLATE_MIX_ISO-EDGE_CUTS
 10
123.72506
 20
-89.153332
 30
0.00
  0
SEQEND
  0
POLYLINE
  8
8XV3_EC_PLATE_MIX_ISO-EDGE_CUTS
 66
1
 10
0.00
 20
0.00
 30
0.00
 40
0.20
 41
0.20
  0
VERTEX
  8
8XV3_EC_PLATE_MIX_ISO-EDGE_CUTS
 10
137.42506
 20
-90.153332
 30
0.00
  0
VERTEX
  8
8XV3_EC_PLATE_MIX_ISO-EDGE_CUTS
 10
124.72506
 20
-90.153332
 30
0.00
  0
SEQEND
  0
POLYLINE
  8
8XV3_EC_PLATE_MIX_ISO-EDGE_CUTS
 66
1
 10
0.00
 20
0.00
 30
0.00
 40
0.20
 41
0.20
  0
VERTEX
  8
8XV3_EC_PLATE_MIX_ISO-EDGE_CUTS
 10
138.42506
 20
-89.153332
 30
0.00
  0
VERTEX
  8
8XV3_EC_PLATE_MIX_ISO-EDGE_CUTS
 10
137.42506
 20
-90.153332
 30
0.00
  0
SEQEND
  0
POLYLINE
  8
8XV3_EC_PLATE_MIX_ISO-EDGE_CUTS
 66
1
 10
0.00
 20
0.00
 30
0.00
 40
0.20
 41
0.20
  0
VERTEX
  8
8XV3_EC_PLATE_MIX_ISO-EDGE_CUTS
 10
138.42506
 20
-77.053332
 30
0.00
  0
VERTEX
  8
8XV3_EC_PLATE_MIX_ISO-EDGE_CUTS
 10
138.42506
 20
-89.153332
 30
0.00
  0
SEQEND
  0
POLYLINE
  8
8XV3_EC_PLATE_MIX_ISO-EDGE_CUTS
 66
1
 10
0.00
 20
0.00
 30
0.00
 40
0.20
 41
0.20
  0
VERTEX
  8
8XV3_EC_PLATE_MIX_ISO-EDGE_CUTS
 10
137.42506
 20
-76.053332
 30
0.00
  0
VERTEX
  8
8XV3_EC_PLATE_MIX_ISO-EDGE_CUTS
 10
138.42506
 20
-77.053332
 30
0.00
  0
SEQEND
  0
POLYLINE
  8
8XV3_EC_PLATE_MIX_ISO-EDGE_CUTS
 66
1
 10
0.00
 20
0.00
 30
0.00
 40
0.20
 41
0.20
  0
VERTEX
  8
8XV3_EC_PLATE_MIX_ISO-EDGE_CUTS
 10
124.72506
 20
-76.053332
 30
0.00
  0
VERTEX
  8
8XV3_EC_PLATE_MIX_ISO-EDGE_CUTS
 10
137.42506
 20
-76.053332
 30
0.00
  0
SEQEND
  0
POLYLINE
  8
8XV3_EC_PLATE_MIX_ISO-EDGE_CUTS
 66
1
 10
0.00
 20
0.00
 30
0.00
 40
0.20
 41
0.20
  0
VERTEX
  8
8XV3_EC_PLATE_MIX_ISO-EDGE_CUTS
 10
71.33756
 20
-159.203332
 30
0.00
  0
VERTEX
  8
8XV3_EC_PLATE_MIX_ISO-EDGE_CUTS
 10
72.33756
 20
-158.203332
 30
0.00
  0
SEQEND
  0
POLYLINE
  8
8XV3_EC_PLATE_MIX_ISO-EDGE_CUTS
 66
1
 10
0.00
 20
0.00
 30
0.00
 40
0.20
 41
0.20
  0
VERTEX
  8
8XV3_EC_PLATE_MIX_ISO-EDGE_CUTS
 10
71.33756
 20
-171.303332
 30
0.00
  0
VERTEX
  8
8XV3_EC_PLATE_MIX_ISO-EDGE_CUTS
 10
71.33756
 20
-159.203332
 30
0.00
  0
SEQEND
  0
POLYLINE
  8
8XV3_EC_PLATE_MIX_ISO-EDGE_CUTS
 66
1
 10
0.00
 20
0.00
 30
0.00
 40
0.20
 41
0.20
  0
VERTEX
  8
8XV3_EC_PLATE_MIX_ISO-EDGE_CUTS
 10
72.33756
 20
-172.303332
 30
0.00
  0
VERTEX
  8
8XV3_EC_PLATE_MIX_ISO-EDGE_CUTS
 10
71.33756
 20
-171.303332
 30
0.00
  0
SEQEND
  0
POLYLINE
  8
8XV3_EC_PLATE_MIX_ISO-EDGE_CUTS
 66
1
 10
0.00
 20
0.00
 30
0.00
 40
0.20
 41
0.20
  0
VERTEX
  8
8XV3_EC_PLATE_MIX_ISO-EDGE_CUTS
 10
85.03756
 20
-172.303332
 30
0.00
  0
VERTEX
  8
8XV3_EC_PLATE_MIX_ISO-EDGE_CUTS
 10
72.33756
 20
-172.303332
 30
0.00
  0
SEQEND
  0
POLYLINE
  8
8XV3_EC_PLATE_MIX_ISO-EDGE_CUTS
 66
1
 10
0.00
 20
0.00
 30
0.00
 40
0.20
 41
0.20
  0
VERTEX
  8
8XV3_EC_PLATE_MIX_ISO-EDGE_CUTS
 10
86.03756
 20
-171.303332
 30
0.00
  0
VERTEX
  8
8XV3_EC_PLATE_MIX_ISO-EDGE_CUTS
 10
85.03756
 20
-172.303332
 30
0.00
  0
SEQEND
  0
POLYLINE
  8
8XV3_EC_PLATE_MIX_ISO-EDGE_CUTS
 66
1
 10
0.00
 20
0.00
 30
0.00
 40
0.20
 41
0.20
  0
VERTEX
  8
8XV3_EC_PLATE_MIX_ISO-EDGE_CUTS
 10
86.03756
 20
-159.203332
 30
0.00
  0
VERTEX
  8
8XV3_EC_PLATE_MIX_ISO-EDGE_CUTS
 10
86.03756
 20
-171.303332
 30
0.00
  0
SEQEND
  0
POLYLINE
  8
8XV3_EC_PLATE_MIX_ISO-EDGE_CUTS
 66
1
 10
0.00
 20
0.00
 30
0.00
 40
0.20
 41
0.20
  0
VERTEX
  8
8XV3_EC_PLATE_MIX_ISO-EDGE_CUTS
 10
85.03756
 20
-158.203332
 30
0.00
  0
VERTEX
  8
8XV3_EC_PLATE_MIX_ISO-EDGE_CUTS
 10
86.03756
 20
-159.203332
 30
0.00
  0
SEQEND
  0
POLYLINE
  8
8XV3_EC_PLATE_MIX_ISO-EDGE_CUTS
 66
1
 10
0.00
 20
0.00
 30
0.00
 40
0.20
 41
0.20
  0
VERTEX
  8
8XV3_EC_PLATE_MIX_ISO-EDGE_CUTS
 10
72.33756
 20
-158.203332
 30
0.00
  0
VERTEX
  8
8XV3_EC_PLATE_MIX_ISO-EDGE_CUTS
 10
85.03756
 20
-158.203332
 30
0.00
  0
SEQEND
  0
POLYLINE
  8
8XV3_EC_PLATE_MIX_ISO-EDGE_CUTS
 66
1
 10
0.00
 20
0.00
 30
0.00
 40
0.20
 41
0.20
  0
VERTEX
  8
8XV3_EC_PLATE_MIX_ISO-EDGE_CUTS
 10
90.38756
 20
-159.203332
 30
0.00
  0
VERTEX
  8
8XV3_EC_PLATE_MIX_ISO-EDGE_CUTS
 10
91.38756
 20
-158.203332
 30
0.00
  0
SEQEND
  0
POLYLINE
  8
8XV3_EC_PLATE_MIX_ISO-EDGE_CUTS
 66
1
 10
0.00
 20
0.00
 30
0.00
 40
0.20
 41
0.20
  0
VERTEX
  8
8XV3_EC_PLATE_MIX_ISO-EDGE_CUTS
 10
90.38756
 20
-171.303332
 30
0.00
  0
VERTEX
  8
8XV3_EC_PLATE_MIX_ISO-EDGE_CUTS
 10
90.38756
 20
-159.203332
 30
0.00
  0
SEQEND
  0
POLYLINE
  8
8XV3_EC_PLATE_MIX_ISO-EDGE_CUTS
 66
1
 10
0.00
 20
0.00
 30
0.00
 40
0.20
 41
0.20
  0
VERTEX
  8
8XV3_EC_PLATE_MIX_ISO-EDGE_CUTS
 10
91.38756
 20
-172.303332
 30
0.00
  0
VERTEX
  8
8XV3_EC_PLATE_MIX_ISO-EDGE_CUTS
 10
90.38756
 20
-171.303332
 30
0.00
  0
SEQEND
  0
POLYLINE
  8
8XV3_EC_PLATE_MIX_ISO-EDGE_CUTS
 66
1
 10
0.00
 20
0.00
 30
0.00
 40
0.20
 41
0.20
  0
VERTEX
  8
8XV3_EC_PLATE_MIX_ISO-EDGE_CUTS
 10
104.08756
 20
-172.303332
 30
0.00
  0
VERTEX
  8
8XV3_EC_PLATE_MIX_ISO-EDGE_CUTS
 10
91.38756
 20
-172.303332
 30
0.00
  0
SEQEND
  0
POLYLINE
  8
8XV3_EC_PLATE_MIX_ISO-EDGE_CUTS
 66
1
 10
0.00
 20
0.00
 30
0.00
 40
0.20
 41
0.20
  0
VERTEX
  8
8XV3_EC_PLATE_MIX_ISO-EDGE_CUTS
 10
105.08756
 20
-171.303332
 30
0.00
  0
VERTEX
  8
8XV3_EC_PLATE_MIX_ISO-EDGE_CUTS
 10
104.08756
 20
-172.303332
 30
0.00
  0
SEQEND
  0
POLYLINE
  8
8XV3_EC_PLATE_MIX_ISO-EDGE_CUTS
 66
1
 10
0.00
 20
0.00
 30
0.00
 40
0.20
 41
0.20
  0
VERTEX
  8
8XV3_EC_PLATE_MIX_ISO-EDGE_CUTS
 10
105.08756
 20
-159.203332
 30
0.00
  0
VERTEX
  8
8XV3_EC_PLATE_MIX_ISO-EDGE_CUTS
 10
105.08756
 20
-171.303332
 30
0.00
  0
SEQEND
  0
POLYLINE
  8
8XV3_EC_PLATE_MIX_ISO-EDGE_CUTS
 66
1
 10
0.00
 20
0.00
 30
0.00
 40
0.20
 41
0.20
  0
VERTEX
  8
8XV3_EC_PLATE_MIX_ISO-EDGE_CUTS
 10
104.08756
 20
-158.203332
 30
0.00
  0
VERTEX
  8
8XV3_EC_PLATE_MIX_ISO-EDGE_CUTS
 10
105.08756
 20
-159.203332
 30
0.00
  0
SEQEND
  0
POLYLINE
  8
8XV3_EC_PLATE_MIX_ISO-EDGE_CUTS
 66
1
 10
0.00
 20
0.00
 30
0.00
 40
0.20
 41
0.20
  0
VERTEX
  8
8XV3_EC_PLATE_MIX_ISO-EDGE_CUTS
 10
91.38756
 20
-158.203332
 30
0.00
  0
VERTEX
  8
8XV3_EC_PLATE_MIX_ISO-EDGE_CUTS
 10
104.08756
 20
-158.203332
 30
0.00
  0
SEQEND
  0
POLYLINE
  8
8XV3_EC_PLATE_MIX_ISO-EDGE_CUTS
 66
1
 10
0.00
 20
0.00
 30
0.00
 40
0.20
 41
0.20
  0
VERTEX
  8
8XV3_EC_PLATE_MIX_ISO-EDGE_CUTS
 10
99.91256
 20
-140.153332
 30
0.00
  0
VERTEX
  8
8XV3_EC_PLATE_MIX_ISO-EDGE_CUTS
 10
100.91256
 20
-139.153332
 30
0.00
  0
SEQEND
  0
POLYLINE
  8
8XV3_EC_PLATE_MIX_ISO-EDGE_CUTS
 66
1
 10
0.00
 20
0.00
 30
0.00
 40
0.20
 41
0.20
  0
VERTEX
  8
8XV3_EC_PLATE_MIX_ISO-EDGE_CUTS
 10
99.91256
 20
-152.253332
 30
0.00
  0
VERTEX
  8
8XV3_EC_PLATE_MIX_ISO-EDGE_CUTS
 10
99.91256
 20
-140.153332
 30
0.00
  0
SEQEND
  0
POLYLINE
  8
8XV3_EC_PLATE_MIX_ISO-EDGE_CUTS
 66
1
 10
0.00
 20
0.00
 30
0.00
 40
0.20
 41
0.20
  0
VERTEX
  8
8XV3_EC_PLATE_MIX_ISO-EDGE_CUTS
 10
100.91256
 20
-153.253332
 30
0.00
  0
VERTEX
  8
8XV3_EC_PLATE_MIX_ISO-EDGE_CUTS
 10
99.91256
 20
-152.253332
 30
0.00
  0
SEQEND
  0
POLYLINE
  8
8XV3_EC_PLATE_MIX_ISO-EDGE_CUTS
 66
1
 10
0.00
 20
0.00
 30
0.00
 40
0.20
 41
0.20
  0
VERTEX
  8
8XV3_EC_PLATE_MIX_ISO-EDGE_CUTS
 10
113.61256
 20
-153.253332
 30
0.00
  0
VERTEX
  8
8XV3_EC_PLATE_MIX_ISO-EDGE_CUTS
 10
100.91256
 20
-153.253332
 30
0.00
  0
SEQEND
  0
POLYLINE
  8
8XV3_EC_PLATE_MIX_ISO-EDGE_CUTS
 66
1
 10
0.00
 20
0.00
 30
0.00
 40
0.20
 41
0.20
  0
VERTEX
  8
8XV3_EC_PLATE_MIX_ISO-EDGE_CUTS
 10
114.61256
 20
-152.253332
 30
0.00
  0
VERTEX
  8
8XV3_EC_PLATE_MIX_ISO-EDGE_CUTS
 10
113.61256
 20
-153.253332
 30
0.00
  0
SEQEND
  0
POLYLINE
  8
8XV3_EC_PLATE_MIX_ISO-EDGE_CUTS
 66
1
 10
0.00
 20
0.00
 30
0.00
 40
0.20
 41
0.20
  0
VERTEX
  8
8XV3_EC_PLATE_MIX_ISO-EDGE_CUTS
 10
114.61256
 20
-140.153332
 30
0.00
  0
VERTEX
  8
8XV3_EC_PLATE_MIX_ISO-EDGE_CUTS
 10
114.61256
 20
-152.253332
 30
0.00
  0
SEQEND
  0
POLYLINE
  8
8XV3_EC_PLATE_MIX_ISO-EDGE_CUTS
 66
1
 10
0.00
 20
0.00
 30
0.00
 40
0.20
 41
0.20
  0
VERTEX
  8
8XV3_EC_PLATE_MIX_ISO-EDGE_CUTS
 10
113.61256
 20
-139.153332
 30
0.00
  0
VERTEX
  8
8XV3_EC_PLATE_MIX_ISO-EDGE_CUTS
 10
114.61256
 20
-140.153332
 30
0.00
  0
SEQEND
  0
POLYLINE
  8
8XV3_EC_PLATE_MIX_ISO-EDGE_CUTS
 66
1
 10
0.00
 20
0.00
 30
0.00
 40
0.20
 41
0.20
  0
VERTEX
  8
8XV3_EC_PLATE_MIX_ISO-EDGE_CUTS
 10
100.91256
 20
-139.153332
 30
0.00
  0
VERTEX
  8
8XV3_EC_PLATE_MIX_ISO-EDGE_CUTS
 10
113.61256
 20
-139.153332
 30
0.00
  0
SEQEND
  0
POLYLINE
  8
8XV3_EC_PLATE_MIX_ISO-EDGE_CUTS
 66
1
 10
0.00
 20
0.00
 30
0.00
 40
0.20
 41
0.20
  0
VERTEX
  8
8XV3_EC_PLATE_MIX_ISO-EDGE_CUTS
 10
95.15006
 20
-121.103332
 30
0.00
  0
VERTEX
  8
8XV3_EC_PLATE_MIX_ISO-EDGE_CUTS
 10
96.15006
 20
-120.103332
 30
0.00
  0
SEQEND
  0
POLYLINE
  8
8XV3_EC_PLATE_MIX_ISO-EDGE_CUTS
 66
1
 10
0.00
 20
0.00
 30
0.00
 40
0.20
 41
0.20
  0
VERTEX
  8
8XV3_EC_PLATE_MIX_ISO-EDGE_CUTS
 10
95.15006
 20
-133.203332
 30
0.00
  0
VERTEX
  8
8XV3_EC_PLATE_MIX_ISO-EDGE_CUTS
 10
95.15006
 20
-121.103332
 30
0.00
  0
SEQEND
  0
POLYLINE
  8
8XV3_EC_PLATE_MIX_ISO-EDGE_CUTS
 66
1
 10
0.00
 20
0.00
 30
0.00
 40
0.20
 41
0.20
  0
VERTEX
  8
8XV3_EC_PLATE_MIX_ISO-EDGE_CUTS
 10
96.15006
 20
-134.203332
 30
0.00
  0
VERTEX
  8
8XV3_EC_PLATE_MIX_ISO-EDGE_CUTS
 10
95.15006
 20
-133.203332
 30
0.00
  0
SEQEND
  0
POLYLINE
  8
8XV3_EC_PLATE_MIX_ISO-EDGE_CUTS
 66
1
 10
0.00
 20
0.00
 30
0.00
 40
0.20
 41
0.20
  0
VERTEX
  8
8XV3_EC_PLATE_MIX_ISO-EDGE_CUTS
 10
108.85006
 20
-134.203332
 30
0.00
  0
VERTEX
  8
8XV3_EC_PLATE_MIX_ISO-EDGE_CUTS
 10
96.15006
 20
-134.203332
 30
0.00
  0
SEQEND
  0
POLYLINE
  8
8XV3_EC_PLATE_MIX_ISO-EDGE_CUTS
 66
1
 10
0.00
 20
0.00
 30
0.00
 40
0.20
 41
0.20
  0
VERTEX
  8
8XV3_EC_PLATE_MIX_ISO-EDGE_CUTS
 10
109.85006
 20
-133.203332
 30
0.00
  0
VERTEX
  8
8XV3_EC_PLATE_MIX_ISO-EDGE_CUTS
 10
108.85006
 20
-134.203332
 30
0.00
  0
SEQEND
  0
POLYLINE
  8
8XV3_EC_PLATE_MIX_ISO-EDGE_CUTS
 66
1
 10
0.00
 20
0.00
 30
0.00
 40
0.20
 41
0.20
  0
VERTEX
  8
8XV3_EC_PLATE_MIX_ISO-EDGE_CUTS
 10
109.85006
 20
-121.103332
 30
0.00
  0
VERTEX
  8
8XV3_EC_PLATE_MIX_ISO-EDGE_CUTS
 10
109.85006
 20
-133.203332
 30
0.00
  0
SEQEND
  0
POLYLINE
  8
8XV3_EC_PLATE_MIX_ISO-EDGE_CUTS
 66
1
 10
0.00
 20
0.00
 30
0.00
 40
0.20
 41
0.20
  0
VERTEX
  8
8XV3_EC_PLATE_MIX_ISO-EDGE_CUTS
 10
108.85006
 20
-120.103332
 30
0.00
  0
VERTEX
  8
8XV3_EC_PLATE_MIX_ISO-EDGE_CUTS
 10
109.85006
 20
-121.103332
 30
0.00
  0
SEQEND
  0
POLYLINE
  8
8XV3_EC_PLATE_MIX_ISO-EDGE_CUTS
 66
1
 10
0.00
 20
0.00
 30
0.00
 40
0.20
 41
0.20
  0
VERTEX
  8
8XV3_EC_PLATE_MIX_ISO-EDGE_CUTS
 10
96.15006
 20
-120.103332
 30
0.00
  0
VERTEX
  8
8XV3_EC_PLATE_MIX_ISO-EDGE_CUTS
 10
108.85006
 20
-120.103332
 30
0.00
  0
SEQEND
  0
POLYLINE
  8
8XV3_EC_PLATE_MIX_ISO-EDGE_CUTS
 66
1
 10
0.00
 20
0.00
 30
0.00
 40
0.20
 41
0.20
  0
VERTEX
  8
8XV3_EC_PLATE_MIX_ISO-EDGE_CUTS
 10
85.62506
 20
-102.053332
 30
0.00
  0
VERTEX
  8
8XV3_EC_PLATE_MIX_ISO-EDGE_CUTS
 10
86.62506
 20
-101.053332
 30
0.00
  0
SEQEND
  0
POLYLINE
  8
8XV3_EC_PLATE_MIX_ISO-EDGE_CUTS
 66
1
 10
0.00
 20
0.00
 30
0.00
 40
0.20
 41
0.20
  0
VERTEX
  8
8XV3_EC_PLATE_MIX_ISO-EDGE_CUTS
 10
85.62506
 20
-114.153332
 30
0.00
  0
VERTEX
  8
8XV3_EC_PLATE_MIX_ISO-EDGE_CUTS
 10
85.62506
 20
-102.053332
 30
0.00
  0
SEQEND
  0
POLYLINE
  8
8XV3_EC_PLATE_MIX_ISO-EDGE_CUTS
 66
1
 10
0.00
 20
0.00
 30
0.00
 40
0.20
 41
0.20
  0
VERTEX
  8
8XV3_EC_PLATE_MIX_ISO-EDGE_CUTS
 10
86.62506
 20
-115.153332
 30
0.00
  0
VERTEX
  8
8XV3_EC_PLATE_MIX_ISO-EDGE_CUTS
 10
85.62506
 20
-114.153332
 30
0.00
  0
SEQEND
  0
POLYLINE
  8
8XV3_EC_PLATE_MIX_ISO-EDGE_CUTS
 66
1
 10
0.00
 20
0.00
 30
0.00
 40
0.20
 41
0.20
  0
VERTEX
  8
8XV3_EC_PLATE_MIX_ISO-EDGE_CUTS
 10
99.32506
 20
-115.153332
 30
0.00
  0
VERTEX
  8
8XV3_EC_PLATE_MIX_ISO-EDGE_CUTS
 10
86.62506
 20
-115.153332
 30
0.00
  0
SEQEND
  0
POLYLINE
  8
8XV3_EC_PLATE_MIX_ISO-EDGE_CUTS
 66
1
 10
0.00
 20
0.00
 30
0.00
 40
0.20
 41
0.20
  0
VERTEX
  8
8XV3_EC_PLATE_MIX_ISO-EDGE_CUTS
 10
100.32506
 20
-114.153332
 30
0.00
  0
VERTEX
  8
8XV3_EC_PLATE_MIX_ISO-EDGE_CUTS
 10
99.32506
 20
-115.153332
 30
0.00
  0
SEQEND
  0
POLYLINE
  8
8XV3_EC_PLATE_MIX_ISO-EDGE_CUTS
 66
1
 10
0.00
 20
0.00
 30
0.00
 40
0.20
 41
0.20
  0
VERTEX
  8
8XV3_EC_PLATE_MIX_ISO-EDGE_CUTS
 10
100.32506
 20
-102.053332
 30
0.00
  0
VERTEX
  8
8XV3_EC_PLATE_MIX_ISO-EDGE_CUTS
 10
100.32506
 20
-114.153332
 30
0.00
  0
SEQEND
  0
POLYLINE
  8
8XV3_EC_PLATE_MIX_ISO-EDGE_CUTS
 66
1
 10
0.00
 20
0.00
 30
0.00
 40
0.20
 41
0.20
  0
VERTEX
  8
8XV3_EC_PLATE_MIX_ISO-EDGE_CUTS
 10
99.32506
 20
-101.053332
 30
0.00
  0
VERTEX
  8
8XV3_EC_PLATE_MIX_ISO-EDGE_CUTS
 10
100.32506
 20
-102.053332
 30
0.00
  0
SEQEND
  0
POLYLINE
  8
8XV3_EC_PLATE_MIX_ISO-EDGE_CUTS
 66
1
 10
0.00
 20
0.00
 30
0.00
 40
0.20
 41
0.20
  0
VERTEX
  8
8XV3_EC_PLATE_MIX_ISO-EDGE_CUTS
 10
86.62506
 20
-101.053332
 30
0.00
  0
VERTEX
  8
8XV3_EC_PLATE_MIX_ISO-EDGE_CUTS
 10
99.32506
 20
-101.053332
 30
0.00
  0
SEQEND
  0
POLYLINE
  8
8XV3_EC_PLATE_MIX_ISO-EDGE_CUTS
 66
1
 10
0.00
 20
0.00
 30
0.00
 40
0.20
 41
0.20
  0
VERTEX
  8
8XV3_EC_PLATE_MIX_ISO-EDGE_CUTS
 10
104.67506
 20
-77.053332
 30
0.00
  0
VERTEX
  8
8XV3_EC_PLATE_MIX_ISO-EDGE_CUTS
 10
105.67506
 20
-76.053332
 30
0.00
  0
SEQEND
  0
POLYLINE
  8
8XV3_EC_PLATE_MIX_ISO-EDGE_CUTS
 66
1
 10
0.00
 20
0.00
 30
0.00
 40
0.20
 41
0.20
  0
VERTEX
  8
8XV3_EC_PLATE_MIX_ISO-EDGE_CUTS
 10
104.67506
 20
-89.153332
 30
0.00
  0
VERTEX
  8
8XV3_EC_PLATE_MIX_ISO-EDGE_CUTS
 10
104.67506
 20
-77.053332
 30
0.00
  0
SEQEND
  0
POLYLINE
  8
8XV3_EC_PLATE_MIX_ISO-EDGE_CUTS
 66
1
 10
0.00
 20
0.00
 30
0.00
 40
0.20
 41
0.20
  0
VERTEX
  8
8XV3_EC_PLATE_MIX_ISO-EDGE_CUTS
 10
105.67506
 20
-90.153332
 30
0.00
  0
VERTEX
  8
8XV3_EC_PLATE_MIX_ISO-EDGE_CUTS
 10
104.67506
 20
-89.153332
 30
0.00
  0
SEQEND
  0
POLYLINE
  8
8XV3_EC_PLATE_MIX_ISO-EDGE_CUTS
 66
1
 10
0.00
 20
0.00
 30
0.00
 40
0.20
 41
0.20
  0
VERTEX
  8
8XV3_EC_PLATE_MIX_ISO-EDGE_CUTS
 10
118.37506
 20
-90.153332
 30
0.00
  0
VERTEX
  8
8XV3_EC_PLATE_MIX_ISO-EDGE_CUTS
 10
105.67506
 20
-90.153332
 30
0.00
  0
SEQEND
  0
POLYLINE
  8
8XV3_EC_PLATE_MIX_ISO-EDGE_CUTS
 66
1
 10
0.00
 20
0.00
 30
0.00
 40
0.20
 41
0.20
  0
VERTEX
  8
8XV3_EC_PLATE_MIX_ISO-EDGE_CUTS
 10
119.37506
 20
-89.153332
 30
0.00
  0
VERTEX
  8
8XV3_EC_PLATE_MIX_ISO-EDGE_CUTS
 10
118.37506
 20
-90.153332
 30
0.00
  0
SEQEND
  0
POLYLINE
  8
8XV3_EC_PLATE_MIX_ISO-EDGE_CUTS
 66
1
 10
0.00
 20
0.00
 30
0.00
 40
0.20
 41
0.20
  0
VERTEX
  8
8XV3_EC_PLATE_MIX_ISO-EDGE_CUTS
 10
119.37506
 20
-77.053332
 30
0.00
  0
VERTEX
  8
8XV3_EC_PLATE_MIX_ISO-EDGE_CUTS
 10
119.37506
 20
-89.153332
 30
0.00
  0
SEQEND
  0
POLYLINE
  8
8XV3_EC_PLATE_MIX_ISO-EDGE_CUTS
 66
1
 10
0.00
 20
0.00
 30
0.00
 40
0.20
 41
0.20
  0
VERTEX
  8
8XV3_EC_PLATE_MIX_ISO-EDGE_CUTS
 10
118.37506
 20
-76.053332
 30
0.00
  0
VERTEX
  8
8XV3_EC_PLATE_MIX_ISO-EDGE_CUTS
 10
119.37506
 20
-77.053332
 30
0.00
  0
SEQEND
  0
POLYLINE
  8
8XV3_EC_PLATE_MIX_ISO-EDGE_CUTS
 66
1
 10
0.00
 20
0.00
 30
0.00
 40
0.20
 41
0.20
  0
VERTEX
  8
8XV3_EC_PLATE_MIX_ISO-EDGE_CUTS
 10
105.67506
 20
-76.053332
 30
0.00
  0
VERTEX
  8
8XV3_EC_PLATE_MIX_ISO-EDGE_CUTS
 10
118.37506
 20
-76.053332
 30
0.00
  0
SEQEND
  0
POLYLINE
  8
8XV3_EC_PLATE_MIX_ISO-EDGE_CUTS
 66
1
 10
0.00
 20
0.00
 30
0.00
 40
0.20
 41
0.20
  0
VERTEX
  8
8XV3_EC_PLATE_MIX_ISO-EDGE_CUTS
 10
76.10006
 20
-178.253332
 30
0.00
  0
VERTEX
  8
8XV3_EC_PLATE_MIX_ISO-EDGE_CUTS
 10
77.10006
 20
-177.253332
 30
0.00
  0
SEQEND
  0
POLYLINE
  8
8XV3_EC_PLATE_MIX_ISO-EDGE_CUTS
 66
1
 10
0.00
 20
0.00
 30
0.00
 40
0.20
 41
0.20
  0
VERTEX
  8
8XV3_EC_PLATE_MIX_ISO-EDGE_CUTS
 10
76.10006
 20
-190.353332
 30
0.00
  0
VERTEX
  8
8XV3_EC_PLATE_MIX_ISO-EDGE_CUTS
 10
76.10006
 20
-178.253332
 30
0.00
  0
SEQEND
  0
POLYLINE
  8
8XV3_EC_PLATE_MIX_ISO-EDGE_CUTS
 66
1
 10
0.00
 20
0.00
 30
0.00
 40
0.20
 41
0.20
  0
VERTEX
  8
8XV3_EC_PLATE_MIX_ISO-EDGE_CUTS
 10
77.10006
 20
-191.353332
 30
0.00
  0
VERTEX
  8
8XV3_EC_PLATE_MIX_ISO-EDGE_CUTS
 10
76.10006
 20
-190.353332
 30
0.00
  0
SEQEND
  0
POLYLINE
  8
8XV3_EC_PLATE_MIX_ISO-EDGE_CUTS
 66
1
 10
0.00
 20
0.00
 30
0.00
 40
0.20
 41
0.20
  0
VERTEX
  8
8XV3_EC_PLATE_MIX_ISO-EDGE_CUTS
 10
89.80006
 20
-191.353332
 30
0.00
  0
VERTEX
  8
8XV3_EC_PLATE_MIX_ISO-EDGE_CUTS
 10
77.10006
 20
-191.353332
 30
0.00
  0
SEQEND
  0
POLYLINE
  8
8XV3_EC_PLATE_MIX_ISO-EDGE_CUTS
 66
1
 10
0.00
 20
0.00
 30
0.00
 40
0.20
 41
0.20
  0
VERTEX
  8
8XV3_EC_PLATE_MIX_ISO-EDGE_CUTS
 10
90.80006
 20
-190.353332
 30
0.00
  0
VERTEX
  8
8XV3_EC_PLATE_MIX_ISO-EDGE_CUTS
 10
89.80006
 20
-191.353332
 30
0.00
  0
SEQEND
  0
POLYLINE
  8
8XV3_EC_PLATE_MIX_ISO-EDGE_CUTS
 66
1
 10
0.00
 20
0.00
 30
0.00
 40
0.20
 41
0.20
  0
VERTEX
  8
8XV3_EC_PLATE_MIX_ISO-EDGE_CUTS
 10
90.80006
 20
-178.253332
 30
0.00
  0
VERTEX
  8
8XV3_EC_PLATE_MIX_ISO-EDGE_CUTS
 10
90.80006
 20
-190.353332
 30
0.00
  0
SEQEND
  0
POLYLINE
  8
8XV3_EC_PLATE_MIX_ISO-EDGE_CUTS
 66
1
 10
0.00
 20
0.00
 30
0.00
 40
0.20
 41
0.20
  0
VERTEX
  8
8XV3_EC_PLATE_MIX_ISO-EDGE_CUTS
 10
89.80006
 20
-177.253332
 30
0.00
  0
VERTEX
  8
8XV3_EC_PLATE_MIX_ISO-EDGE_CUTS
 10
90.80006
 20
-178.253332
 30
0.00
  0
SEQEND
  0
POLYLINE
  8
8XV3_EC_PLATE_MIX_ISO-EDGE_CUTS
 66
1
 10
0.00
 20
0.00
 30
0.00
 40
0.20
 41
0.20
  0
VERTEX
  8
8XV3_EC_PLATE_MIX_ISO-EDGE_CUTS
 10
77.10006
 20
-177.253332
 30
0.00
  0
VERTEX
  8
8XV3_EC_PLATE_MIX_ISO-EDGE_CUTS
 10
89.80006
 20
-177.253332
 30
0.00
  0
SEQEND
  0
POLYLINE
  8
8XV3_EC_PLATE_MIX_ISO-EDGE_CUTS
 66
1
 10
0.00
 20
0.00
 30
0.00
 40
0.20
 41
0.20
  0
VERTEX
  8
8XV3_EC_PLATE_MIX_ISO-EDGE_CUTS
 10
80.86256
 20
-140.153332
 30
0.00
  0
VERTEX
  8
8XV3_EC_PLATE_MIX_ISO-EDGE_CUTS
 10
81.86256
 20
-139.153332
 30
0.00
  0
SEQEND
  0
POLYLINE
  8
8XV3_EC_PLATE_MIX_ISO-EDGE_CUTS
 66
1
 10
0.00
 20
0.00
 30
0.00
 40
0.20
 41
0.20
  0
VERTEX
  8
8XV3_EC_PLATE_MIX_ISO-EDGE_CUTS
 10
80.86256
 20
-152.253332
 30
0.00
  0
VERTEX
  8
8XV3_EC_PLATE_MIX_ISO-EDGE_CUTS
 10
80.86256
 20
-140.153332
 30
0.00
  0
SEQEND
  0
POLYLINE
  8
8XV3_EC_PLATE_MIX_ISO-EDGE_CUTS
 66
1
 10
0.00
 20
0.00
 30
0.00
 40
0.20
 41
0.20
  0
VERTEX
  8
8XV3_EC_PLATE_MIX_ISO-EDGE_CUTS
 10
81.86256
 20
-153.253332
 30
0.00
  0
VERTEX
  8
8XV3_EC_PLATE_MIX_ISO-EDGE_CUTS
 10
80.86256
 20
-152.253332
 30
0.00
  0
SEQEND
  0
POLYLINE
  8
8XV3_EC_PLATE_MIX_ISO-EDGE_CUTS
 66
1
 10
0.00
 20
0.00
 30
0.00
 40
0.20
 41
0.20
  0
VERTEX
  8
8XV3_EC_PLATE_MIX_ISO-EDGE_CUTS
 10
94.56256
 20
-153.253332
 30
0.00
  0
VERTEX
  8
8XV3_EC_PLATE_MIX_ISO-EDGE_CUTS
 10
81.86256
 20
-153.253332
 30
0.00
  0
SEQEND
  0
POLYLINE
  8
8XV3_EC_PLATE_MIX_ISO-EDGE_CUTS
 66
1
 10
0.00
 20
0.00
 30
0.00
 40
0.20
 41
0.20
  0
VERTEX
  8
8XV3_EC_PLATE_MIX_ISO-EDGE_CUTS
 10
95.56256
 20
-152.253332
 30
0.00
  0
VERTEX
  8
8XV3_EC_PLATE_MIX_ISO-EDGE_CUTS
 10
94.56256
 20
-153.253332
 30
0.00
  0
SEQEND
  0
POLYLINE
  8
8XV3_EC_PLATE_MIX_ISO-EDGE_CUTS
 66
1
 10
0.00
 20
0.00
 30
0.00
 40
0.20
 41
0.20
  0
VERTEX
  8
8XV3_EC_PLATE_MIX_ISO-EDGE_CUTS
 10
95.56256
 20
-140.153332
 30
0.00
  0
VERTEX
  8
8XV3_EC_PLATE_MIX_ISO-EDGE_CUTS
 10
95.56256
 20
-152.253332
 30
0.00
  0
SEQEND
  0
POLYLINE
  8
8XV3_EC_PLATE_MIX_ISO-EDGE_CUTS
 66
1
 10
0.00
 20
0.00
 30
0.00
 40
0.20
 41
0.20
  0
VERTEX
  8
8XV3_EC_PLATE_MIX_ISO-EDGE_CUTS
 10
94.56256
 20
-139.153332
 30
0.00
  0
VERTEX
  8
8XV3_EC_PLATE_MIX_ISO-EDGE_CUTS
 10
95.56256
 20
-140.153332
 30
0.00
  0
SEQEND
  0
POLYLINE
  8
8XV3_EC_PLATE_MIX_ISO-EDGE_CUTS
 66
1
 10
0.00
 20
0.00
 30
0.00
 40
0.20
 41
0.20
  0
VERTEX
  8
8XV3_EC_PLATE_MIX_ISO-EDGE_CUTS
 10
81.86256
 20
-139.153332
 30
0.00
  0
VERTEX
  8
8XV3_EC_PLATE_MIX_ISO-EDGE_CUTS
 10
94.56256
 20
-139.153332
 30
0.00
  0
SEQEND
  0
POLYLINE
  8
8XV3_EC_PLATE_MIX_ISO-EDGE_CUTS
 66
1
 10
0.00
 20
0.00
 30
0.00
 40
0.20
 41
0.20
  0
VERTEX
  8
8XV3_EC_PLATE_MIX_ISO-EDGE_CUTS
 10
76.10006
 20
-121.103332
 30
0.00
  0
VERTEX
  8
8XV3_EC_PLATE_MIX_ISO-EDGE_CUTS
 10
77.10006
 20
-120.103332
 30
0.00
  0
SEQEND
  0
POLYLINE
  8
8XV3_EC_PLATE_MIX_ISO-EDGE_CUTS
 66
1
 10
0.00
 20
0.00
 30
0.00
 40
0.20
 41
0.20
  0
VERTEX
  8
8XV3_EC_PLATE_MIX_ISO-EDGE_CUTS
 10
76.10006
 20
-133.203332
 30
0.00
  0
VERTEX
  8
8XV3_EC_PLATE_MIX_ISO-EDGE_CUTS
 10
76.10006
 20
-121.103332
 30
0.00
  0
SEQEND
  0
POLYLINE
  8
8XV3_EC_PLATE_MIX_ISO-EDGE_CUTS
 66
1
 10
0.00
 20
0.00
 30
0.00
 40
0.20
 41
0.20
  0
VERTEX
  8
8XV3_EC_PLATE_MIX_ISO-EDGE_CUTS
 10
77.10006
 20
-134.203332
 30
0.00
  0
VERTEX
  8
8XV3_EC_PLATE_MIX_ISO-EDGE_CUTS
 10
76.10006
 20
-133.203332
 30
0.00
  0
SEQEND
  0
POLYLINE
  8
8XV3_EC_PLATE_MIX_ISO-EDGE_CUTS
 66
1
 10
0.00
 20
0.00
 30
0.00
 40
0.20
 41
0.20
  0
VERTEX
  8
8XV3_EC_PLATE_MIX_ISO-EDGE_CUTS
 10
89.80006
 20
-134.203332
 30
0.00
  0
VERTEX
  8
8XV3_EC_PLATE_MIX_ISO-EDGE_CUTS
 10
77.10006
 20
-134.203332
 30
0.00
  0
SEQEND
  0
POLYLINE
  8
8XV3_EC_PLATE_MIX_ISO-EDGE_CUTS
 66
1
 10
0.00
 20
0.00
 30
0.00
 40
0.20
 41
0.20
  0
VERTEX
  8
8XV3_EC_PLATE_MIX_ISO-EDGE_CUTS
 10
90.80006
 20
-133.203332
 30
0.00
  0
VERTEX
  8
8XV3_EC_PLATE_MIX_ISO-EDGE_CUTS
 10
89.80006
 20
-134.203332
 30
0.00
  0
SEQEND
  0
POLYLINE
  8
8XV3_EC_PLATE_MIX_ISO-EDGE_CUTS
 66
1
 10
0.00
 20
0.00
 30
0.00
 40
0.20
 41
0.20
  0
VERTEX
  8
8XV3_EC_PLATE_MIX_ISO-EDGE_CUTS
 10
90.80006
 20
-121.103332
 30
0.00
  0
VERTEX
  8
8XV3_EC_PLATE_MIX_ISO-EDGE_CUTS
 10
90.80006
 20
-133.203332
 30
0.00
  0
SEQEND
  0
POLYLINE
  8
8XV3_EC_PLATE_MIX_ISO-EDGE_CUTS
 66
1
 10
0.00
 20
0.00
 30
0.00
 40
0.20
 41
0.20
  0
VERTEX
  8
8XV3_EC_PLATE_MIX_ISO-EDGE_CUTS
 10
89.80006
 20
-120.103332
 30
0.00
  0
VERTEX
  8
8XV3_EC_PLATE_MIX_ISO-EDGE_CUTS
 10
90.80006
 20
-121.103332
 30
0.00
  0
SEQEND
  0
POLYLINE
  8
8XV3_EC_PLATE_MIX_ISO-EDGE_CUTS
 66
1
 10
0.00
 20
0.00
 30
0.00
 40
0.20
 41
0.20
  0
VERTEX
  8
8XV3_EC_PLATE_MIX_ISO-EDGE_CUTS
 10
77.10006
 20
-120.103332
 30
0.00
  0
VERTEX
  8
8XV3_EC_PLATE_MIX_ISO-EDGE_CUTS
 10
89.80006
 20
-120.103332
 30
0.00
  0
SEQEND
  0
POLYLINE
  8
8XV3_EC_PLATE_MIX_ISO-EDGE_CUTS
 66
1
 10
0.00
 20
0.00
 30
0.00
 40
0.20
 41
0.20
  0
VERTEX
  8
8XV3_EC_PLATE_MIX_ISO-EDGE_CUTS
 10
66.57506
 20
-102.053332
 30
0.00
  0
VERTEX
  8
8XV3_EC_PLATE_MIX_ISO-EDGE_CUTS
 10
67.57506
 20
-101.053332
 30
0.00
  0
SEQEND
  0
POLYLINE
  8
8XV3_EC_PLATE_MIX_ISO-EDGE_CUTS
 66
1
 10
0.00
 20
0.00
 30
0.00
 40
0.20
 41
0.20
  0
VERTEX
  8
8XV3_EC_PLATE_MIX_ISO-EDGE_CUTS
 10
66.57506
 20
-114.153332
 30
0.00
  0
VERTEX
  8
8XV3_EC_PLATE_MIX_ISO-EDGE_CUTS
 10
66.57506
 20
-102.053332
 30
0.00
  0
SEQEND
  0
POLYLINE
  8
8XV3_EC_PLATE_MIX_ISO-EDGE_CUTS
 66
1
 10
0.00
 20
0.00
 30
0.00
 40
0.20
 41
0.20
  0
VERTEX
  8
8XV3_EC_PLATE_MIX_ISO-EDGE_CUTS
 10
67.57506
 20
-115.153332
 30
0.00
  0
VERTEX
  8
8XV3_EC_PLATE_MIX_ISO-EDGE_CUTS
 10
66.57506
 20
-114.153332
 30
0.00
  0
SEQEND
  0
POLYLINE
  8
8XV3_EC_PLATE_MIX_ISO-EDGE_CUTS
 66
1
 10
0.00
 20
0.00
 30
0.00
 40
0.20
 41
0.20
  0
VERTEX
  8
8XV3_EC_PLATE_MIX_ISO-EDGE_CUTS
 10
80.27506
 20
-115.153332
 30
0.00
  0
VERTEX
  8
8XV3_EC_PLATE_MIX_ISO-EDGE_CUTS
 10
67.57506
 20
-115.153332
 30
0.00
  0
SEQEND
  0
POLYLINE
  8
8XV3_EC_PLATE_MIX_ISO-EDGE_CUTS
 66
1
 10
0.00
 20
0.00
 30
0.00
 40
0.20
 41
0.20
  0
VERTEX
  8
8XV3_EC_PLATE_MIX_ISO-EDGE_CUTS
 10
81.27506
 20
-114.153332
 30
0.00
  0
VERTEX
  8
8XV3_EC_PLATE_MIX_ISO-EDGE_CUTS
 10
80.27506
 20
-115.153332
 30
0.00
  0
SEQEND
  0
POLYLINE
  8
8XV3_EC_PLATE_MIX_ISO-EDGE_CUTS
 66
1
 10
0.00
 20
0.00
 30
0.00
 40
0.20
 41
0.20
  0
VERTEX
  8
8XV3_EC_PLATE_MIX_ISO-EDGE_CUTS
 10
81.27506
 20
-102.053332
 30
0.00
  0
VERTEX
  8
8XV3_EC_PLATE_MIX_ISO-EDGE_CUTS
 10
81.27506
 20
-114.153332
 30
0.00
  0
SEQEND
  0
POLYLINE
  8
8XV3_EC_PLATE_MIX_ISO-EDGE_CUTS
 66
1
 10
0.00
 20
0.00
 30
0.00
 40
0.20
 41
0.20
  0
VERTEX
  8
8XV3_EC_PLATE_MIX_ISO-EDGE_CUTS
 10
80.27506
 20
-101.053332
 30
0.00
  0
VERTEX
  8
8XV3_EC_PLATE_MIX_ISO-EDGE_CUTS
 10
81.27506
 20
-102.053332
 30
0.00
  0
SEQEND
  0
POLYLINE
  8
8XV3_EC_PLATE_MIX_ISO-EDGE_CUTS
 66
1
 10
0.00
 20
0.00
 30
0.00
 40
0.20
 41
0.20
  0
VERTEX
  8
8XV3_EC_PLATE_MIX_ISO-EDGE_CUTS
 10
67.57506
 20
-101.053332
 30
0.00
  0
VERTEX
  8
8XV3_EC_PLATE_MIX_ISO-EDGE_CUTS
 10
80.27506
 20
-101.053332
 30
0.00
  0
SEQEND
  0
POLYLINE
  8
8XV3_EC_PLATE_MIX_ISO-EDGE_CUTS
 66
1
 10
0.00
 20
0.00
 30
0.00
 40
0.20
 41
0.20
  0
VERTEX
  8
8XV3_EC_PLATE_MIX_ISO-EDGE_CUTS
 10
52.28756
 20
-178.253332
 30
0.00
  0
VERTEX
  8
8XV3_EC_PLATE_MIX_ISO-EDGE_CUTS
 10
53.28756
 20
-177.253332
 30
0.00
  0
SEQEND
  0
POLYLINE
  8
8XV3_EC_PLATE_MIX_ISO-EDGE_CUTS
 66
1
 10
0.00
 20
0.00
 30
0.00
 40
0.20
 41
0.20
  0
VERTEX
  8
8XV3_EC_PLATE_MIX_ISO-EDGE_CUTS
 10
52.28756
 20
-190.353332
 30
0.00
  0
VERTEX
  8
8XV3_EC_PLATE_MIX_ISO-EDGE_CUTS
 10
52.28756
 20
-178.253332
 30
0.00
  0
SEQEND
  0
POLYLINE
  8
8XV3_EC_PLATE_MIX_ISO-EDGE_CUTS
 66
1
 10
0.00
 20
0.00
 30
0.00
 40
0.20
 41
0.20
  0
VERTEX
  8
8XV3_EC_PLATE_MIX_ISO-EDGE_CUTS
 10
53.28756
 20
-191.353332
 30
0.00
  0
VERTEX
  8
8XV3_EC_PLATE_MIX_ISO-EDGE_CUTS
 10
52.28756
 20
-190.353332
 30
0.00
  0
SEQEND
  0
POLYLINE
  8
8XV3_EC_PLATE_MIX_ISO-EDGE_CUTS
 66
1
 10
0.00
 20
0.00
 30
0.00
 40
0.20
 41
0.20
  0
VERTEX
  8
8XV3_EC_PLATE_MIX_ISO-EDGE_CUTS
 10
65.98756
 20
-191.353332
 30
0.00
  0
VERTEX
  8
8XV3_EC_PLATE_MIX_ISO-EDGE_CUTS
 10
53.28756
 20
-191.353332
 30
0.00
  0
SEQEND
  0
POLYLINE
  8
8XV3_EC_PLATE_MIX_ISO-EDGE_CUTS
 66
1
 10
0.00
 20
0.00
 30
0.00
 40
0.20
 41
0.20
  0
VERTEX
  8
8XV3_EC_PLATE_MIX_ISO-EDGE_CUTS
 10
66.98756
 20
-190.353332
 30
0.00
  0
VERTEX
  8
8XV3_EC_PLATE_MIX_ISO-EDGE_CUTS
 10
65.98756
 20
-191.353332
 30
0.00
  0
SEQEND
  0
POLYLINE
  8
8XV3_EC_PLATE_MIX_ISO-EDGE_CUTS
 66
1
 10
0.00
 20
0.00
 30
0.00
 40
0.20
 41
0.20
  0
VERTEX
  8
8XV3_EC_PLATE_MIX_ISO-EDGE_CUTS
 10
66.98756
 20
-178.253332
 30
0.00
  0
VERTEX
  8
8XV3_EC_PLATE_MIX_ISO-EDGE_CUTS
 10
66.98756
 20
-190.353332
 30
0.00
  0
SEQEND
  0
POLYLINE
  8
8XV3_EC_PLATE_MIX_ISO-EDGE_CUTS
 66
1
 10
0.00
 20
0.00
 30
0.00
 40
0.20
 41
0.20
  0
VERTEX
  8
8XV3_EC_PLATE_MIX_ISO-EDGE_CUTS
 10
65.98756
 20
-177.253332
 30
0.00
  0
VERTEX
  8
8XV3_EC_PLATE_MIX_ISO-EDGE_CUTS
 10
66.98756
 20
-178.253332
 30
0.00
  0
SEQEND
  0
POLYLINE
  8
8XV3_EC_PLATE_MIX_ISO-EDGE_CUTS
 66
1
 10
0.00
 20
0.00
 30
0.00
 40
0.20
 41
0.20
  0
VERTEX
  8
8XV3_EC_PLATE_MIX_ISO-EDGE_CUTS
 10
53.28756
 20
-177.253332
 30
0.00
  0
VERTEX
  8
8XV3_EC_PLATE_MIX_ISO-EDGE_CUTS
 10
65.98756
 20
-177.253332
 30
0.00
  0
SEQEND
  0
POLYLINE
  8
8XV3_EC_PLATE_MIX_ISO-EDGE_CUTS
 66
1
 10
0.00
 20
0.00
 30
0.00
 40
0.20
 41
0.20
  0
VERTEX
  8
8XV3_EC_PLATE_MIX_ISO-EDGE_CUTS
 10
49.90631
 20
-159.203332
 30
0.00
  0
VERTEX
  8
8XV3_EC_PLATE_MIX_ISO-EDGE_CUTS
 10
50.90631
 20
-158.203332
 30
0.00
  0
SEQEND
  0
POLYLINE
  8
8XV3_EC_PLATE_MIX_ISO-EDGE_CUTS
 66
1
 10
0.00
 20
0.00
 30
0.00
 40
0.20
 41
0.20
  0
VERTEX
  8
8XV3_EC_PLATE_MIX_ISO-EDGE_CUTS
 10
49.90631
 20
-171.303332
 30
0.00
  0
VERTEX
  8
8XV3_EC_PLATE_MIX_ISO-EDGE_CUTS
 10
49.90631
 20
-159.203332
 30
0.00
  0
SEQEND
  0
POLYLINE
  8
8XV3_EC_PLATE_MIX_ISO-EDGE_CUTS
 66
1
 10
0.00
 20
0.00
 30
0.00
 40
0.20
 41
0.20
  0
VERTEX
  8
8XV3_EC_PLATE_MIX_ISO-EDGE_CUTS
 10
50.90631
 20
-172.303332
 30
0.00
  0
VERTEX
  8
8XV3_EC_PLATE_MIX_ISO-EDGE_CUTS
 10
49.90631
 20
-171.303332
 30
0.00
  0
SEQEND
  0
POLYLINE
  8
8XV3_EC_PLATE_MIX_ISO-EDGE_CUTS
 66
1
 10
0.00
 20
0.00
 30
0.00
 40
0.20
 41
0.20
  0
VERTEX
  8
8XV3_EC_PLATE_MIX_ISO-EDGE_CUTS
 10
63.60631
 20
-172.303332
 30
0.00
  0
VERTEX
  8
8XV3_EC_PLATE_MIX_ISO-EDGE_CUTS
 10
50.90631
 20
-172.303332
 30
0.00
  0
SEQEND
  0
POLYLINE
  8
8XV3_EC_PLATE_MIX_ISO-EDGE_CUTS
 66
1
 10
0.00
 20
0.00
 30
0.00
 40
0.20
 41
0.20
  0
VERTEX
  8
8XV3_EC_PLATE_MIX_ISO-EDGE_CUTS
 10
64.60631
 20
-171.303332
 30
0.00
  0
VERTEX
  8
8XV3_EC_PLATE_MIX_ISO-EDGE_CUTS
 10
63.60631
 20
-172.303332
 30
0.00
  0
SEQEND
  0
POLYLINE
  8
8XV3_EC_PLATE_MIX_ISO-EDGE_CUTS
 66
1
 10
0.00
 20
0.00
 30
0.00
 40
0.20
 41
0.20
  0
VERTEX
  8
8XV3_EC_PLATE_MIX_ISO-EDGE_CUTS
 10
64.60631
 20
-159.203332
 30
0.00
  0
VERTEX
  8
8XV3_EC_PLATE_MIX_ISO-EDGE_CUTS
 10
64.60631
 20
-171.303332
 30
0.00
  0
SEQEND
  0
POLYLINE
  8
8XV3_EC_PLATE_MIX_ISO-EDGE_CUTS
 66
1
 10
0.00
 20
0.00
 30
0.00
 40
0.20
 41
0.20
  0
VERTEX
  8
8XV3_EC_PLATE_MIX_ISO-EDGE_CUTS
 10
63.60631
 20
-158.203332
 30
0.00
  0
VERTEX
  8
8XV3_EC_PLATE_MIX_ISO-EDGE_CUTS
 10
64.60631
 20
-159.203332
 30
0.00
  0
SEQEND
  0
POLYLINE
  8
8XV3_EC_PLATE_MIX_ISO-EDGE_CUTS
 66
1
 10
0.00
 20
0.00
 30
0.00
 40
0.20
 41
0.20
  0
VERTEX
  8
8XV3_EC_PLATE_MIX_ISO-EDGE_CUTS
 10
50.90631
 20
-158.203332
 30
0.00
  0
VERTEX
  8
8XV3_EC_PLATE_MIX_ISO-EDGE_CUTS
 10
63.60631
 20
-158.203332
 30
0.00
  0
SEQEND
  0
POLYLINE
  8
8XV3_EC_PLATE_MIX_ISO-EDGE_CUTS
 66
1
 10
0.00
 20
0.00
 30
0.00
 40
0.20
 41
0.20
  0
VERTEX
  8
8XV3_EC_PLATE_MIX_ISO-EDGE_CUTS
 10
52.28756
 20
-121.103332
 30
0.00
  0
VERTEX
  8
8XV3_EC_PLATE_MIX_ISO-EDGE_CUTS
 10
53.28756
 20
-120.103332
 30
0.00
  0
SEQEND
  0
POLYLINE
  8
8XV3_EC_PLATE_MIX_ISO-EDGE_CUTS
 66
1
 10
0.00
 20
0.00
 30
0.00
 40
0.20
 41
0.20
  0
VERTEX
  8
8XV3_EC_PLATE_MIX_ISO-EDGE_CUTS
 10
52.28756
 20
-133.203332
 30
0.00
  0
VERTEX
  8
8XV3_EC_PLATE_MIX_ISO-EDGE_CUTS
 10
52.28756
 20
-121.103332
 30
0.00
  0
SEQEND
  0
POLYLINE
  8
8XV3_EC_PLATE_MIX_ISO-EDGE_CUTS
 66
1
 10
0.00
 20
0.00
 30
0.00
 40
0.20
 41
0.20
  0
VERTEX
  8
8XV3_EC_PLATE_MIX_ISO-EDGE_CUTS
 10
53.28756
 20
-134.203332
 30
0.00
  0
VERTEX
  8
8XV3_EC_PLATE_MIX_ISO-EDGE_CUTS
 10
52.28756
 20
-133.203332
 30
0.00
  0
SEQEND
  0
POLYLINE
  8
8XV3_EC_PLATE_MIX_ISO-EDGE_CUTS
 66
1
 10
0.00
 20
0.00
 30
0.00
 40
0.20
 41
0.20
  0
VERTEX
  8
8XV3_EC_PLATE_MIX_ISO-EDGE_CUTS
 10
65.98756
 20
-134.203332
 30
0.00
  0
VERTEX
  8
8XV3_EC_PLATE_MIX_ISO-EDGE_CUTS
 10
53.28756
 20
-134.203332
 30
0.00
  0
SEQEND
  0
POLYLINE
  8
8XV3_EC_PLATE_MIX_ISO-EDGE_CUTS
 66
1
 10
0.00
 20
0.00
 30
0.00
 40
0.20
 41
0.20
  0
VERTEX
  8
8XV3_EC_PLATE_MIX_ISO-EDGE_CUTS
 10
66.98756
 20
-133.203332
 30
0.00
  0
VERTEX
  8
8XV3_EC_PLATE_MIX_ISO-EDGE_CUTS
 10
65.98756
 20
-134.203332
 30
0.00
  0
SEQEND
  0
POLYLINE
  8
8XV3_EC_PLATE_MIX_ISO-EDGE_CUTS
 66
1
 10
0.00
 20
0.00
 30
0.00
 40
0.20
 41
0.20
  0
VERTEX
  8
8XV3_EC_PLATE_MIX_ISO-EDGE_CUTS
 10
66.98756
 20
-121.103332
 30
0.00
  0
VERTEX
  8
8XV3_EC_PLATE_MIX_ISO-EDGE_CUTS
 10
66.98756
 20
-133.203332
 30
0.00
  0
SEQEND
  0
POLYLINE
  8
8XV3_EC_PLATE_MIX_ISO-EDGE_CUTS
 66
1
 10
0.00
 20
0.00
 30
0.00
 40
0.20
 41
0.20
  0
VERTEX
  8
8XV3_EC_PLATE_MIX_ISO-EDGE_CUTS
 10
65.98756
 20
-120.103332
 30
0.00
  0
VERTEX
  8
8XV3_EC_PLATE_MIX_ISO-EDGE_CUTS
 10
66.98756
 20
-121.103332
 30
0.00
  0
SEQEND
  0
POLYLINE
  8
8XV3_EC_PLATE_MIX_ISO-EDGE_CUTS
 66
1
 10
0.00
 20
0.00
 30
0.00
 40
0.20
 41
0.20
  0
VERTEX
  8
8XV3_EC_PLATE_MIX_ISO-EDGE_CUTS
 10
53.28756
 20
-120.103332
 30
0.00
  0
VERTEX
  8
8XV3_EC_PLATE_MIX_ISO-EDGE_CUTS
 10
65.98756
 20
-120.103332
 30
0.00
  0
SEQEND
  0
POLYLINE
  8
8XV3_EC_PLATE_MIX_ISO-EDGE_CUTS
 66
1
 10
0.00
 20
0.00
 30
0.00
 40
0.20
 41
0.20
  0
VERTEX
  8
8XV3_EC_PLATE_MIX_ISO-EDGE_CUTS
 10
47.52506
 20
-102.053332
 30
0.00
  0
VERTEX
  8
8XV3_EC_PLATE_MIX_ISO-EDGE_CUTS
 10
48.52506
 20
-101.053332
 30
0.00
  0
SEQEND
  0
POLYLINE
  8
8XV3_EC_PLATE_MIX_ISO-EDGE_CUTS
 66
1
 10
0.00
 20
0.00
 30
0.00
 40
0.20
 41
0.20
  0
VERTEX
  8
8XV3_EC_PLATE_MIX_ISO-EDGE_CUTS
 10
47.52506
 20
-114.153332
 30
0.00
  0
VERTEX
  8
8XV3_EC_PLATE_MIX_ISO-EDGE_CUTS
 10
47.52506
 20
-102.053332
 30
0.00
  0
SEQEND
  0
POLYLINE
  8
8XV3_EC_PLATE_MIX_ISO-EDGE_CUTS
 66
1
 10
0.00
 20
0.00
 30
0.00
 40
0.20
 41
0.20
  0
VERTEX
  8
8XV3_EC_PLATE_MIX_ISO-EDGE_CUTS
 10
48.52506
 20
-115.153332
 30
0.00
  0
VERTEX
  8
8XV3_EC_PLATE_MIX_ISO-EDGE_CUTS
 10
47.52506
 20
-114.153332
 30
0.00
  0
SEQEND
  0
POLYLINE
  8
8XV3_EC_PLATE_MIX_ISO-EDGE_CUTS
 66
1
 10
0.00
 20
0.00
 30
0.00
 40
0.20
 41
0.20
  0
VERTEX
  8
8XV3_EC_PLATE_MIX_ISO-EDGE_CUTS
 10
61.22506
 20
-115.153332
 30
0.00
  0
VERTEX
  8
8XV3_EC_PLATE_MIX_ISO-EDGE_CUTS
 10
48.52506
 20
-115.153332
 30
0.00
  0
SEQEND
  0
POLYLINE
  8
8XV3_EC_PLATE_MIX_ISO-EDGE_CUTS
 66
1
 10
0.00
 20
0.00
 30
0.00
 40
0.20
 41
0.20
  0
VERTEX
  8
8XV3_EC_PLATE_MIX_ISO-EDGE_CUTS
 10
62.22506
 20
-114.153332
 30
0.00
  0
VERTEX
  8
8XV3_EC_PLATE_MIX_ISO-EDGE_CUTS
 10
61.22506
 20
-115.153332
 30
0.00
  0
SEQEND
  0
POLYLINE
  8
8XV3_EC_PLATE_MIX_ISO-EDGE_CUTS
 66
1
 10
0.00
 20
0.00
 30
0.00
 40
0.20
 41
0.20
  0
VERTEX
  8
8XV3_EC_PLATE_MIX_ISO-EDGE_CUTS
 10
62.22506
 20
-102.053332
 30
0.00
  0
VERTEX
  8
8XV3_EC_PLATE_MIX_ISO-EDGE_CUTS
 10
62.22506
 20
-114.153332
 30
0.00
  0
SEQEND
  0
POLYLINE
  8
8XV3_EC_PLATE_MIX_ISO-EDGE_CUTS
 66
1
 10
0.00
 20
0.00
 30
0.00
 40
0.20
 41
0.20
  0
VERTEX
  8
8XV3_EC_PLATE_MIX_ISO-EDGE_CUTS
 10
61.22506
 20
-101.053332
 30
0.00
  0
VERTEX
  8
8XV3_EC_PLATE_MIX_ISO-EDGE_CUTS
 10
62.22506
 20
-102.053332
 30
0.00
  0
SEQEND
  0
POLYLINE
  8
8XV3_EC_PLATE_MIX_ISO-EDGE_CUTS
 66
1
 10
0.00
 20
0.00
 30
0.00
 40
0.20
 41
0.20
  0
VERTEX
  8
8XV3_EC_PLATE_MIX_ISO-EDGE_CUTS
 10
48.52506
 20
-101.053332
 30
0.00
  0
VERTEX
  8
8XV3_EC_PLATE_MIX_ISO-EDGE_CUTS
 10
61.22506
 20
-101.053332
 30
0.00
  0
SEQEND
  0
POLYLINE
  8
8XV3_EC_PLATE_MIX_ISO-EDGE_CUTS
 66
1
 10
0.00
 20
0.00
 30
0.00
 40
0.20
 41
0.20
  0
VERTEX
  8
8XV3_EC_PLATE_MIX_ISO-EDGE_CUTS
 10
47.52506
 20
-77.053332
 30
0.00
  0
VERTEX
  8
8XV3_EC_PLATE_MIX_ISO-EDGE_CUTS
 10
48.52506
 20
-76.053332
 30
0.00
  0
SEQEND
  0
POLYLINE
  8
8XV3_EC_PLATE_MIX_ISO-EDGE_CUTS
 66
1
 10
0.00
 20
0.00
 30
0.00
 40
0.20
 41
0.20
  0
VERTEX
  8
8XV3_EC_PLATE_MIX_ISO-EDGE_CUTS
 10
47.52506
 20
-89.153332
 30
0.00
  0
VERTEX
  8
8XV3_EC_PLATE_MIX_ISO-EDGE_CUTS
 10
47.52506
 20
-77.053332
 30
0.00
  0
SEQEND
  0
POLYLINE
  8
8XV3_EC_PLATE_MIX_ISO-EDGE_CUTS
 66
1
 10
0.00
 20
0.00
 30
0.00
 40
0.20
 41
0.20
  0
VERTEX
  8
8XV3_EC_PLATE_MIX_ISO-EDGE_CUTS
 10
48.52506
 20
-90.153332
 30
0.00
  0
VERTEX
  8
8XV3_EC_PLATE_MIX_ISO-EDGE_CUTS
 10
47.52506
 20
-89.153332
 30
0.00
  0
SEQEND
  0
POLYLINE
  8
8XV3_EC_PLATE_MIX_ISO-EDGE_CUTS
 66
1
 10
0.00
 20
0.00
 30
0.00
 40
0.20
 41
0.20
  0
VERTEX
  8
8XV3_EC_PLATE_MIX_ISO-EDGE_CUTS
 10
61.22506
 20
-90.153332
 30
0.00
  0
VERTEX
  8
8XV3_EC_PLATE_MIX_ISO-EDGE_CUTS
 10
48.52506
 20
-90.153332
 30
0.00
  0
SEQEND
  0
POLYLINE
  8
8XV3_EC_PLATE_MIX_ISO-EDGE_CUTS
 66
1
 10
0.00
 20
0.00
 30
0.00
 40
0.20
 41
0.20
  0
VERTEX
  8
8XV3_EC_PLATE_MIX_ISO-EDGE_CUTS
 10
62.22506
 20
-89.153332
 30
0.00
  0
VERTEX
  8
8XV3_EC_PLATE_MIX_ISO-EDGE_CUTS
 10
61.22506
 20
-90.153332
 30
0.00
  0
SEQEND
  0
POLYLINE
  8
8XV3_EC_PLATE_MIX_ISO-EDGE_CUTS
 66
1
 10
0.00
 20
0.00
 30
0.00
 40
0.20
 41
0.20
  0
VERTEX
  8
8XV3_EC_PLATE_MIX_ISO-EDGE_CUTS
 10
62.22506
 20
-77.053332
 30
0.00
  0
VERTEX
  8
8XV3_EC_PLATE_MIX_ISO-EDGE_CUTS
 10
62.22506
 20
-89.153332
 30
0.00
  0
SEQEND
  0
POLYLINE
  8
8XV3_EC_PLATE_MIX_ISO-EDGE_CUTS
 66
1
 10
0.00
 20
0.00
 30
0.00
 40
0.20
 41
0.20
  0
VERTEX
  8
8XV3_EC_PLATE_MIX_ISO-EDGE_CUTS
 10
61.22506
 20
-76.053332
 30
0.00
  0
VERTEX
  8
8XV3_EC_PLATE_MIX_ISO-EDGE_CUTS
 10
62.22506
 20
-77.053332
 30
0.00
  0
SEQEND
  0
POLYLINE
  8
8XV3_EC_PLATE_MIX_ISO-EDGE_CUTS
 66
1
 10
0.00
 20
0.00
 30
0.00
 40
0.20
 41
0.20
  0
VERTEX
  8
8XV3_EC_PLATE_MIX_ISO-EDGE_CUTS
 10
48.52506
 20
-76.053332
 30
0.00
  0
VERTEX
  8
8XV3_EC_PLATE_MIX_ISO-EDGE_CUTS
 10
61.22506
 20
-76.053332
 30
0.00
  0
SEQEND
  0
POLYLINE
  8
8XV3_EC_PLATE_MIX_ISO-EDGE_CUTS
 66
1
 10
0.00
 20
0.00
 30
0.00
 40
0.20
 41
0.20
  0
VERTEX
  8
8XV3_EC_PLATE_MIX_ISO-EDGE_CUTS
 10
195.57506
 20
-190.353332
 30
0.00
  0
VERTEX
  8
8XV3_EC_PLATE_MIX_ISO-EDGE_CUTS
 10
194.57506
 20
-191.353332
 30
0.00
  0
SEQEND
  0
POLYLINE
  8
8XV3_EC_PLATE_MIX_ISO-EDGE_CUTS
 66
1
 10
0.00
 20
0.00
 30
0.00
 40
0.20
 41
0.20
  0
VERTEX
  8
8XV3_EC_PLATE_MIX_ISO-EDGE_CUTS
 10
54.66881
 20
-140.153332
 30
0.00
  0
VERTEX
  8
8XV3_EC_PLATE_MIX_ISO-EDGE_CUTS
 10
55.66881
 20
-139.153332
 30
0.00
  0
SEQEND
  0
POLYLINE
  8
8XV3_EC_PLATE_MIX_ISO-EDGE_CUTS
 66
1
 10
0.00
 20
0.00
 30
0.00
 40
0.20
 41
0.20
  0
VERTEX
  8
8XV3_EC_PLATE_MIX_ISO-EDGE_CUTS
 10
54.66881
 20
-152.253332
 30
0.00
  0
VERTEX
  8
8XV3_EC_PLATE_MIX_ISO-EDGE_CUTS
 10
54.66881
 20
-140.153332
 30
0.00
  0
SEQEND
  0
POLYLINE
  8
8XV3_EC_PLATE_MIX_ISO-EDGE_CUTS
 66
1
 10
0.00
 20
0.00
 30
0.00
 40
0.20
 41
0.20
  0
VERTEX
  8
8XV3_EC_PLATE_MIX_ISO-EDGE_CUTS
 10
55.66881
 20
-153.253332
 30
0.00
  0
VERTEX
  8
8XV3_EC_PLATE_MIX_ISO-EDGE_CUTS
 10
54.66881
 20
-152.253332
 30
0.00
  0
SEQEND
  0
POLYLINE
  8
8XV3_EC_PLATE_MIX_ISO-EDGE_CUTS
 66
1
 10
0.00
 20
0.00
 30
0.00
 40
0.20
 41
0.20
  0
VERTEX
  8
8XV3_EC_PLATE_MIX_ISO-EDGE_CUTS
 10
68.36881
 20
-153.253332
 30
0.00
  0
VERTEX
  8
8XV3_EC_PLATE_MIX_ISO-EDGE_CUTS
 10
55.66881
 20
-153.253332
 30
0.00
  0
SEQEND
  0
POLYLINE
  8
8XV3_EC_PLATE_MIX_ISO-EDGE_CUTS
 66
1
 10
0.00
 20
0.00
 30
0.00
 40
0.20
 41
0.20
  0
VERTEX
  8
8XV3_EC_PLATE_MIX_ISO-EDGE_CUTS
 10
69.36881
 20
-152.253332
 30
0.00
  0
VERTEX
  8
8XV3_EC_PLATE_MIX_ISO-EDGE_CUTS
 10
68.36881
 20
-153.253332
 30
0.00
  0
SEQEND
  0
POLYLINE
  8
8XV3_EC_PLATE_MIX_ISO-EDGE_CUTS
 66
1
 10
0.00
 20
0.00
 30
0.00
 40
0.20
 41
0.20
  0
VERTEX
  8
8XV3_EC_PLATE_MIX_ISO-EDGE_CUTS
 10
69.36881
 20
-140.153332
 30
0.00
  0
VERTEX
  8
8XV3_EC_PLATE_MIX_ISO-EDGE_CUTS
 10
69.36881
 20
-152.253332
 30
0.00
  0
SEQEND
  0
POLYLINE
  8
8XV3_EC_PLATE_MIX_ISO-EDGE_CUTS
 66
1
 10
0.00
 20
0.00
 30
0.00
 40
0.20
 41
0.20
  0
VERTEX
  8
8XV3_EC_PLATE_MIX_ISO-EDGE_CUTS
 10
68.36881
 20
-139.153332
 30
0.00
  0
VERTEX
  8
8XV3_EC_PLATE_MIX_ISO-EDGE_CUTS
 10
69.36881
 20
-140.153332
 30
0.00
  0
SEQEND
  0
POLYLINE
  8
8XV3_EC_PLATE_MIX_ISO-EDGE_CUTS
 66
1
 10
0.00
 20
0.00
 30
0.00
 40
0.20
 41
0.20
  0
VERTEX
  8
8XV3_EC_PLATE_MIX_ISO-EDGE_CUTS
 10
55.66881
 20
-139.153332
 30
0.00
  0
VERTEX
  8
8XV3_EC_PLATE_MIX_ISO-EDGE_CUTS
 10
68.36881
 20
-139.153332
 30
0.00
  0
SEQEND
  0
POLYLINE
  8
8XV3_EC_PLATE_MIX_ISO-EDGE_CUTS
 66
1
 10
0.00
 20
0.00
 30
0.00
 40
0.20
 41
0.20
  0
VERTEX
  8
8XV3_EC_PLATE_MIX_ISO-EDGE_CUTS
 10
195.57506
 20
-179.313134
 30
0.00
  0
VERTEX
  8
8XV3_EC_PLATE_MIX_ISO-EDGE_CUTS
 10
195.57506
 20
-178.253332
 30
0.00
  0
SEQEND
  0
POLYLINE
  8
8XV3_EC_PLATE_MIX_ISO-EDGE_CUTS
 66
1
 10
0.00
 20
0.00
 30
0.00
 40
0.20
 41
0.20
  0
VERTEX
  8
8XV3_EC_PLATE_MIX_ISO-EDGE_CUTS
 10
195.57506
 20
-190.353332
 30
0.00
  0
VERTEX
  8
8XV3_EC_PLATE_MIX_ISO-EDGE_CUTS
 10
195.57506
 20
-182.313134
 30
0.00
  0
SEQEND
  0
POLYLINE
  8
8XV3_EC_PLATE_MIX_ISO-EDGE_CUTS
 66
1
 10
0.00
 20
0.00
 30
0.00
 40
0.20
 41
0.20
  0
VERTEX
  8
8XV3_EC_PLATE_MIX_ISO-EDGE_CUTS
 10
180.87506
 20
-182.313134
 30
0.00
  0
VERTEX
  8
8XV3_EC_PLATE_MIX_ISO-EDGE_CUTS
 10
180.87506
 20
-190.353332
 30
0.00
  0
SEQEND
  0
POLYLINE
  8
8XV3_EC_PLATE_MIX_ISO-EDGE_CUTS
 66
1
 10
0.00
 20
0.00
 30
0.00
 40
0.20
 41
0.20
  0
VERTEX
  8
8XV3_EC_PLATE_MIX_ISO-EDGE_CUTS
 10
180.87506
 20
-178.253332
 30
0.00
  0
VERTEX
  8
8XV3_EC_PLATE_MIX_ISO-EDGE_CUTS
 10
180.87506
 20
-179.313134
 30
0.00
  0
SEQEND
  0
POLYLINE
  8
8XV3_EC_PLATE_MIX_ISO-EDGE_CUTS
 66
1
 10
0.00
 20
0.00
 30
0.00
 40
0.20
 41
0.20
  0
VERTEX
  8
8XV3_EC_PLATE_MIX_ISO-EDGE_CUTS
 10
180.87506
 20
-178.253332
 30
0.00
  0
VERTEX
  8
8XV3_EC_PLATE_MIX_ISO-EDGE_CUTS
 10
181.87506
 20
-177.253332
 30
0.00
  0
SEQEND
  0
POLYLINE
  8
8XV3_EC_PLATE_MIX_ISO-EDGE_CUTS
 66
1
 10
0.00
 20
0.00
 30
0.00
 40
0.20
 41
0.20
  0
VERTEX
  8
8XV3_EC_PLATE_MIX_ISO-EDGE_CUTS
 10
181.87506
 20
-191.353332
 30
0.00
  0
VERTEX
  8
8XV3_EC_PLATE_MIX_ISO-EDGE_CUTS
 10
180.87506
 20
-190.353332
 30
0.00
  0
SEQEND
  0
POLYLINE
  8
8XV3_EC_PLATE_MIX_ISO-EDGE_CUTS
 66
1
 10
0.00
 20
0.00
 30
0.00
 40
0.20
 41
0.20
  0
VERTEX
  8
8XV3_EC_PLATE_MIX_ISO-EDGE_CUTS
 10
194.57506
 20
-191.353332
 30
0.00
  0
VERTEX
  8
8XV3_EC_PLATE_MIX_ISO-EDGE_CUTS
 10
181.87506
 20
-191.353332
 30
0.00
  0
SEQEND
  0
POLYLINE
  8
8XV3_EC_PLATE_MIX_ISO-EDGE_CUTS
 66
1
 10
0.00
 20
0.00
 30
0.00
 40
0.20
 41
0.20
  0
VERTEX
  8
8XV3_EC_PLATE_MIX_ISO-EDGE_CUTS
 10
194.57506
 20
-177.253332
 30
0.00
  0
VERTEX
  8
8XV3_EC_PLATE_MIX_ISO-EDGE_CUTS
 10
195.57506
 20
-178.253332
 30
0.00
  0
SEQEND
  0
POLYLINE
  8
8XV3_EC_PLATE_MIX_ISO-EDGE_CUTS
 66
1
 10
0.00
 20
0.00
 30
0.00
 40
0.20
 41
0.20
  0
VERTEX
  8
8XV3_EC_PLATE_MIX_ISO-EDGE_CUTS
 10
181.87506
 20
-177.253332
 30
0.00
  0
VERTEX
  8
8XV3_EC_PLATE_MIX_ISO-EDGE_CUTS
 10
194.57506
 20
-177.253332
 30
0.00
  0
SEQEND
  0
POLYLINE
  8
8XV3_EC_PLATE_MIX_ISO-EDGE_CUTS
 66
1
 10
0.00
 20
0.00
 30
0.00
 40
0.20
 41
0.20
  0
VERTEX
  8
8XV3_EC_PLATE_MIX_ISO-EDGE_CUTS
 10
134.34956
 20
-179.313134
 30
0.00
  0
VERTEX
  8
8XV3_EC_PLATE_MIX_ISO-EDGE_CUTS
 10
180.87506
 20
-179.313134
 30
0.00
  0
SEQEND
  0
POLYLINE
  8
8XV3_EC_PLATE_MIX_ISO-EDGE_CUTS
 66
1
 10
0.00
 20
0.00
 30
0.00
 40
0.20
 41
0.20
  0
VERTEX
  8
8XV3_EC_PLATE_MIX_ISO-EDGE_CUTS
 10
180.87506
 20
-182.313134
 30
0.00
  0
VERTEX
  8
8XV3_EC_PLATE_MIX_ISO-EDGE_CUTS
 10
134.34956
 20
-182.313134
 30
0.00
  0
SEQEND
  0
POLYLINE
  8
8XV3_EC_PLATE_MIX_ISO-EDGE_CUTS
 66
1
 10
0.00
 20
0.00
 30
0.00
 40
0.20
 41
0.20
  0
VERTEX
  8
8XV3_EC_PLATE_MIX_ISO-EDGE_CUTS
 10
241.99956
 20
-182.313134
 30
0.00
  0
VERTEX
  8
8XV3_EC_PLATE_MIX_ISO-EDGE_CUTS
 10
195.57506
 20
-182.313134
 30
0.00
  0
SEQEND
  0
POLYLINE
  8
8XV3_EC_PLATE_MIX_ISO-EDGE_CUTS
 66
1
 10
0.00
 20
0.00
 30
0.00
 40
0.20
 41
0.20
  0
VERTEX
  8
8XV3_EC_PLATE_MIX_ISO-EDGE_CUTS
 10
195.57506
 20
-179.313134
 30
0.00
  0
VERTEX
  8
8XV3_EC_PLATE_MIX_ISO-EDGE_CUTS
 10
241.99956
 20
-179.313134
 30
0.00
  0
SEQEND
  0
POLYLINE
  8
8XV3_EC_PLATE_MIX_ISO-EDGE_CUTS
 66
1
 10
0.00
 20
0.00
 30
0.00
 40
0.20
 41
0.20
  0
VERTEX
  8
8XV3_EC_PLATE_MIX_ISO-EDGE_CUTS
 10
134.34956
 20
-183.503712
 30
0.00
  0
VERTEX
  8
8XV3_EC_PLATE_MIX_ISO-EDGE_CUTS
 10
134.34956
 20
-182.313134
 30
0.00
  0
SEQEND
  0
POLYLINE
  8
8XV3_EC_PLATE_MIX_ISO-EDGE_CUTS
 66
1
 10
0.00
 20
0.00
 30
0.00
 40
0.20
 41
0.20
  0
VERTEX
  8
8XV3_EC_PLATE_MIX_ISO-EDGE_CUTS
 10
241.99956
 20
-183.503712
 30
0.00
  0
VERTEX
  8
8XV3_EC_PLATE_MIX_ISO-EDGE_CUTS
 10
241.99956
 20
-182.313134
 30
0.00
  0
SEQEND
  0
POLYLINE
  8
8XV3_EC_PLATE_MIX_ISO-EDGE_CUTS
 66
1
 10
0.00
 20
0.00
 30
0.00
 40
0.20
 41
0.20
  0
VERTEX
  8
8XV3_EC_PLATE_MIX_ISO-EDGE_CUTS
 10
133.187384
 20
-189.931344
 30
0.00
 42
0.0785978
  0
VERTEX
  8
8XV3_EC_PLATE_MIX_ISO-EDGE_CUTS
 10
132.570136
 20
-189.833712
 30
0.00
 42
0.00
  0
SEQEND
  0
POLYLINE
  8
8XV3_EC_PLATE_MIX_ISO-EDGE_CUTS
 66
1
 10
0.00
 20
0.00
 30
0.00
 40
0.20
 41
0.20
  0
VERTEX
  8
8XV3_EC_PLATE_MIX_ISO-EDGE_CUTS
 10
128.861736
 20
-177.436082
 30
0.00
 42
0.0785975
  0
VERTEX
  8
8XV3_EC_PLATE_MIX_ISO-EDGE_CUTS
 10
129.478982
 20
-177.533712
 30
0.00
 42
0.00
  0
SEQEND
  0
POLYLINE
  8
8XV3_EC_PLATE_MIX_ISO-EDGE_CUTS
 66
1
 10
0.00
 20
0.00
 30
0.00
 40
0.20
 41
0.20
  0
VERTEX
  8
8XV3_EC_PLATE_MIX_ISO-EDGE_CUTS
 10
134.34956
 20
-188.05429
 30
0.00
  0
VERTEX
  8
8XV3_EC_PLATE_MIX_ISO-EDGE_CUTS
 10
134.34956
 20
-187.103712
 30
0.00
  0
SEQEND
  0
POLYLINE
  8
8XV3_EC_PLATE_MIX_ISO-EDGE_CUTS
 66
1
 10
0.00
 20
0.00
 30
0.00
 40
0.20
 41
0.20
  0
VERTEX
  8
8XV3_EC_PLATE_MIX_ISO-EDGE_CUTS
 10
135.34956
 20
-184.503712
 30
0.00
  0
VERTEX
  8
8XV3_EC_PLATE_MIX_ISO-EDGE_CUTS
 10
135.34956
 20
-186.103712
 30
0.00
  0
SEQEND
  0
POLYLINE
  8
8XV3_EC_PLATE_MIX_ISO-EDGE_CUTS
 66
1
 10
0.00
 20
0.00
 30
0.00
 40
0.20
 41
0.20
  0
VERTEX
  8
8XV3_EC_PLATE_MIX_ISO-EDGE_CUTS
 10
127.69956
 20
-179.313134
 30
0.00
  0
VERTEX
  8
8XV3_EC_PLATE_MIX_ISO-EDGE_CUTS
 10
127.69956
 20
-183.503712
 30
0.00
  0
SEQEND
  0
POLYLINE
  8
8XV3_EC_PLATE_MIX_ISO-EDGE_CUTS
 66
1
 10
0.00
 20
0.00
 30
0.00
 40
0.20
 41
0.20
  0
VERTEX
  8
8XV3_EC_PLATE_MIX_ISO-EDGE_CUTS
 10
127.69956
 20
-183.503712
 30
0.00
 42
0.4142136
  0
VERTEX
  8
8XV3_EC_PLATE_MIX_ISO-EDGE_CUTS
 10
126.69956
 20
-184.503712
 30
0.00
 42
0.00
  0
SEQEND
  0
POLYLINE
  8
8XV3_EC_PLATE_MIX_ISO-EDGE_CUTS
 66
1
 10
0.00
 20
0.00
 30
0.00
 40
0.20
 41
0.20
  0
VERTEX
  8
8XV3_EC_PLATE_MIX_ISO-EDGE_CUTS
 10
126.69956
 20
-186.103712
 30
0.00
 42
0.4142136
  0
VERTEX
  8
8XV3_EC_PLATE_MIX_ISO-EDGE_CUTS
 10
127.69956
 20
-187.103712
 30
0.00
 42
0.00
  0
SEQEND
  0
POLYLINE
  8
8XV3_EC_PLATE_MIX_ISO-EDGE_CUTS
 66
1
 10
0.00
 20
0.00
 30
0.00
 40
0.20
 41
0.20
  0
VERTEX
  8
8XV3_EC_PLATE_MIX_ISO-EDGE_CUTS
 10
132.570136
 20
-189.833712
 30
0.00
  0
VERTEX
  8
8XV3_EC_PLATE_MIX_ISO-EDGE_CUTS
 10
129.478982
 20
-189.833712
 30
0.00
  0
SEQEND
  0
POLYLINE
  8
8XV3_EC_PLATE_MIX_ISO-EDGE_CUTS
 66
1
 10
0.00
 20
0.00
 30
0.00
 40
0.20
 41
0.20
  0
VERTEX
  8
8XV3_EC_PLATE_MIX_ISO-EDGE_CUTS
 10
129.478982
 20
-189.833712
 30
0.00
 42
0.0785975
  0
VERTEX
  8
8XV3_EC_PLATE_MIX_ISO-EDGE_CUTS
 10
128.861736
 20
-189.931344
 30
0.00
 42
0.00
  0
SEQEND
  0
POLYLINE
  8
8XV3_EC_PLATE_MIX_ISO-EDGE_CUTS
 66
1
 10
0.00
 20
0.00
 30
0.00
 40
0.20
 41
0.20
  0
VERTEX
  8
8XV3_EC_PLATE_MIX_ISO-EDGE_CUTS
 10
133.187384
 20
-189.931344
 30
0.00
 42
0.6125149
  0
VERTEX
  8
8XV3_EC_PLATE_MIX_ISO-EDGE_CUTS
 10
134.447192
 20
-188.671536
 30
0.00
 42
0.00
  0
SEQEND
  0
POLYLINE
  8
8XV3_EC_PLATE_MIX_ISO-EDGE_CUTS
 66
1
 10
0.00
 20
0.00
 30
0.00
 40
0.20
 41
0.20
  0
VERTEX
  8
8XV3_EC_PLATE_MIX_ISO-EDGE_CUTS
 10
126.69956
 20
-184.503712
 30
0.00
  0
VERTEX
  8
8XV3_EC_PLATE_MIX_ISO-EDGE_CUTS
 10
126.69956
 20
-186.103712
 30
0.00
  0
SEQEND
  0
POLYLINE
  8
8XV3_EC_PLATE_MIX_ISO-EDGE_CUTS
 66
1
 10
0.00
 20
0.00
 30
0.00
 40
0.20
 41
0.20
  0
VERTEX
  8
8XV3_EC_PLATE_MIX_ISO-EDGE_CUTS
 10
135.34956
 20
-184.503712
 30
0.00
 42
0.4142136
  0
VERTEX
  8
8XV3_EC_PLATE_MIX_ISO-EDGE_CUTS
 10
134.34956
 20
-183.503712
 30
0.00
 42
0.00
  0
SEQEND
  0
POLYLINE
  8
8XV3_EC_PLATE_MIX_ISO-EDGE_CUTS
 66
1
 10
0.00
 20
0.00
 30
0.00
 40
0.20
 41
0.20
  0
VERTEX
  8
8XV3_EC_PLATE_MIX_ISO-EDGE_CUTS
 10
132.570136
 20
-177.533712
 30
0.00
 42
0.0785977
  0
VERTEX
  8
8XV3_EC_PLATE_MIX_ISO-EDGE_CUTS
 10
133.187384
 20
-177.436082
 30
0.00
 42
0.00
  0
SEQEND
  0
POLYLINE
  8
8XV3_EC_PLATE_MIX_ISO-EDGE_CUTS
 66
1
 10
0.00
 20
0.00
 30
0.00
 40
0.20
 41
0.20
  0
VERTEX
  8
8XV3_EC_PLATE_MIX_ISO-EDGE_CUTS
 10
134.44719
 20
-178.695888
 30
0.00
 42
0.6125152
  0
VERTEX
  8
8XV3_EC_PLATE_MIX_ISO-EDGE_CUTS
 10
133.187384
 20
-177.43608
 30
0.00
 42
0.00
  0
SEQEND
  0
POLYLINE
  8
8XV3_EC_PLATE_MIX_ISO-EDGE_CUTS
 66
1
 10
0.00
 20
0.00
 30
0.00
 40
0.20
 41
0.20
  0
VERTEX
  8
8XV3_EC_PLATE_MIX_ISO-EDGE_CUTS
 10
127.601928
 20
-188.671536
 30
0.00
 42
0.0785975
  0
VERTEX
  8
8XV3_EC_PLATE_MIX_ISO-EDGE_CUTS
 10
127.69956
 20
-188.05429
 30
0.00
 42
0.00
  0
SEQEND
  0
POLYLINE
  8
8XV3_EC_PLATE_MIX_ISO-EDGE_CUTS
 66
1
 10
0.00
 20
0.00
 30
0.00
 40
0.20
 41
0.20
  0
VERTEX
  8
8XV3_EC_PLATE_MIX_ISO-EDGE_CUTS
 10
129.478982
 20
-177.533712
 30
0.00
  0
VERTEX
  8
8XV3_EC_PLATE_MIX_ISO-EDGE_CUTS
 10
129.52456
 20
-177.533712
 30
0.00
  0
SEQEND
  0
POLYLINE
  8
8XV3_EC_PLATE_MIX_ISO-EDGE_CUTS
 66
1
 10
0.00
 20
0.00
 30
0.00
 40
0.20
 41
0.20
  0
VERTEX
  8
8XV3_EC_PLATE_MIX_ISO-EDGE_CUTS
 10
127.69956
 20
-188.05429
 30
0.00
  0
VERTEX
  8
8XV3_EC_PLATE_MIX_ISO-EDGE_CUTS
 10
127.69956
 20
-187.103712
 30
0.00
  0
SEQEND
  0
POLYLINE
  8
8XV3_EC_PLATE_MIX_ISO-EDGE_CUTS
 66
1
 10
0.00
 20
0.00
 30
0.00
 40
0.20
 41
0.20
  0
VERTEX
  8
8XV3_EC_PLATE_MIX_ISO-EDGE_CUTS
 10
127.601928
 20
-188.671536
 30
0.00
 42
0.6125149
  0
VERTEX
  8
8XV3_EC_PLATE_MIX_ISO-EDGE_CUTS
 10
128.861736
 20
-189.931344
 30
0.00
 42
0.00
  0
SEQEND
  0
POLYLINE
  8
8XV3_EC_PLATE_MIX_ISO-EDGE_CUTS
 66
1
 10
0.00
 20
0.00
 30
0.00
 40
0.20
 41
0.20
  0
VERTEX
  8
8XV3_EC_PLATE_MIX_ISO-EDGE_CUTS
 10
134.34956
 20
-188.05429
 30
0.00
 42
0.0785975
  0
VERTEX
  8
8XV3_EC_PLATE_MIX_ISO-EDGE_CUTS
 10
134.44719
 20
-188.671536
 30
0.00
 42
0.00
  0
SEQEND
  0
POLYLINE
  8
8XV3_EC_PLATE_MIX_ISO-EDGE_CUTS
 66
1
 10
0.00
 20
0.00
 30
0.00
 40
0.20
 41
0.20
  0
VERTEX
  8
8XV3_EC_PLATE_MIX_ISO-EDGE_CUTS
 10
134.44719
 20
-178.695888
 30
0.00
 42
0.0785975
  0
VERTEX
  8
8XV3_EC_PLATE_MIX_ISO-EDGE_CUTS
 10
134.34956
 20
-179.313134
 30
0.00
 42
0.00
  0
SEQEND
  0
POLYLINE
  8
8XV3_EC_PLATE_MIX_ISO-EDGE_CUTS
 66
1
 10
0.00
 20
0.00
 30
0.00
 40
0.20
 41
0.20
  0
VERTEX
  8
8XV3_EC_PLATE_MIX_ISO-EDGE_CUTS
 10
127.69956
 20
-179.313134
 30
0.00
 42
0.0785975
  0
VERTEX
  8
8XV3_EC_PLATE_MIX_ISO-EDGE_CUTS
 10
127.601928
 20
-178.695888
 30
0.00
 42
0.00
  0
SEQEND
  0
POLYLINE
  8
8XV3_EC_PLATE_MIX_ISO-EDGE_CUTS
 66
1
 10
0.00
 20
0.00
 30
0.00
 40
0.20
 41
0.20
  0
VERTEX
  8
8XV3_EC_PLATE_MIX_ISO-EDGE_CUTS
 10
132.52456
 20
-177.333712
 30
0.00
  0
VERTEX
  8
8XV3_EC_PLATE_MIX_ISO-EDGE_CUTS
 10
132.52456
 20
-177.533712
 30
0.00
  0
SEQEND
  0
POLYLINE
  8
8XV3_EC_PLATE_MIX_ISO-EDGE_CUTS
 66
1
 10
0.00
 20
0.00
 30
0.00
 40
0.20
 41
0.20
  0
VERTEX
  8
8XV3_EC_PLATE_MIX_ISO-EDGE_CUTS
 10
131.52456
 20
-176.333712
 30
0.00
  0
VERTEX
  8
8XV3_EC_PLATE_MIX_ISO-EDGE_CUTS
 10
130.52456
 20
-176.333712
 30
0.00
  0
SEQEND
  0
POLYLINE
  8
8XV3_EC_PLATE_MIX_ISO-EDGE_CUTS
 66
1
 10
0.00
 20
0.00
 30
0.00
 40
0.20
 41
0.20
  0
VERTEX
  8
8XV3_EC_PLATE_MIX_ISO-EDGE_CUTS
 10
128.861736
 20
-177.436082
 30
0.00
 42
0.6125152
  0
VERTEX
  8
8XV3_EC_PLATE_MIX_ISO-EDGE_CUTS
 10
127.601928
 20
-178.695888
 30
0.00
 42
0.00
  0
SEQEND
  0
POLYLINE
  8
8XV3_EC_PLATE_MIX_ISO-EDGE_CUTS
 66
1
 10
0.00
 20
0.00
 30
0.00
 40
0.20
 41
0.20
  0
VERTEX
  8
8XV3_EC_PLATE_MIX_ISO-EDGE_CUTS
 10
132.52456
 20
-177.333712
 30
0.00
 42
0.4142136
  0
VERTEX
  8
8XV3_EC_PLATE_MIX_ISO-EDGE_CUTS
 10
131.52456
 20
-176.333712
 30
0.00
 42
0.00
  0
SEQEND
  0
POLYLINE
  8
8XV3_EC_PLATE_MIX_ISO-EDGE_CUTS
 66
1
 10
0.00
 20
0.00
 30
0.00
 40
0.20
 41
0.20
  0
VERTEX
  8
8XV3_EC_PLATE_MIX_ISO-EDGE_CUTS
 10
129.52456
 20
-177.333712
 30
0.00
  0
VERTEX
  8
8XV3_EC_PLATE_MIX_ISO-EDGE_CUTS
 10
129.52456
 20
-177.533712
 30
0.00
  0
SEQEND
  0
POLYLINE
  8
8XV3_EC_PLATE_MIX_ISO-EDGE_CUTS
 66
1
 10
0.00
 20
0.00
 30
0.00
 40
0.20
 41
0.20
  0
VERTEX
  8
8XV3_EC_PLATE_MIX_ISO-EDGE_CUTS
 10
134.34956
 20
-187.103712
 30
0.00
 42
0.4142136
  0
VERTEX
  8
8XV3_EC_PLATE_MIX_ISO-EDGE_CUTS
 10
135.34956
 20
-186.103712
 30
0.00
 42
0.00
  0
SEQEND
  0
POLYLINE
  8
8XV3_EC_PLATE_MIX_ISO-EDGE_CUTS
 66
1
 10
0.00
 20
0.00
 30
0.00
 40
0.20
 41
0.20
  0
VERTEX
  8
8XV3_EC_PLATE_MIX_ISO-EDGE_CUTS
 10
130.52456
 20
-176.333712
 30
0.00
 42
0.4142136
  0
VERTEX
  8
8XV3_EC_PLATE_MIX_ISO-EDGE_CUTS
 10
129.52456
 20
-177.333712
 30
0.00
 42
0.00
  0
SEQEND
  0
POLYLINE
  8
8XV3_EC_PLATE_MIX_ISO-EDGE_CUTS
 66
1
 10
0.00
 20
0.00
 30
0.00
 40
0.20
 41
0.20
  0
VERTEX
  8
8XV3_EC_PLATE_MIX_ISO-EDGE_CUTS
 10
132.570136
 20
-177.533712
 30
0.00
  0
VERTEX
  8
8XV3_EC_PLATE_MIX_ISO-EDGE_CUTS
 10
132.52456
 20
-177.533712
 30
0.00
  0
SEQEND
  0
POLYLINE
  8
8XV3_EC_PLATE_MIX_ISO-EDGE_CUTS
 66
1
 10
0.00
 20
0.00
 30
0.00
 40
0.20
 41
0.20
  0
VERTEX
  8
8XV3_EC_PLATE_MIX_ISO-EDGE_CUTS
 10
246.870138
 20
-177.533712
 30
0.00
  0
VERTEX
  8
8XV3_EC_PLATE_MIX_ISO-EDGE_CUTS
 10
246.82456
 20
-177.533712
 30
0.00
  0
SEQEND
  0
POLYLINE
  8
8XV3_EC_PLATE_MIX_ISO-EDGE_CUTS
 66
1
 10
0.00
 20
0.00
 30
0.00
 40
0.20
 41
0.20
  0
VERTEX
  8
8XV3_EC_PLATE_MIX_ISO-EDGE_CUTS
 10
224.12756
 20
-75.803332
 30
0.00
 42
0.4142136
  0
VERTEX
  8
8XV3_EC_PLATE_MIX_ISO-EDGE_CUTS
 10
225.62756
 20
-77.303332
 30
0.00
 42
0.00
  0
SEQEND
  0
POLYLINE
  8
8XV3_EC_PLATE_MIX_ISO-EDGE_CUTS
 66
1
 10
0.00
 20
0.00
 30
0.00
 40
0.20
 41
0.20
  0
VERTEX
  8
8XV3_EC_PLATE_MIX_ISO-EDGE_CUTS
 10
227.02756
 20
-77.303332
 30
0.00
 42
0.4142136
  0
VERTEX
  8
8XV3_EC_PLATE_MIX_ISO-EDGE_CUTS
 10
228.52756
 20
-75.803332
 30
0.00
 42
0.00
  0
SEQEND
  0
POLYLINE
  8
8XV3_EC_PLATE_MIX_ISO-EDGE_CUTS
 66
1
 10
0.00
 20
0.00
 30
0.00
 40
0.20
 41
0.20
  0
VERTEX
  8
8XV3_EC_PLATE_MIX_ISO-EDGE_CUTS
 10
227.02756
 20
-77.303332
 30
0.00
  0
VERTEX
  8
8XV3_EC_PLATE_MIX_ISO-EDGE_CUTS
 10
225.62756
 20
-77.303332
 30
0.00
  0
SEQEND
  0
POLYLINE
  8
8XV3_EC_PLATE_MIX_ISO-EDGE_CUTS
 66
1
 10
0.00
 20
0.00
 30
0.00
 40
0.20
 41
0.20
  0
VERTEX
  8
8XV3_EC_PLATE_MIX_ISO-EDGE_CUTS
 10
249.64956
 20
-184.503712
 30
0.00
  0
VERTEX
  8
8XV3_EC_PLATE_MIX_ISO-EDGE_CUTS
 10
249.64956
 20
-186.103712
 30
0.00
  0
SEQEND
  0
POLYLINE
  8
8XV3_EC_PLATE_MIX_ISO-EDGE_CUTS
 66
1
 10
0.00
 20
0.00
 30
0.00
 40
0.20
 41
0.20
  0
VERTEX
  8
8XV3_EC_PLATE_MIX_ISO-EDGE_CUTS
 10
249.64956
 20
-184.503712
 30
0.00
 42
0.4142136
  0
VERTEX
  8
8XV3_EC_PLATE_MIX_ISO-EDGE_CUTS
 10
248.64956
 20
-183.503712
 30
0.00
 42
0.00
  0
SEQEND
  0
POLYLINE
  8
8XV3_EC_PLATE_MIX_ISO-EDGE_CUTS
 66
1
 10
0.00
 20
0.00
 30
0.00
 40
0.20
 41
0.20
  0
VERTEX
  8
8XV3_EC_PLATE_MIX_ISO-EDGE_CUTS
 10
240.99956
 20
-186.103712
 30
0.00
 42
0.4142136
  0
VERTEX
  8
8XV3_EC_PLATE_MIX_ISO-EDGE_CUTS
 10
241.99956
 20
-187.103712
 30
0.00
 42
0.00
  0
SEQEND
  0
POLYLINE
  8
8XV3_EC_PLATE_MIX_ISO-EDGE_CUTS
 66
1
 10
0.00
 20
0.00
 30
0.00
 40
0.20
 41
0.20
  0
VERTEX
  8
8XV3_EC_PLATE_MIX_ISO-EDGE_CUTS
 10
248.64956
 20
-188.05429
 30
0.00
  0
VERTEX
  8
8XV3_EC_PLATE_MIX_ISO-EDGE_CUTS
 10
248.64956
 20
-187.103712
 30
0.00
  0
SEQEND
  0
POLYLINE
  8
8XV3_EC_PLATE_MIX_ISO-EDGE_CUTS
 66
1
 10
0.00
 20
0.00
 30
0.00
 40
0.20
 41
0.20
  0
VERTEX
  8
8XV3_EC_PLATE_MIX_ISO-EDGE_CUTS
 10
241.99956
 20
-188.05429
 30
0.00
  0
VERTEX
  8
8XV3_EC_PLATE_MIX_ISO-EDGE_CUTS
 10
241.99956
 20
-187.103712
 30
0.00
  0
SEQEND
  0
POLYLINE
  8
8XV3_EC_PLATE_MIX_ISO-EDGE_CUTS
 66
1
 10
0.00
 20
0.00
 30
0.00
 40
0.20
 41
0.20
  0
VERTEX
  8
8XV3_EC_PLATE_MIX_ISO-EDGE_CUTS
 10
241.99956
 20
-183.503712
 30
0.00
 42
0.4142136
  0
VERTEX
  8
8XV3_EC_PLATE_MIX_ISO-EDGE_CUTS
 10
240.99956
 20
-184.503712
 30
0.00
 42
0.00
  0
SEQEND
  0
POLYLINE
  8
8XV3_EC_PLATE_MIX_ISO-EDGE_CUTS
 66
1
 10
0.00
 20
0.00
 30
0.00
 40
0.20
 41
0.20
  0
VERTEX
  8
8XV3_EC_PLATE_MIX_ISO-EDGE_CUTS
 10
240.99956
 20
-184.503712
 30
0.00
  0
VERTEX
  8
8XV3_EC_PLATE_MIX_ISO-EDGE_CUTS
 10
240.99956
 20
-186.103712
 30
0.00
  0
SEQEND
  0
POLYLINE
  8
8XV3_EC_PLATE_MIX_ISO-EDGE_CUTS
 66
1
 10
0.00
 20
0.00
 30
0.00
 40
0.20
 41
0.20
  0
VERTEX
  8
8XV3_EC_PLATE_MIX_ISO-EDGE_CUTS
 10
248.64956
 20
-179.313134
 30
0.00
  0
VERTEX
  8
8XV3_EC_PLATE_MIX_ISO-EDGE_CUTS
 10
248.64956
 20
-183.503712
 30
0.00
  0
SEQEND
  0
POLYLINE
  8
8XV3_EC_PLATE_MIX_ISO-EDGE_CUTS
 66
1
 10
0.00
 20
0.00
 30
0.00
 40
0.20
 41
0.20
  0
VERTEX
  8
8XV3_EC_PLATE_MIX_ISO-EDGE_CUTS
 10
248.64956
 20
-187.103712
 30
0.00
 42
0.4142136
  0
VERTEX
  8
8XV3_EC_PLATE_MIX_ISO-EDGE_CUTS
 10
249.64956
 20
-186.103712
 30
0.00
 42
0.00
  0
SEQEND
  0
POLYLINE
  8
8XV3_EC_PLATE_MIX_ISO-EDGE_CUTS
 66
1
 10
0.00
 20
0.00
 30
0.00
 40
0.20
 41
0.20
  0
VERTEX
  8
8XV3_EC_PLATE_MIX_ISO-EDGE_CUTS
 10
243.778982
 20
-177.533712
 30
0.00
  0
VERTEX
  8
8XV3_EC_PLATE_MIX_ISO-EDGE_CUTS
 10
243.82456
 20
-177.533712
 30
0.00
  0
SEQEND
  0
POLYLINE
  8
8XV3_EC_PLATE_MIX_ISO-EDGE_CUTS
 66
1
 10
0.00
 20
0.00
 30
0.00
 40
0.20
 41
0.20
  0
VERTEX
  8
8XV3_EC_PLATE_MIX_ISO-EDGE_CUTS
 10
243.778982
 20
-189.833712
 30
0.00
 42
0.0785975
  0
VERTEX
  8
8XV3_EC_PLATE_MIX_ISO-EDGE_CUTS
 10
243.161736
 20
-189.931344
 30
0.00
 42
0.00
  0
SEQEND
  0
POLYLINE
  8
8XV3_EC_PLATE_MIX_ISO-EDGE_CUTS
 66
1
 10
0.00
 20
0.00
 30
0.00
 40
0.20
 41
0.20
  0
VERTEX
  8
8XV3_EC_PLATE_MIX_ISO-EDGE_CUTS
 10
246.82456
 20
-177.333712
 30
0.00
 42
0.4142136
  0
VERTEX
  8
8XV3_EC_PLATE_MIX_ISO-EDGE_CUTS
 10
245.82456
 20
-176.333712
 30
0.00
 42
0.00
  0
SEQEND
  0
POLYLINE
  8
8XV3_EC_PLATE_MIX_ISO-EDGE_CUTS
 66
1
 10
0.00
 20
0.00
 30
0.00
 40
0.20
 41
0.20
  0
VERTEX
  8
8XV3_EC_PLATE_MIX_ISO-EDGE_CUTS
 10
246.870138
 20
-189.833712
 30
0.00
  0
VERTEX
  8
8XV3_EC_PLATE_MIX_ISO-EDGE_CUTS
 10
243.778982
 20
-189.833712
 30
0.00
  0
SEQEND
  0
POLYLINE
  8
8XV3_EC_PLATE_MIX_ISO-EDGE_CUTS
 66
1
 10
0.00
 20
0.00
 30
0.00
 40
0.20
 41
0.20
  0
VERTEX
  8
8XV3_EC_PLATE_MIX_ISO-EDGE_CUTS
 10
243.82456
 20
-177.333712
 30
0.00
  0
VERTEX
  8
8XV3_EC_PLATE_MIX_ISO-EDGE_CUTS
 10
243.82456
 20
-177.533712
 30
0.00
  0
SEQEND
  0
POLYLINE
  8
8XV3_EC_PLATE_MIX_ISO-EDGE_CUTS
 66
1
 10
0.00
 20
0.00
 30
0.00
 40
0.20
 41
0.20
  0
VERTEX
  8
8XV3_EC_PLATE_MIX_ISO-EDGE_CUTS
 10
241.901928
 20
-188.671536
 30
0.00
 42
0.0785975
  0
VERTEX
  8
8XV3_EC_PLATE_MIX_ISO-EDGE_CUTS
 10
241.99956
 20
-188.05429
 30
0.00
 42
0.00
  0
SEQEND
  0
POLYLINE
  8
8XV3_EC_PLATE_MIX_ISO-EDGE_CUTS
 66
1
 10
0.00
 20
0.00
 30
0.00
 40
0.20
 41
0.20
  0
VERTEX
  8
8XV3_EC_PLATE_MIX_ISO-EDGE_CUTS
 10
243.161736
 20
-177.436082
 30
0.00
 42
0.6125152
  0
VERTEX
  8
8XV3_EC_PLATE_MIX_ISO-EDGE_CUTS
 10
241.901928
 20
-178.695888
 30
0.00
 42
0.00
  0
SEQEND
  0
POLYLINE
  8
8XV3_EC_PLATE_MIX_ISO-EDGE_CUTS
 66
1
 10
0.00
 20
0.00
 30
0.00
 40
0.20
 41
0.20
  0
VERTEX
  8
8XV3_EC_PLATE_MIX_ISO-EDGE_CUTS
 10
247.487384
 20
-189.931344
 30
0.00
 42
0.6125149
  0
VERTEX
  8
8XV3_EC_PLATE_MIX_ISO-EDGE_CUTS
 10
248.747192
 20
-188.671536
 30
0.00
 42
0.00
  0
SEQEND
  0
POLYLINE
  8
8XV3_EC_PLATE_MIX_ISO-EDGE_CUTS
 66
1
 10
0.00
 20
0.00
 30
0.00
 40
0.20
 41
0.20
  0
VERTEX
  8
8XV3_EC_PLATE_MIX_ISO-EDGE_CUTS
 10
245.82456
 20
-176.333712
 30
0.00
  0
VERTEX
  8
8XV3_EC_PLATE_MIX_ISO-EDGE_CUTS
 10
244.82456
 20
-176.333712
 30
0.00
  0
SEQEND
  0
POLYLINE
  8
8XV3_EC_PLATE_MIX_ISO-EDGE_CUTS
 66
1
 10
0.00
 20
0.00
 30
0.00
 40
0.20
 41
0.20
  0
VERTEX
  8
8XV3_EC_PLATE_MIX_ISO-EDGE_CUTS
 10
246.82456
 20
-177.333712
 30
0.00
  0
VERTEX
  8
8XV3_EC_PLATE_MIX_ISO-EDGE_CUTS
 10
246.82456
 20
-177.533712
 30
0.00
  0
SEQEND
  0
POLYLINE
  8
8XV3_EC_PLATE_MIX_ISO-EDGE_CUTS
 66
1
 10
0.00
 20
0.00
 30
0.00
 40
0.20
 41
0.20
  0
VERTEX
  8
8XV3_EC_PLATE_MIX_ISO-EDGE_CUTS
 10
248.74719
 20
-178.695888
 30
0.00
 42
0.0785975
  0
VERTEX
  8
8XV3_EC_PLATE_MIX_ISO-EDGE_CUTS
 10
248.64956
 20
-179.313134
 30
0.00
 42
0.00
  0
SEQEND
  0
POLYLINE
  8
8XV3_EC_PLATE_MIX_ISO-EDGE_CUTS
 66
1
 10
0.00
 20
0.00
 30
0.00
 40
0.20
 41
0.20
  0
VERTEX
  8
8XV3_EC_PLATE_MIX_ISO-EDGE_CUTS
 10
243.161736
 20
-177.436082
 30
0.00
 42
0.0785975
  0
VERTEX
  8
8XV3_EC_PLATE_MIX_ISO-EDGE_CUTS
 10
243.778982
 20
-177.533712
 30
0.00
 42
0.00
  0
SEQEND
  0
POLYLINE
  8
8XV3_EC_PLATE_MIX_ISO-EDGE_CUTS
 66
1
 10
0.00
 20
0.00
 30
0.00
 40
0.20
 41
0.20
  0
VERTEX
  8
8XV3_EC_PLATE_MIX_ISO-EDGE_CUTS
 10
246.870138
 20
-177.533712
 30
0.00
 42
0.0785975
  0
VERTEX
  8
8XV3_EC_PLATE_MIX_ISO-EDGE_CUTS
 10
247.487384
 20
-177.436082
 30
0.00
 42
0.00
  0
SEQEND
  0
POLYLINE
  8
8XV3_EC_PLATE_MIX_ISO-EDGE_CUTS
 66
1
 10
0.00
 20
0.00
 30
0.00
 40
0.20
 41
0.20
  0
VERTEX
  8
8XV3_EC_PLATE_MIX_ISO-EDGE_CUTS
 10
241.99956
 20
-179.313134
 30
0.00
 42
0.0785975
  0
VERTEX
  8
8XV3_EC_PLATE_MIX_ISO-EDGE_CUTS
 10
241.901928
 20
-178.695888
 30
0.00
 42
0.00
  0
SEQEND
  0
POLYLINE
  8
8XV3_EC_PLATE_MIX_ISO-EDGE_CUTS
 66
1
 10
0.00
 20
0.00
 30
0.00
 40
0.20
 41
0.20
  0
VERTEX
  8
8XV3_EC_PLATE_MIX_ISO-EDGE_CUTS
 10
244.82456
 20
-176.333712
 30
0.00
 42
0.4142136
  0
VERTEX
  8
8XV3_EC_PLATE_MIX_ISO-EDGE_CUTS
 10
243.82456
 20
-177.333712
 30
0.00
 42
0.00
  0
SEQEND
  0
POLYLINE
  8
8XV3_EC_PLATE_MIX_ISO-EDGE_CUTS
 66
1
 10
0.00
 20
0.00
 30
0.00
 40
0.20
 41
0.20
  0
VERTEX
  8
8XV3_EC_PLATE_MIX_ISO-EDGE_CUTS
 10
247.487384
 20
-189.931344
 30
0.00
 42
0.0785975
  0
VERTEX
  8
8XV3_EC_PLATE_MIX_ISO-EDGE_CUTS
 10
246.870138
 20
-189.833712
 30
0.00
 42
0.00
  0
SEQEND
  0
POLYLINE
  8
8XV3_EC_PLATE_MIX_ISO-EDGE_CUTS
 66
1
 10
0.00
 20
0.00
 30
0.00
 40
0.20
 41
0.20
  0
VERTEX
  8
8XV3_EC_PLATE_MIX_ISO-EDGE_CUTS
 10
248.64956
 20
-188.05429
 30
0.00
 42
0.0785975
  0
VERTEX
  8
8XV3_EC_PLATE_MIX_ISO-EDGE_CUTS
 10
248.74719
 20
-188.671536
 30
0.00
 42
0.00
  0
SEQEND
  0
POLYLINE
  8
8XV3_EC_PLATE_MIX_ISO-EDGE_CUTS
 66
1
 10
0.00
 20
0.00
 30
0.00
 40
0.20
 41
0.20
  0
VERTEX
  8
8XV3_EC_PLATE_MIX_ISO-EDGE_CUTS
 10
248.74719
 20
-178.695888
 30
0.00
 42
0.6125152
  0
VERTEX
  8
8XV3_EC_PLATE_MIX_ISO-EDGE_CUTS
 10
247.487384
 20
-177.43608
 30
0.00
 42
0.00
  0
SEQEND
  0
POLYLINE
  8
8XV3_EC_PLATE_MIX_ISO-EDGE_CUTS
 66
1
 10
0.00
 20
0.00
 30
0.00
 40
0.20
 41
0.20
  0
VERTEX
  8
8XV3_EC_PLATE_MIX_ISO-EDGE_CUTS
 10
241.901928
 20
-188.671536
 30
0.00
 42
0.6125149
  0
VERTEX
  8
8XV3_EC_PLATE_MIX_ISO-EDGE_CUTS
 10
243.161736
 20
-189.931344
 30
0.00
 42
0.00
  0
SEQEND
  0
POLYLINE
  8
8XV3_EC_PLATE_MIX_ISO-EDGE_CUTS
 66
1
 10
0.00
 20
0.00
 30
0.00
 40
0.20
 41
0.20
  0
VERTEX
  8
8XV3_EC_PLATE_MIX_ISO-EDGE_CUTS
 10
228.52756
 20
-75.553332
 30
0.00
  0
VERTEX
  8
8XV3_EC_PLATE_MIX_ISO-EDGE_CUTS
 10
228.52756
 20
-75.803332
 30
0.00
  0
SEQEND
  0
POLYLINE
  8
8XV3_EC_PLATE_MIX_ISO-EDGE_CUTS
 66
1
 10
0.00
 20
0.00
 30
0.00
 40
0.20
 41
0.20
  0
VERTEX
  8
8XV3_EC_PLATE_MIX_ISO-EDGE_CUTS
 10
224.12756
 20
-75.803332
 30
0.00
  0
VERTEX
  8
8XV3_EC_PLATE_MIX_ISO-EDGE_CUTS
 10
224.12756
 20
-75.553332
 30
0.00
  0
SEQEND
  0
POLYLINE
  8
8XV3_EC_PLATE_MIX_ISO-EDGE_CUTS
 66
1
 10
0.00
 20
0.00
 30
0.00
 40
0.20
 41
0.20
  0
VERTEX
  8
8XV3_EC_PLATE_MIX_ISO-EDGE_CUTS
 10
205.72506
 20
-192.853332
 30
0.00
  0
VERTEX
  8
8XV3_EC_PLATE_MIX_ISO-EDGE_CUTS
 10
260.88756
 20
-192.853332
 30
0.00
  0
SEQEND
  0
POLYLINE
  8
8XV3_EC_PLATE_MIX_ISO-EDGE_CUTS
 66
1
 10
0.00
 20
0.00
 30
0.00
 40
0.20
 41
0.20
  0
VERTEX
  8
8XV3_EC_PLATE_MIX_ISO-EDGE_CUTS
 10
123.785008
 20
-192.853332
 30
0.00
  0
VERTEX
  8
8XV3_EC_PLATE_MIX_ISO-EDGE_CUTS
 10
170.72506
 20
-192.853332
 30
0.00
  0
SEQEND
  0
POLYLINE
  8
8XV3_EC_PLATE_MIX_ISO-EDGE_CUTS
 66
1
 10
0.00
 20
0.00
 30
0.00
 40
0.20
 41
0.20
  0
VERTEX
  8
8XV3_EC_PLATE_MIX_ISO-EDGE_CUTS
 10
232.68006
 20
-71.053332
 30
0.00
  0
VERTEX
  8
8XV3_EC_PLATE_MIX_ISO-EDGE_CUTS
 10
232.68006
 20
-70.603332
 30
0.00
  0
SEQEND
  0
POLYLINE
  8
8XV3_EC_PLATE_MIX_ISO-EDGE_CUTS
 66
1
 10
0.00
 20
0.00
 30
0.00
 40
0.20
 41
0.20
  0
VERTEX
  8
8XV3_EC_PLATE_MIX_ISO-EDGE_CUTS
 10
391.73006
 20
-138.203332
 30
0.00
  0
VERTEX
  8
8XV3_EC_PLATE_MIX_ISO-EDGE_CUTS
 10
356.58006
 20
-138.203332
 30
0.00
  0
SEQEND
  0
POLYLINE
  8
8XV3_EC_PLATE_MIX_ISO-EDGE_CUTS
 66
1
 10
0.00
 20
0.00
 30
0.00
 40
0.20
 41
0.20
  0
VERTEX
  8
8XV3_EC_PLATE_MIX_ISO-EDGE_CUTS
 10
218.45256
 20
-70.603332
 30
0.00
  0
VERTEX
  8
8XV3_EC_PLATE_MIX_ISO-EDGE_CUTS
 10
218.45256
 20
-71.053332
 30
0.00
  0
SEQEND
  0
POLYLINE
  8
8XV3_EC_PLATE_MIX_ISO-EDGE_CUTS
 66
1
 10
0.00
 20
0.00
 30
0.00
 40
0.20
 41
0.20
  0
VERTEX
  8
8XV3_EC_PLATE_MIX_ISO-EDGE_CUTS
 10
391.73006
 20
-154.203332
 30
0.00
  0
VERTEX
  8
8XV3_EC_PLATE_MIX_ISO-EDGE_CUTS
 10
356.58006
 20
-154.203332
 30
0.00
  0
SEQEND
  0
POLYLINE
  8
8XV3_EC_PLATE_MIX_ISO-EDGE_CUTS
 66
1
 10
0.00
 20
0.00
 30
0.00
 40
0.20
 41
0.20
  0
VERTEX
  8
8XV3_EC_PLATE_MIX_ISO-EDGE_CUTS
 10
208.22506
 20
-196.803332
 30
0.00
  0
VERTEX
  8
8XV3_EC_PLATE_MIX_ISO-EDGE_CUTS
 10
208.22506
 20
-196.353332
 30
0.00
  0
SEQEND
  0
POLYLINE
  8
8XV3_EC_PLATE_MIX_ISO-EDGE_CUTS
 66
1
 10
0.00
 20
0.00
 30
0.00
 40
0.20
 41
0.20
  0
VERTEX
  8
8XV3_EC_PLATE_MIX_ISO-EDGE_CUTS
 10
57.87506
 20
-196.803332
 30
0.00
  0
VERTEX
  8
8XV3_EC_PLATE_MIX_ISO-EDGE_CUTS
 10
57.87506
 20
-193.853332
 30
0.00
  0
SEQEND
  0
POLYLINE
  8
8XV3_EC_PLATE_MIX_ISO-EDGE_CUTS
 66
1
 10
0.00
 20
0.00
 30
0.00
 40
0.20
 41
0.20
  0
VERTEX
  8
8XV3_EC_PLATE_MIX_ISO-EDGE_CUTS
 10
63.377574
 20
-196.803332
 30
0.00
  0
VERTEX
  8
8XV3_EC_PLATE_MIX_ISO-EDGE_CUTS
 10
63.377574
 20
-196.353332
 30
0.00
  0
SEQEND
  0
POLYLINE
  8
8XV3_EC_PLATE_MIX_ISO-EDGE_CUTS
 66
1
 10
0.00
 20
0.00
 30
0.00
 40
0.20
 41
0.20
  0
VERTEX
  8
8XV3_EC_PLATE_MIX_ISO-EDGE_CUTS
 10
57.87506
 20
-73.553332
 30
0.00
  0
VERTEX
  8
8XV3_EC_PLATE_MIX_ISO-EDGE_CUTS
 10
57.87506
 20
-70.603332
 30
0.00
  0
SEQEND
  0
POLYLINE
  8
8XV3_EC_PLATE_MIX_ISO-EDGE_CUTS
 66
1
 10
0.00
 20
0.00
 30
0.00
 40
0.20
 41
0.20
  0
VERTEX
  8
8XV3_EC_PLATE_MIX_ISO-EDGE_CUTS
 10
60.87506
 20
-71.053332
 30
0.00
  0
VERTEX
  8
8XV3_EC_PLATE_MIX_ISO-EDGE_CUTS
 10
60.87506
 20
-70.603332
 30
0.00
  0
SEQEND
  0
POLYLINE
  8
8XV3_EC_PLATE_MIX_ISO-EDGE_CUTS
 66
1
 10
0.00
 20
0.00
 30
0.00
 40
0.20
 41
0.20
  0
VERTEX
  8
8XV3_EC_PLATE_MIX_ISO-EDGE_CUTS
 10
46.32506
 20
-75.553332
 30
0.00
  0
VERTEX
  8
8XV3_EC_PLATE_MIX_ISO-EDGE_CUTS
 10
46.32506
 20
-191.853332
 30
0.00
  0
SEQEND
  0
POLYLINE
  8
8XV3_EC_PLATE_MIX_ISO-EDGE_CUTS
 66
1
 10
0.00
 20
0.00
 30
0.00
 40
0.20
 41
0.20
  0
VERTEX
  8
8XV3_EC_PLATE_MIX_ISO-EDGE_CUTS
 10
51.87506
 20
-70.603332
 30
0.00
  0
VERTEX
  8
8XV3_EC_PLATE_MIX_ISO-EDGE_CUTS
 10
51.87506
 20
-73.553332
 30
0.00
  0
SEQEND
  0
POLYLINE
  8
8XV3_EC_PLATE_MIX_ISO-EDGE_CUTS
 66
1
 10
0.00
 20
0.00
 30
0.00
 40
0.20
 41
0.20
  0
VERTEX
  8
8XV3_EC_PLATE_MIX_ISO-EDGE_CUTS
 10
51.87506
 20
-193.853332
 30
0.00
  0
VERTEX
  8
8XV3_EC_PLATE_MIX_ISO-EDGE_CUTS
 10
51.87506
 20
-196.803332
 30
0.00
  0
SEQEND
  0
POLYLINE
  8
8XV3_EC_PLATE_MIX_ISO-EDGE_CUTS
 66
1
 10
0.00
 20
0.00
 30
0.00
 40
0.20
 41
0.20
  0
VERTEX
  8
8XV3_EC_PLATE_MIX_ISO-EDGE_CUTS
 10
116.785008
 20
-193.853332
 30
0.00
  0
VERTEX
  8
8XV3_EC_PLATE_MIX_ISO-EDGE_CUTS
 10
116.785008
 20
-196.803332
 30
0.00
  0
SEQEND
  0
POLYLINE
  8
8XV3_EC_PLATE_MIX_ISO-EDGE_CUTS
 66
1
 10
0.00
 20
0.00
 30
0.00
 40
0.20
 41
0.20
  0
VERTEX
  8
8XV3_EC_PLATE_MIX_ISO-EDGE_CUTS
 10
114.87506
 20
-70.553332
 30
0.00
  0
VERTEX
  8
8XV3_EC_PLATE_MIX_ISO-EDGE_CUTS
 10
114.87506
 20
-70.103332
 30
0.00
  0
SEQEND
  0
POLYLINE
  8
8XV3_EC_PLATE_MIX_ISO-EDGE_CUTS
 66
1
 10
0.00
 20
0.00
 30
0.00
 40
0.20
 41
0.20
  0
VERTEX
  8
8XV3_EC_PLATE_MIX_ISO-EDGE_CUTS
 10
103.377574
 20
-196.803332
 30
0.00
  0
VERTEX
  8
8XV3_EC_PLATE_MIX_ISO-EDGE_CUTS
 10
103.377574
 20
-196.353332
 30
0.00
  0
SEQEND
  0
POLYLINE
  8
8XV3_EC_PLATE_MIX_ISO-EDGE_CUTS
 66
1
 10
0.00
 20
0.00
 30
0.00
 40
0.20
 41
0.20
  0
VERTEX
  8
8XV3_EC_PLATE_MIX_ISO-EDGE_CUTS
 10
100.87506
 20
-70.553332
 30
0.00
  0
VERTEX
  8
8XV3_EC_PLATE_MIX_ISO-EDGE_CUTS
 10
100.87506
 20
-70.103332
 30
0.00
  0
SEQEND
  0
POLYLINE
  8
8XV3_EC_PLATE_MIX_ISO-EDGE_CUTS
 66
1
 10
0.00
 20
0.00
 30
0.00
 40
0.20
 41
0.20
  0
VERTEX
  8
8XV3_EC_PLATE_MIX_ISO-EDGE_CUTS
 10
122.785008
 20
-196.803332
 30
0.00
  0
VERTEX
  8
8XV3_EC_PLATE_MIX_ISO-EDGE_CUTS
 10
122.785008
 20
-193.853332
 30
0.00
  0
SEQEND
  0
POLYLINE
  8
8XV3_EC_PLATE_MIX_ISO-EDGE_CUTS
 66
1
 10
0.00
 20
0.00
 30
0.00
 40
0.20
 41
0.20
  0
VERTEX
  8
8XV3_EC_PLATE_MIX_ISO-EDGE_CUTS
 10
356.58006
 20
-154.203332
 30
0.00
  0
VERTEX
  8
8XV3_EC_PLATE_MIX_ISO-EDGE_CUTS
 10
356.58006
 20
-138.203332
 30
0.00
  0
SEQEND
  0
POLYLINE
  8
8XV3_EC_PLATE_MIX_ISO-EDGE_CUTS
 66
1
 10
0.00
 20
0.00
 30
0.00
 40
0.20
 41
0.20
  0
VERTEX
  8
8XV3_EC_PLATE_MIX_ISO-EDGE_CUTS
 10
338.68006
 20
-70.553332
 30
0.00
  0
VERTEX
  8
8XV3_EC_PLATE_MIX_ISO-EDGE_CUTS
 10
338.68006
 20
-70.103332
 30
0.00
  0
SEQEND
  0
POLYLINE
  8
8XV3_EC_PLATE_MIX_ISO-EDGE_CUTS
 66
1
 10
0.00
 20
0.00
 30
0.00
 40
0.20
 41
0.20
  0
VERTEX
  8
8XV3_EC_PLATE_MIX_ISO-EDGE_CUTS
 10
324.68006
 20
-196.853332
 30
0.00
  0
VERTEX
  8
8XV3_EC_PLATE_MIX_ISO-EDGE_CUTS
 10
324.68006
 20
-197.303332
 30
0.00
  0
SEQEND
  0
POLYLINE
  8
8XV3_EC_PLATE_MIX_ISO-EDGE_CUTS
 66
1
 10
0.00
 20
0.00
 30
0.00
 40
0.20
 41
0.20
  0
VERTEX
  8
8XV3_EC_PLATE_MIX_ISO-EDGE_CUTS
 10
338.68006
 20
-196.853332
 30
0.00
  0
VERTEX
  8
8XV3_EC_PLATE_MIX_ISO-EDGE_CUTS
 10
338.68006
 20
-197.303332
 30
0.00
  0
SEQEND
  0
POLYLINE
  8
8XV3_EC_PLATE_MIX_ISO-EDGE_CUTS
 66
1
 10
0.00
 20
0.00
 30
0.00
 40
0.20
 41
0.20
  0
VERTEX
  8
8XV3_EC_PLATE_MIX_ISO-EDGE_CUTS
 10
324.68006
 20
-70.553332
 30
0.00
  0
VERTEX
  8
8XV3_EC_PLATE_MIX_ISO-EDGE_CUTS
 10
324.68006
 20
-70.103332
 30
0.00
  0
SEQEND
  0
POLYLINE
  8
8XV3_EC_PLATE_MIX_ISO-EDGE_CUTS
 66
1
 10
0.00
 20
0.00
 30
0.00
 40
0.20
 41
0.20
  0
VERTEX
  8
8XV3_EC_PLATE_MIX_ISO-EDGE_CUTS
 10
323.68006
 20
-69.103332
 30
0.00
  0
VERTEX
  8
8XV3_EC_PLATE_MIX_ISO-EDGE_CUTS
 10
286.18006
 20
-69.103332
 30
0.00
  0
SEQEND
  0
POLYLINE
  8
8XV3_EC_PLATE_MIX_ISO-EDGE_CUTS
 66
1
 10
0.00
 20
0.00
 30
0.00
 40
0.20
 41
0.20
  0
VERTEX
  8
8XV3_EC_PLATE_MIX_ISO-EDGE_CUTS
 10
216.95256
 20
-69.103332
 30
0.00
  0
VERTEX
  8
8XV3_EC_PLATE_MIX_ISO-EDGE_CUTS
 10
179.95256
 20
-69.103332
 30
0.00
  0
SEQEND
  0
POLYLINE
  8
8XV3_EC_PLATE_MIX_ISO-EDGE_CUTS
 66
1
 10
0.00
 20
0.00
 30
0.00
 40
0.20
 41
0.20
  0
VERTEX
  8
8XV3_EC_PLATE_MIX_ISO-EDGE_CUTS
 10
153.37506
 20
-69.103332
 30
0.00
  0
VERTEX
  8
8XV3_EC_PLATE_MIX_ISO-EDGE_CUTS
 10
115.87506
 20
-69.103332
 30
0.00
  0
SEQEND
  0
POLYLINE
  8
8XV3_EC_PLATE_MIX_ISO-EDGE_CUTS
 66
1
 10
0.00
 20
0.00
 30
0.00
 40
0.20
 41
0.20
  0
VERTEX
  8
8XV3_EC_PLATE_MIX_ISO-EDGE_CUTS
 10
280.18006
 20
-69.103332
 30
0.00
  0
VERTEX
  8
8XV3_EC_PLATE_MIX_ISO-EDGE_CUTS
 10
277.18006
 20
-69.103332
 30
0.00
  0
SEQEND
  0
POLYLINE
  8
8XV3_EC_PLATE_MIX_ISO-EDGE_CUTS
 66
1
 10
0.00
 20
0.00
 30
0.00
 40
0.20
 41
0.20
  0
VERTEX
  8
8XV3_EC_PLATE_MIX_ISO-EDGE_CUTS
 10
386.18006
 20
-69.103332
 30
0.00
  0
VERTEX
  8
8XV3_EC_PLATE_MIX_ISO-EDGE_CUTS
 10
383.18006
 20
-69.103332
 30
0.00
  0
SEQEND
  0
POLYLINE
  8
8XV3_EC_PLATE_MIX_ISO-EDGE_CUTS
 66
1
 10
0.00
 20
0.00
 30
0.00
 40
0.20
 41
0.20
  0
VERTEX
  8
8XV3_EC_PLATE_MIX_ISO-EDGE_CUTS
 10
162.37506
 20
-69.103332
 30
0.00
  0
VERTEX
  8
8XV3_EC_PLATE_MIX_ISO-EDGE_CUTS
 10
159.37506
 20
-69.103332
 30
0.00
  0
SEQEND
  0
POLYLINE
  8
8XV3_EC_PLATE_MIX_ISO-EDGE_CUTS
 66
1
 10
0.00
 20
0.00
 30
0.00
 40
0.20
 41
0.20
  0
VERTEX
  8
8XV3_EC_PLATE_MIX_ISO-EDGE_CUTS
 10
56.37506
 20
-69.103332
 30
0.00
  0
VERTEX
  8
8XV3_EC_PLATE_MIX_ISO-EDGE_CUTS
 10
53.37506
 20
-69.103332
 30
0.00
  0
SEQEND
  0
POLYLINE
  8
8XV3_EC_PLATE_MIX_ISO-EDGE_CUTS
 66
1
 10
0.00
 20
0.00
 30
0.00
 40
0.20
 41
0.20
  0
VERTEX
  8
8XV3_EC_PLATE_MIX_ISO-EDGE_CUTS
 10
271.18006
 20
-69.103332
 30
0.00
  0
VERTEX
  8
8XV3_EC_PLATE_MIX_ISO-EDGE_CUTS
 10
234.18006
 20
-69.103332
 30
0.00
  0
SEQEND
  0
POLYLINE
  8
8XV3_EC_PLATE_MIX_ISO-EDGE_CUTS
 66
1
 10
0.00
 20
0.00
 30
0.00
 40
0.20
 41
0.20
  0
VERTEX
  8
8XV3_EC_PLATE_MIX_ISO-EDGE_CUTS
 10
377.18006
 20
-69.103332
 30
0.00
  0
VERTEX
  8
8XV3_EC_PLATE_MIX_ISO-EDGE_CUTS
 10
339.68006
 20
-69.103332
 30
0.00
  0
SEQEND
  0
POLYLINE
  8
8XV3_EC_PLATE_MIX_ISO-EDGE_CUTS
 66
1
 10
0.00
 20
0.00
 30
0.00
 40
0.20
 41
0.20
  0
VERTEX
  8
8XV3_EC_PLATE_MIX_ISO-EDGE_CUTS
 10
99.87506
 20
-69.103332
 30
0.00
  0
VERTEX
  8
8XV3_EC_PLATE_MIX_ISO-EDGE_CUTS
 10
62.37506
 20
-69.103332
 30
0.00
  0
SEQEND
  0
POLYLINE
  8
8XV3_EC_PLATE_MIX_ISO-EDGE_CUTS
 66
1
 10
0.00
 20
0.00
 30
0.00
 40
0.20
 41
0.20
  0
VERTEX
  8
8XV3_EC_PLATE_MIX_ISO-EDGE_CUTS
 10
182.45256
 20
-74.553332
 30
0.00
  0
VERTEX
  8
8XV3_EC_PLATE_MIX_ISO-EDGE_CUTS
 10
164.87506
 20
-74.553332
 30
0.00
  0
SEQEND
  0
POLYLINE
  8
8XV3_EC_PLATE_MIX_ISO-EDGE_CUTS
 66
1
 10
0.00
 20
0.00
 30
0.00
 40
0.20
 41
0.20
  0
VERTEX
  8
8XV3_EC_PLATE_MIX_ISO-EDGE_CUTS
 10
135.87506
 20
-72.553332
 30
0.00
  0
VERTEX
  8
8XV3_EC_PLATE_MIX_ISO-EDGE_CUTS
 10
153.37506
 20
-72.553332
 30
0.00
  0
SEQEND
  0
POLYLINE
  8
8XV3_EC_PLATE_MIX_ISO-EDGE_CUTS
 66
1
 10
0.00
 20
0.00
 30
0.00
 40
0.20
 41
0.20
  0
VERTEX
  8
8XV3_EC_PLATE_MIX_ISO-EDGE_CUTS
 10
86.87506
 20
-74.553332
 30
0.00
  0
VERTEX
  8
8XV3_EC_PLATE_MIX_ISO-EDGE_CUTS
 10
128.87506
 20
-74.553332
 30
0.00
  0
SEQEND
  0
POLYLINE
  8
8XV3_EC_PLATE_MIX_ISO-EDGE_CUTS
 66
1
 10
0.00
 20
0.00
 30
0.00
 40
0.20
 41
0.20
  0
VERTEX
  8
8XV3_EC_PLATE_MIX_ISO-EDGE_CUTS
 10
284.68006
 20
-70.603332
 30
0.00
  0
VERTEX
  8
8XV3_EC_PLATE_MIX_ISO-EDGE_CUTS
 10
284.68006
 20
-71.053332
 30
0.00
  0
SEQEND
  0
POLYLINE
  8
8XV3_EC_PLATE_MIX_ISO-EDGE_CUTS
 66
1
 10
0.00
 20
0.00
 30
0.00
 40
0.20
 41
0.20
  0
VERTEX
  8
8XV3_EC_PLATE_MIX_ISO-EDGE_CUTS
 10
352.68006
 20
-72.553332
 30
0.00
  0
VERTEX
  8
8XV3_EC_PLATE_MIX_ISO-EDGE_CUTS
 10
310.68006
 20
-72.553332
 30
0.00
  0
SEQEND
  0
POLYLINE
  8
8XV3_EC_PLATE_MIX_ISO-EDGE_CUTS
 66
1
 10
0.00
 20
0.00
 30
0.00
 40
0.20
 41
0.20
  0
VERTEX
  8
8XV3_EC_PLATE_MIX_ISO-EDGE_CUTS
 10
359.68006
 20
-72.553332
 30
0.00
  0
VERTEX
  8
8XV3_EC_PLATE_MIX_ISO-EDGE_CUTS
 10
377.18006
 20
-72.553332
 30
0.00
  0
SEQEND
  0
POLYLINE
  8
8XV3_EC_PLATE_MIX_ISO-EDGE_CUTS
 66
1
 10
0.00
 20
0.00
 30
0.00
 40
0.20
 41
0.20
  0
VERTEX
  8
8XV3_EC_PLATE_MIX_ISO-EDGE_CUTS
 10
236.68006
 20
-72.553332
 30
0.00
  0
VERTEX
  8
8XV3_EC_PLATE_MIX_ISO-EDGE_CUTS
 10
234.18006
 20
-72.553332
 30
0.00
  0
SEQEND
  0
POLYLINE
  8
8XV3_EC_PLATE_MIX_ISO-EDGE_CUTS
 66
1
 10
0.00
 20
0.00
 30
0.00
 40
0.20
 41
0.20
  0
VERTEX
  8
8XV3_EC_PLATE_MIX_ISO-EDGE_CUTS
 10
47.32506
 20
-74.553332
 30
0.00
  0
VERTEX
  8
8XV3_EC_PLATE_MIX_ISO-EDGE_CUTS
 10
50.87506
 20
-74.553332
 30
0.00
  0
SEQEND
  0
POLYLINE
  8
8XV3_EC_PLATE_MIX_ISO-EDGE_CUTS
 66
1
 10
0.00
 20
0.00
 30
0.00
 40
0.20
 41
0.20
  0
VERTEX
  8
8XV3_EC_PLATE_MIX_ISO-EDGE_CUTS
 10
310.68006
 20
-74.553332
 30
0.00
  0
VERTEX
  8
8XV3_EC_PLATE_MIX_ISO-EDGE_CUTS
 10
352.68006
 20
-74.553332
 30
0.00
  0
SEQEND
  0
POLYLINE
  8
8XV3_EC_PLATE_MIX_ISO-EDGE_CUTS
 66
1
 10
0.00
 20
0.00
 30
0.00
 40
0.20
 41
0.20
  0
VERTEX
  8
8XV3_EC_PLATE_MIX_ISO-EDGE_CUTS
 10
128.87506
 20
-72.553332
 30
0.00
  0
VERTEX
  8
8XV3_EC_PLATE_MIX_ISO-EDGE_CUTS
 10
86.87506
 20
-72.553332
 30
0.00
  0
SEQEND
  0
POLYLINE
  8
8XV3_EC_PLATE_MIX_ISO-EDGE_CUTS
 66
1
 10
0.00
 20
0.00
 30
0.00
 40
0.20
 41
0.20
  0
VERTEX
  8
8XV3_EC_PLATE_MIX_ISO-EDGE_CUTS
 10
271.18006
 20
-72.553332
 30
0.00
  0
VERTEX
  8
8XV3_EC_PLATE_MIX_ISO-EDGE_CUTS
 10
268.68006
 20
-72.553332
 30
0.00
  0
SEQEND
  0
POLYLINE
  8
8XV3_EC_PLATE_MIX_ISO-EDGE_CUTS
 66
1
 10
0.00
 20
0.00
 30
0.00
 40
0.20
 41
0.20
  0
VERTEX
  8
8XV3_EC_PLATE_MIX_ISO-EDGE_CUTS
 10
388.68006
 20
-74.553332
 30
0.00
  0
VERTEX
  8
8XV3_EC_PLATE_MIX_ISO-EDGE_CUTS
 10
392.23006
 20
-74.553332
 30
0.00
  0
SEQEND
  0
POLYLINE
  8
8XV3_EC_PLATE_MIX_ISO-EDGE_CUTS
 66
1
 10
0.00
 20
0.00
 30
0.00
 40
0.20
 41
0.20
  0
VERTEX
  8
8XV3_EC_PLATE_MIX_ISO-EDGE_CUTS
 10
286.18006
 20
-72.553332
 30
0.00
  0
VERTEX
  8
8XV3_EC_PLATE_MIX_ISO-EDGE_CUTS
 10
303.68006
 20
-72.553332
 30
0.00
  0
SEQEND
  0
POLYLINE
  8
8XV3_EC_PLATE_MIX_ISO-EDGE_CUTS
 66
1
 10
0.00
 20
0.00
 30
0.00
 40
0.20
 41
0.20
  0
VERTEX
  8
8XV3_EC_PLATE_MIX_ISO-EDGE_CUTS
 10
135.87506
 20
-74.553332
 30
0.00
  0
VERTEX
  8
8XV3_EC_PLATE_MIX_ISO-EDGE_CUTS
 10
156.87506
 20
-74.553332
 30
0.00
  0
SEQEND
  0
POLYLINE
  8
8XV3_EC_PLATE_MIX_ISO-EDGE_CUTS
 66
1
 10
0.00
 20
0.00
 30
0.00
 40
0.20
 41
0.20
  0
VERTEX
  8
8XV3_EC_PLATE_MIX_ISO-EDGE_CUTS
 10
113.87506
 20
-71.553332
 30
0.00
  0
VERTEX
  8
8XV3_EC_PLATE_MIX_ISO-EDGE_CUTS
 10
101.87506
 20
-71.553332
 30
0.00
  0
SEQEND
  0
POLYLINE
  8
8XV3_EC_PLATE_MIX_ISO-EDGE_CUTS
 66
1
 10
0.00
 20
0.00
 30
0.00
 40
0.20
 41
0.20
  0
VERTEX
  8
8XV3_EC_PLATE_MIX_ISO-EDGE_CUTS
 10
216.95256
 20
-72.553332
 30
0.00
  0
VERTEX
  8
8XV3_EC_PLATE_MIX_ISO-EDGE_CUTS
 10
214.45256
 20
-72.553332
 30
0.00
  0
SEQEND
  0
POLYLINE
  8
8XV3_EC_PLATE_MIX_ISO-EDGE_CUTS
 66
1
 10
0.00
 20
0.00
 30
0.00
 40
0.20
 41
0.20
  0
VERTEX
  8
8XV3_EC_PLATE_MIX_ISO-EDGE_CUTS
 10
284.68006
 20
-196.803332
 30
0.00
  0
VERTEX
  8
8XV3_EC_PLATE_MIX_ISO-EDGE_CUTS
 10
284.68006
 20
-196.353332
 30
0.00
  0
SEQEND
  0
POLYLINE
  8
8XV3_EC_PLATE_MIX_ISO-EDGE_CUTS
 66
1
 10
0.00
 20
0.00
 30
0.00
 40
0.20
 41
0.20
  0
VERTEX
  8
8XV3_EC_PLATE_MIX_ISO-EDGE_CUTS
 10
263.68006
 20
-72.553332
 30
0.00
  0
VERTEX
  8
8XV3_EC_PLATE_MIX_ISO-EDGE_CUTS
 10
241.68006
 20
-72.553332
 30
0.00
  0
SEQEND
  0
POLYLINE
  8
8XV3_EC_PLATE_MIX_ISO-EDGE_CUTS
 66
1
 10
0.00
 20
0.00
 30
0.00
 40
0.20
 41
0.20
  0
VERTEX
  8
8XV3_EC_PLATE_MIX_ISO-EDGE_CUTS
 10
337.68006
 20
-71.553332
 30
0.00
  0
VERTEX
  8
8XV3_EC_PLATE_MIX_ISO-EDGE_CUTS
 10
325.68006
 20
-71.553332
 30
0.00
  0
SEQEND
  0
POLYLINE
  8
8XV3_EC_PLATE_MIX_ISO-EDGE_CUTS
 66
1
 10
0.00
 20
0.00
 30
0.00
 40
0.20
 41
0.20
  0
VERTEX
  8
8XV3_EC_PLATE_MIX_ISO-EDGE_CUTS
 10
62.37506
 20
-72.553332
 30
0.00
  0
VERTEX
  8
8XV3_EC_PLATE_MIX_ISO-EDGE_CUTS
 10
79.87506
 20
-72.553332
 30
0.00
  0
SEQEND
  0
POLYLINE
  8
8XV3_EC_PLATE_MIX_ISO-EDGE_CUTS
 66
1
 10
0.00
 20
0.00
 30
0.00
 40
0.20
 41
0.20
  0
VERTEX
  8
8XV3_EC_PLATE_MIX_ISO-EDGE_CUTS
 10
209.45256
 20
-72.553332
 30
0.00
  0
VERTEX
  8
8XV3_EC_PLATE_MIX_ISO-EDGE_CUTS
 10
187.45256
 20
-72.553332
 30
0.00
  0
SEQEND
  0
POLYLINE
  8
8XV3_EC_PLATE_MIX_ISO-EDGE_CUTS
 66
1
 10
0.00
 20
0.00
 30
0.00
 40
0.20
 41
0.20
  0
VERTEX
  8
8XV3_EC_PLATE_MIX_ISO-EDGE_CUTS
 10
359.68006
 20
-74.553332
 30
0.00
  0
VERTEX
  8
8XV3_EC_PLATE_MIX_ISO-EDGE_CUTS
 10
380.68006
 20
-74.553332
 30
0.00
  0
SEQEND
  0
POLYLINE
  8
8XV3_EC_PLATE_MIX_ISO-EDGE_CUTS
 66
1
 10
0.00
 20
0.00
 30
0.00
 40
0.20
 41
0.20
  0
VERTEX
  8
8XV3_EC_PLATE_MIX_ISO-EDGE_CUTS
 10
182.45256
 20
-72.553332
 30
0.00
  0
VERTEX
  8
8XV3_EC_PLATE_MIX_ISO-EDGE_CUTS
 10
179.95256
 20
-72.553332
 30
0.00
  0
SEQEND
  0
POLYLINE
  8
8XV3_EC_PLATE_MIX_ISO-EDGE_CUTS
 66
1
 10
0.00
 20
0.00
 30
0.00
 40
0.20
 41
0.20
  0
VERTEX
  8
8XV3_EC_PLATE_MIX_ISO-EDGE_CUTS
 10
282.68006
 20
-74.553332
 30
0.00
  0
VERTEX
  8
8XV3_EC_PLATE_MIX_ISO-EDGE_CUTS
 10
303.68006
 20
-74.553332
 30
0.00
  0
SEQEND
  0
POLYLINE
  8
8XV3_EC_PLATE_MIX_ISO-EDGE_CUTS
 66
1
 10
0.00
 20
0.00
 30
0.00
 40
0.20
 41
0.20
  0
VERTEX
  8
8XV3_EC_PLATE_MIX_ISO-EDGE_CUTS
 10
58.87506
 20
-74.553332
 30
0.00
  0
VERTEX
  8
8XV3_EC_PLATE_MIX_ISO-EDGE_CUTS
 10
79.87506
 20
-74.553332
 30
0.00
  0
SEQEND
  0
POLYLINE
  8
8XV3_EC_PLATE_MIX_ISO-EDGE_CUTS
 66
1
 10
0.00
 20
0.00
 30
0.00
 40
0.20
 41
0.20
  0
VERTEX
  8
8XV3_EC_PLATE_MIX_ISO-EDGE_CUTS
 10
209.45256
 20
-74.553332
 30
0.00
  0
VERTEX
  8
8XV3_EC_PLATE_MIX_ISO-EDGE_CUTS
 10
187.45256
 20
-74.553332
 30
0.00
  0
SEQEND
  0
POLYLINE
  8
8XV3_EC_PLATE_MIX_ISO-EDGE_CUTS
 66
1
 10
0.00
 20
0.00
 30
0.00
 40
0.20
 41
0.20
  0
VERTEX
  8
8XV3_EC_PLATE_MIX_ISO-EDGE_CUTS
 10
223.12756
 20
-74.553332
 30
0.00
  0
VERTEX
  8
8XV3_EC_PLATE_MIX_ISO-EDGE_CUTS
 10
214.45256
 20
-74.553332
 30
0.00
  0
SEQEND
  0
POLYLINE
  8
8XV3_EC_PLATE_MIX_ISO-EDGE_CUTS
 66
1
 10
0.00
 20
0.00
 30
0.00
 40
0.20
 41
0.20
  0
VERTEX
  8
8XV3_EC_PLATE_MIX_ISO-EDGE_CUTS
 10
236.68006
 20
-74.553332
 30
0.00
  0
VERTEX
  8
8XV3_EC_PLATE_MIX_ISO-EDGE_CUTS
 10
229.52756
 20
-74.553332
 30
0.00
  0
SEQEND
  0
POLYLINE
  8
8XV3_EC_PLATE_MIX_ISO-EDGE_CUTS
 66
1
 10
0.00
 20
0.00
 30
0.00
 40
0.20
 41
0.20
  0
VERTEX
  8
8XV3_EC_PLATE_MIX_ISO-EDGE_CUTS
 10
263.68006
 20
-74.553332
 30
0.00
  0
VERTEX
  8
8XV3_EC_PLATE_MIX_ISO-EDGE_CUTS
 10
241.68006
 20
-74.553332
 30
0.00
  0
SEQEND
  0
POLYLINE
  8
8XV3_EC_PLATE_MIX_ISO-EDGE_CUTS
 66
1
 10
0.00
 20
0.00
 30
0.00
 40
0.20
 41
0.20
  0
VERTEX
  8
8XV3_EC_PLATE_MIX_ISO-EDGE_CUTS
 10
274.68006
 20
-74.553332
 30
0.00
  0
VERTEX
  8
8XV3_EC_PLATE_MIX_ISO-EDGE_CUTS
 10
268.68006
 20
-74.553332
 30
0.00
  0
SEQEND
  0
POLYLINE
  8
8XV3_EC_PLATE_MIX_ISO-EDGE_CUTS
 66
1
 10
0.00
 20
0.00
 30
0.00
 40
0.20
 41
0.20
  0
VERTEX
  8
8XV3_EC_PLATE_MIX_ISO-EDGE_CUTS
 10
281.68006
 20
-73.553332
 30
0.00
  0
VERTEX
  8
8XV3_EC_PLATE_MIX_ISO-EDGE_CUTS
 10
281.68006
 20
-70.603332
 30
0.00
  0
SEQEND
  0
POLYLINE
  8
8XV3_EC_PLATE_MIX_ISO-EDGE_CUTS
 66
1
 10
0.00
 20
0.00
 30
0.00
 40
0.20
 41
0.20
  0
VERTEX
  8
8XV3_EC_PLATE_MIX_ISO-EDGE_CUTS
 10
275.68006
 20
-70.603332
 30
0.00
  0
VERTEX
  8
8XV3_EC_PLATE_MIX_ISO-EDGE_CUTS
 10
275.68006
 20
-73.553332
 30
0.00
  0
SEQEND
  0
POLYLINE
  8
8XV3_EC_PLATE_MIX_ISO-EDGE_CUTS
 66
1
 10
0.00
 20
0.00
 30
0.00
 40
0.20
 41
0.20
  0
VERTEX
  8
8XV3_EC_PLATE_MIX_ISO-EDGE_CUTS
 10
272.68006
 20
-70.603332
 30
0.00
  0
VERTEX
  8
8XV3_EC_PLATE_MIX_ISO-EDGE_CUTS
 10
272.68006
 20
-71.053332
 30
0.00
  0
SEQEND
  0
POLYLINE
  8
8XV3_EC_PLATE_MIX_ISO-EDGE_CUTS
 66
1
 10
0.00
 20
0.00
 30
0.00
 40
0.20
 41
0.20
  0
VERTEX
  8
8XV3_EC_PLATE_MIX_ISO-EDGE_CUTS
 10
261.88756
 20
-193.853332
 30
0.00
  0
VERTEX
  8
8XV3_EC_PLATE_MIX_ISO-EDGE_CUTS
 10
261.88756
 20
-196.803332
 30
0.00
  0
SEQEND
  0
POLYLINE
  8
8XV3_EC_PLATE_MIX_ISO-EDGE_CUTS
 66
1
 10
0.00
 20
0.00
 30
0.00
 40
0.20
 41
0.20
  0
VERTEX
  8
8XV3_EC_PLATE_MIX_ISO-EDGE_CUTS
 10
267.88756
 20
-196.803332
 30
0.00
  0
VERTEX
  8
8XV3_EC_PLATE_MIX_ISO-EDGE_CUTS
 10
267.88756
 20
-193.853332
 30
0.00
  0
SEQEND
  0
POLYLINE
  8
8XV3_EC_PLATE_MIX_ISO-EDGE_CUTS
 66
1
 10
0.00
 20
0.00
 30
0.00
 40
0.20
 41
0.20
  0
VERTEX
  8
8XV3_EC_PLATE_MIX_ISO-EDGE_CUTS
 10
50.87506
 20
-192.853332
 30
0.00
  0
VERTEX
  8
8XV3_EC_PLATE_MIX_ISO-EDGE_CUTS
 10
47.32506
 20
-192.853332
 30
0.00
  0
SEQEND
  0
POLYLINE
  8
8XV3_EC_PLATE_MIX_ISO-EDGE_CUTS
 66
1
 10
0.00
 20
0.00
 30
0.00
 40
0.20
 41
0.20
  0
VERTEX
  8
8XV3_EC_PLATE_MIX_ISO-EDGE_CUTS
 10
58.87506
 20
-192.853332
 30
0.00
  0
VERTEX
  8
8XV3_EC_PLATE_MIX_ISO-EDGE_CUTS
 10
69.87506
 20
-192.853332
 30
0.00
  0
SEQEND
  0
POLYLINE
  8
8XV3_EC_PLATE_MIX_ISO-EDGE_CUTS
 66
1
 10
0.00
 20
0.00
 30
0.00
 40
0.20
 41
0.20
  0
VERTEX
  8
8XV3_EC_PLATE_MIX_ISO-EDGE_CUTS
 10
388.68006
 20
-192.853332
 30
0.00
  0
VERTEX
  8
8XV3_EC_PLATE_MIX_ISO-EDGE_CUTS
 10
392.23006
 20
-192.853332
 30
0.00
  0
SEQEND
  0
POLYLINE
  8
8XV3_EC_PLATE_MIX_ISO-EDGE_CUTS
 66
1
 10
0.00
 20
0.00
 30
0.00
 40
0.20
 41
0.20
  0
VERTEX
  8
8XV3_EC_PLATE_MIX_ISO-EDGE_CUTS
 10
174.72506
 20
-192.853332
 30
0.00
  0
VERTEX
  8
8XV3_EC_PLATE_MIX_ISO-EDGE_CUTS
 10
201.72506
 20
-192.853332
 30
0.00
  0
SEQEND
  0
POLYLINE
  8
8XV3_EC_PLATE_MIX_ISO-EDGE_CUTS
 66
1
 10
0.00
 20
0.00
 30
0.00
 40
0.20
 41
0.20
  0
VERTEX
  8
8XV3_EC_PLATE_MIX_ISO-EDGE_CUTS
 10
92.880086
 20
-192.853332
 30
0.00
  0
VERTEX
  8
8XV3_EC_PLATE_MIX_ISO-EDGE_CUTS
 10
73.87506
 20
-192.853332
 30
0.00
  0
SEQEND
  0
POLYLINE
  8
8XV3_EC_PLATE_MIX_ISO-EDGE_CUTS
 66
1
 10
0.00
 20
0.00
 30
0.00
 40
0.20
 41
0.20
  0
VERTEX
  8
8XV3_EC_PLATE_MIX_ISO-EDGE_CUTS
 10
352.68006
 20
-192.853332
 30
0.00
  0
VERTEX
  8
8XV3_EC_PLATE_MIX_ISO-EDGE_CUTS
 10
310.68006
 20
-192.853332
 30
0.00
  0
SEQEND
  0
POLYLINE
  8
8XV3_EC_PLATE_MIX_ISO-EDGE_CUTS
 66
1
 10
0.00
 20
0.00
 30
0.00
 40
0.20
 41
0.20
  0
VERTEX
  8
8XV3_EC_PLATE_MIX_ISO-EDGE_CUTS
 10
359.68006
 20
-192.853332
 30
0.00
  0
VERTEX
  8
8XV3_EC_PLATE_MIX_ISO-EDGE_CUTS
 10
380.68006
 20
-192.853332
 30
0.00
  0
SEQEND
  0
POLYLINE
  8
8XV3_EC_PLATE_MIX_ISO-EDGE_CUTS
 66
1
 10
0.00
 20
0.00
 30
0.00
 40
0.20
 41
0.20
  0
VERTEX
  8
8XV3_EC_PLATE_MIX_ISO-EDGE_CUTS
 10
96.880086
 20
-192.853332
 30
0.00
  0
VERTEX
  8
8XV3_EC_PLATE_MIX_ISO-EDGE_CUTS
 10
115.785008
 20
-192.853332
 30
0.00
  0
SEQEND
  0
POLYLINE
  8
8XV3_EC_PLATE_MIX_ISO-EDGE_CUTS
 66
1
 10
0.00
 20
0.00
 30
0.00
 40
0.20
 41
0.20
  0
VERTEX
  8
8XV3_EC_PLATE_MIX_ISO-EDGE_CUTS
 10
303.68006
 20
-192.853332
 30
0.00
  0
VERTEX
  8
8XV3_EC_PLATE_MIX_ISO-EDGE_CUTS
 10
268.88756
 20
-192.853332
 30
0.00
  0
SEQEND
  0
POLYLINE
  8
8XV3_EC_PLATE_MIX_ISO-EDGE_CUTS
 66
1
 10
0.00
 20
0.00
 30
0.00
 40
0.20
 41
0.20
  0
VERTEX
  8
8XV3_EC_PLATE_MIX_ISO-EDGE_CUTS
 10
168.22506
 20
-196.803332
 30
0.00
  0
VERTEX
  8
8XV3_EC_PLATE_MIX_ISO-EDGE_CUTS
 10
168.22506
 20
-196.353332
 30
0.00
  0
SEQEND
  0
POLYLINE
  8
8XV3_EC_PLATE_MIX_ISO-EDGE_CUTS
 66
1
 10
0.00
 20
0.00
 30
0.00
 40
0.20
 41
0.20
  0
VERTEX
  8
8XV3_EC_PLATE_MIX_ISO-EDGE_CUTS
 10
310.68006
 20
-194.853332
 30
0.00
  0
VERTEX
  8
8XV3_EC_PLATE_MIX_ISO-EDGE_CUTS
 10
352.68006
 20
-194.853332
 30
0.00
  0
SEQEND
  0
POLYLINE
  8
8XV3_EC_PLATE_MIX_ISO-EDGE_CUTS
 66
1
 10
0.00
 20
0.00
 30
0.00
 40
0.20
 41
0.20
  0
VERTEX
  8
8XV3_EC_PLATE_MIX_ISO-EDGE_CUTS
 10
163.87506
 20
-73.553332
 30
0.00
  0
VERTEX
  8
8XV3_EC_PLATE_MIX_ISO-EDGE_CUTS
 10
163.87506
 20
-70.603332
 30
0.00
  0
SEQEND
  0
POLYLINE
  8
8XV3_EC_PLATE_MIX_ISO-EDGE_CUTS
 66
1
 10
0.00
 20
0.00
 30
0.00
 40
0.20
 41
0.20
  0
VERTEX
  8
8XV3_EC_PLATE_MIX_ISO-EDGE_CUTS
 10
169.72506
 20
-198.303332
 30
0.00
  0
VERTEX
  8
8XV3_EC_PLATE_MIX_ISO-EDGE_CUTS
 10
206.72506
 20
-198.303332
 30
0.00
  0
SEQEND
  0
POLYLINE
  8
8XV3_EC_PLATE_MIX_ISO-EDGE_CUTS
 66
1
 10
0.00
 20
0.00
 30
0.00
 40
0.20
 41
0.20
  0
VERTEX
  8
8XV3_EC_PLATE_MIX_ISO-EDGE_CUTS
 10
96.880086
 20
-194.853332
 30
0.00
  0
VERTEX
  8
8XV3_EC_PLATE_MIX_ISO-EDGE_CUTS
 10
101.877574
 20
-194.853332
 30
0.00
  0
SEQEND
  0
POLYLINE
  8
8XV3_EC_PLATE_MIX_ISO-EDGE_CUTS
 66
1
 10
0.00
 20
0.00
 30
0.00
 40
0.20
 41
0.20
  0
VERTEX
  8
8XV3_EC_PLATE_MIX_ISO-EDGE_CUTS
 10
383.18006
 20
-198.303332
 30
0.00
  0
VERTEX
  8
8XV3_EC_PLATE_MIX_ISO-EDGE_CUTS
 10
386.18006
 20
-198.303332
 30
0.00
  0
SEQEND
  0
POLYLINE
  8
8XV3_EC_PLATE_MIX_ISO-EDGE_CUTS
 66
1
 10
0.00
 20
0.00
 30
0.00
 40
0.20
 41
0.20
  0
VERTEX
  8
8XV3_EC_PLATE_MIX_ISO-EDGE_CUTS
 10
64.877574
 20
-198.303332
 30
0.00
  0
VERTEX
  8
8XV3_EC_PLATE_MIX_ISO-EDGE_CUTS
 10
101.877574
 20
-198.303332
 30
0.00
  0
SEQEND
  0
POLYLINE
  8
8XV3_EC_PLATE_MIX_ISO-EDGE_CUTS
 66
1
 10
0.00
 20
0.00
 30
0.00
 40
0.20
 41
0.20
  0
VERTEX
  8
8XV3_EC_PLATE_MIX_ISO-EDGE_CUTS
 10
359.68006
 20
-194.853332
 30
0.00
  0
VERTEX
  8
8XV3_EC_PLATE_MIX_ISO-EDGE_CUTS
 10
377.18006
 20
-194.853332
 30
0.00
  0
SEQEND
  0
POLYLINE
  8
8XV3_EC_PLATE_MIX_ISO-EDGE_CUTS
 66
1
 10
0.00
 20
0.00
 30
0.00
 40
0.20
 41
0.20
  0
VERTEX
  8
8XV3_EC_PLATE_MIX_ISO-EDGE_CUTS
 10
205.72506
 20
-194.853332
 30
0.00
  0
VERTEX
  8
8XV3_EC_PLATE_MIX_ISO-EDGE_CUTS
 10
206.72506
 20
-194.853332
 30
0.00
  0
SEQEND
  0
POLYLINE
  8
8XV3_EC_PLATE_MIX_ISO-EDGE_CUTS
 66
1
 10
0.00
 20
0.00
 30
0.00
 40
0.20
 41
0.20
  0
VERTEX
  8
8XV3_EC_PLATE_MIX_ISO-EDGE_CUTS
 10
337.68006
 20
-195.853332
 30
0.00
  0
VERTEX
  8
8XV3_EC_PLATE_MIX_ISO-EDGE_CUTS
 10
325.68006
 20
-195.853332
 30
0.00
  0
SEQEND
  0
POLYLINE
  8
8XV3_EC_PLATE_MIX_ISO-EDGE_CUTS
 66
1
 10
0.00
 20
0.00
 30
0.00
 40
0.20
 41
0.20
  0
VERTEX
  8
8XV3_EC_PLATE_MIX_ISO-EDGE_CUTS
 10
73.87506
 20
-194.853332
 30
0.00
  0
VERTEX
  8
8XV3_EC_PLATE_MIX_ISO-EDGE_CUTS
 10
92.880086
 20
-194.853332
 30
0.00
  0
SEQEND
  0
POLYLINE
  8
8XV3_EC_PLATE_MIX_ISO-EDGE_CUTS
 66
1
 10
0.00
 20
0.00
 30
0.00
 40
0.20
 41
0.20
  0
VERTEX
  8
8XV3_EC_PLATE_MIX_ISO-EDGE_CUTS
 10
201.72506
 20
-194.853332
 30
0.00
  0
VERTEX
  8
8XV3_EC_PLATE_MIX_ISO-EDGE_CUTS
 10
174.72506
 20
-194.853332
 30
0.00
  0
SEQEND
  0
POLYLINE
  8
8XV3_EC_PLATE_MIX_ISO-EDGE_CUTS
 66
1
 10
0.00
 20
0.00
 30
0.00
 40
0.20
 41
0.20
  0
VERTEX
  8
8XV3_EC_PLATE_MIX_ISO-EDGE_CUTS
 10
286.18006
 20
-198.303332
 30
0.00
  0
VERTEX
  8
8XV3_EC_PLATE_MIX_ISO-EDGE_CUTS
 10
323.68006
 20
-198.303332
 30
0.00
  0
SEQEND
  0
POLYLINE
  8
8XV3_EC_PLATE_MIX_ISO-EDGE_CUTS
 66
1
 10
0.00
 20
0.00
 30
0.00
 40
0.20
 41
0.20
  0
VERTEX
  8
8XV3_EC_PLATE_MIX_ISO-EDGE_CUTS
 10
118.285008
 20
-198.303332
 30
0.00
  0
VERTEX
  8
8XV3_EC_PLATE_MIX_ISO-EDGE_CUTS
 10
121.285008
 20
-198.303332
 30
0.00
  0
SEQEND
  0
POLYLINE
  8
8XV3_EC_PLATE_MIX_ISO-EDGE_CUTS
 66
1
 10
0.00
 20
0.00
 30
0.00
 40
0.20
 41
0.20
  0
VERTEX
  8
8XV3_EC_PLATE_MIX_ISO-EDGE_CUTS
 10
64.877574
 20
-194.853332
 30
0.00
  0
VERTEX
  8
8XV3_EC_PLATE_MIX_ISO-EDGE_CUTS
 10
69.87506
 20
-194.853332
 30
0.00
  0
SEQEND
  0
POLYLINE
  8
8XV3_EC_PLATE_MIX_ISO-EDGE_CUTS
 66
1
 10
0.00
 20
0.00
 30
0.00
 40
0.20
 41
0.20
  0
VERTEX
  8
8XV3_EC_PLATE_MIX_ISO-EDGE_CUTS
 10
157.87506
 20
-70.603332
 30
0.00
  0
VERTEX
  8
8XV3_EC_PLATE_MIX_ISO-EDGE_CUTS
 10
157.87506
 20
-73.553332
 30
0.00
  0
SEQEND
  0
POLYLINE
  8
8XV3_EC_PLATE_MIX_ISO-EDGE_CUTS
 66
1
 10
0.00
 20
0.00
 30
0.00
 40
0.20
 41
0.20
  0
VERTEX
  8
8XV3_EC_PLATE_MIX_ISO-EDGE_CUTS
 10
169.72506
 20
-194.853332
 30
0.00
  0
VERTEX
  8
8XV3_EC_PLATE_MIX_ISO-EDGE_CUTS
 10
170.72506
 20
-194.853332
 30
0.00
  0
SEQEND
  0
POLYLINE
  8
8XV3_EC_PLATE_MIX_ISO-EDGE_CUTS
 66
1
 10
0.00
 20
0.00
 30
0.00
 40
0.20
 41
0.20
  0
VERTEX
  8
8XV3_EC_PLATE_MIX_ISO-EDGE_CUTS
 10
339.68006
 20
-198.303332
 30
0.00
  0
VERTEX
  8
8XV3_EC_PLATE_MIX_ISO-EDGE_CUTS
 10
377.18006
 20
-198.303332
 30
0.00
  0
SEQEND
  0
POLYLINE
  8
8XV3_EC_PLATE_MIX_ISO-EDGE_CUTS
 66
1
 10
0.00
 20
0.00
 30
0.00
 40
0.20
 41
0.20
  0
VERTEX
  8
8XV3_EC_PLATE_MIX_ISO-EDGE_CUTS
 10
53.37506
 20
-198.303332
 30
0.00
  0
VERTEX
  8
8XV3_EC_PLATE_MIX_ISO-EDGE_CUTS
 10
56.37506
 20
-198.303332
 30
0.00
  0
SEQEND
  0
POLYLINE
  8
8XV3_EC_PLATE_MIX_ISO-EDGE_CUTS
 66
1
 10
0.00
 20
0.00
 30
0.00
 40
0.20
 41
0.20
  0
VERTEX
  8
8XV3_EC_PLATE_MIX_ISO-EDGE_CUTS
 10
263.38756
 20
-198.303332
 30
0.00
  0
VERTEX
  8
8XV3_EC_PLATE_MIX_ISO-EDGE_CUTS
 10
266.38756
 20
-198.303332
 30
0.00
  0
SEQEND
  0
POLYLINE
  8
8XV3_EC_PLATE_MIX_ISO-EDGE_CUTS
 66
1
 10
0.00
 20
0.00
 30
0.00
 40
0.20
 41
0.20
  0
VERTEX
  8
8XV3_EC_PLATE_MIX_ISO-EDGE_CUTS
 10
286.18006
 20
-194.853332
 30
0.00
  0
VERTEX
  8
8XV3_EC_PLATE_MIX_ISO-EDGE_CUTS
 10
303.68006
 20
-194.853332
 30
0.00
  0
SEQEND
  0
POLYLINE
  8
8XV3_EC_PLATE_MIX_ISO-EDGE_CUTS
 66
1
 10
0.00
 20
0.00
 30
0.00
 40
0.20
 41
0.20
  0
VERTEX
  8
8XV3_EC_PLATE_MIX_ISO-EDGE_CUTS
 10
154.87506
 20
-71.053332
 30
0.00
  0
VERTEX
  8
8XV3_EC_PLATE_MIX_ISO-EDGE_CUTS
 10
154.87506
 20
-70.603332
 30
0.00
  0
SEQEND
  0
POLYLINE
  8
8XV3_EC_PLATE_MIX_ISO-EDGE_CUTS
 66
1
 10
0.00
 20
0.00
 30
0.00
 40
0.20
 41
0.20
  0
VERTEX
  8
8XV3_EC_PLATE_MIX_ISO-EDGE_CUTS
 10
178.45256
 20
-70.603332
 30
0.00
  0
VERTEX
  8
8XV3_EC_PLATE_MIX_ISO-EDGE_CUTS
 10
178.45256
 20
-71.053332
 30
0.00
  0
SEQEND
  0
POLYLINE
  8
8XV3_EC_PLATE_MIX_ISO-EDGE_CUTS
 66
1
 10
0.00
 20
0.00
 30
0.00
 70
1
 40
0.20
 41
0.20
  0
VERTEX
  8
8XV3_EC_PLATE_MIX_ISO-EDGE_CUTS
 10
383.08006
 20
-71.103332
 30
0.00
 42
1
  0
VERTEX
  8
8XV3_EC_PLATE_MIX_ISO-EDGE_CUTS
 10
386.28006
 20
-71.103332
 30
0.00
 42
1
  0
SEQEND
  0
POLYLINE
  8
8XV3_EC_PLATE_MIX_ISO-EDGE_CUTS
 66
1
 10
0.00
 20
0.00
 30
0.00
 70
1
 40
0.20
 41
0.20
  0
VERTEX
  8
8XV3_EC_PLATE_MIX_ISO-EDGE_CUTS
 10
332.58006
 20
-95.603332
 30
0.00
 42
1
  0
VERTEX
  8
8XV3_EC_PLATE_MIX_ISO-EDGE_CUTS
 10
335.58006
 20
-95.603332
 30
0.00
 42
1
  0
SEQEND
  0
POLYLINE
  8
8XV3_EC_PLATE_MIX_ISO-EDGE_CUTS
 66
1
 10
0.00
 20
0.00
 30
0.00
 40
0.20
 41
0.20
  0
VERTEX
  8
8XV3_EC_PLATE_MIX_ISO-EDGE_CUTS
 10
224.12756
 20
-75.553332
 30
0.00
 42
0.4142136
  0
VERTEX
  8
8XV3_EC_PLATE_MIX_ISO-EDGE_CUTS
 10
223.12756
 20
-74.553332
 30
0.00
 42
0.00
  0
SEQEND
  0
POLYLINE
  8
8XV3_EC_PLATE_MIX_ISO-EDGE_CUTS
 66
1
 10
0.00
 20
0.00
 30
0.00
 40
0.20
 41
0.20
  0
VERTEX
  8
8XV3_EC_PLATE_MIX_ISO-EDGE_CUTS
 10
388.68006
 20
-192.853332
 30
0.00
 42
0.4142136
  0
VERTEX
  8
8XV3_EC_PLATE_MIX_ISO-EDGE_CUTS
 10
387.68006
 20
-193.853332
 30
0.00
 42
0.00
  0
SEQEND
  0
POLYLINE
  8
8XV3_EC_PLATE_MIX_ISO-EDGE_CUTS
 66
1
 10
0.00
 20
0.00
 30
0.00
 40
0.20
 41
0.20
  0
VERTEX
  8
8XV3_EC_PLATE_MIX_ISO-EDGE_CUTS
 10
277.18006
 20
-69.103332
 30
0.00
 42
0.4142136
  0
VERTEX
  8
8XV3_EC_PLATE_MIX_ISO-EDGE_CUTS
 10
275.68006
 20
-70.603332
 30
0.00
 42
0.00
  0
SEQEND
  0
POLYLINE
  8
8XV3_EC_PLATE_MIX_ISO-EDGE_CUTS
 66
1
 10
0.00
 20
0.00
 30
0.00
 40
0.20
 41
0.20
  0
VERTEX
  8
8XV3_EC_PLATE_MIX_ISO-EDGE_CUTS
 10
274.68006
 20
-74.553332
 30
0.00
 42
0.4142136
  0
VERTEX
  8
8XV3_EC_PLATE_MIX_ISO-EDGE_CUTS
 10
275.68006
 20
-73.553332
 30
0.00
 42
0.00
  0
SEQEND
  0
POLYLINE
  8
8XV3_EC_PLATE_MIX_ISO-EDGE_CUTS
 66
1
 10
0.00
 20
0.00
 30
0.00
 40
0.20
 41
0.20
  0
VERTEX
  8
8XV3_EC_PLATE_MIX_ISO-EDGE_CUTS
 10
352.68006
 20
-194.853332
 30
0.00
 42
1.00
  0
VERTEX
  8
8XV3_EC_PLATE_MIX_ISO-EDGE_CUTS
 10
352.68006
 20
-192.853332
 30
0.00
 42
0.00
  0
SEQEND
  0
POLYLINE
  8
8XV3_EC_PLATE_MIX_ISO-EDGE_CUTS
 66
1
 10
0.00
 20
0.00
 30
0.00
 40
0.20
 41
0.20
  0
VERTEX
  8
8XV3_EC_PLATE_MIX_ISO-EDGE_CUTS
 10
386.18006
 20
-198.303332
 30
0.00
 42
0.4142136
  0
VERTEX
  8
8XV3_EC_PLATE_MIX_ISO-EDGE_CUTS
 10
387.68006
 20
-196.803332
 30
0.00
 42
0.00
  0
SEQEND
  0
POLYLINE
  8
8XV3_EC_PLATE_MIX_ISO-EDGE_CUTS
 66
1
 10
0.00
 20
0.00
 30
0.00
 40
0.20
 41
0.20
  0
VERTEX
  8
8XV3_EC_PLATE_MIX_ISO-EDGE_CUTS
 10
268.68006
 20
-72.553332
 30
0.00
 42
1.00
  0
VERTEX
  8
8XV3_EC_PLATE_MIX_ISO-EDGE_CUTS
 10
268.68006
 20
-74.553332
 30
0.00
 42
0.00
  0
SEQEND
  0
POLYLINE
  8
8XV3_EC_PLATE_MIX_ISO-EDGE_CUTS
 66
1
 10
0.00
 20
0.00
 30
0.00
 40
0.20
 41
0.20
  0
VERTEX
  8
8XV3_EC_PLATE_MIX_ISO-EDGE_CUTS
 10
381.68006
 20
-193.853332
 30
0.00
 42
0.4142136
  0
VERTEX
  8
8XV3_EC_PLATE_MIX_ISO-EDGE_CUTS
 10
380.68006
 20
-192.853332
 30
0.00
 42
0.00
  0
SEQEND
  0
POLYLINE
  8
8XV3_EC_PLATE_MIX_ISO-EDGE_CUTS
 66
1
 10
0.00
 20
0.00
 30
0.00
 40
0.20
 41
0.20
  0
VERTEX
  8
8XV3_EC_PLATE_MIX_ISO-EDGE_CUTS
 10
286.18006
 20
-69.103332
 30
0.00
 42
0.4142136
  0
VERTEX
  8
8XV3_EC_PLATE_MIX_ISO-EDGE_CUTS
 10
284.68006
 20
-70.603332
 30
0.00
 42
0.00
  0
SEQEND
  0
POLYLINE
  8
8XV3_EC_PLATE_MIX_ISO-EDGE_CUTS
 66
1
 10
0.00
 20
0.00
 30
0.00
 40
0.20
 41
0.20
  0
VERTEX
  8
8XV3_EC_PLATE_MIX_ISO-EDGE_CUTS
 10
378.68006
 20
-196.353332
 30
0.00
 42
0.4142136
  0
VERTEX
  8
8XV3_EC_PLATE_MIX_ISO-EDGE_CUTS
 10
377.18006
 20
-194.853332
 30
0.00
 42
0.00
  0
SEQEND
  0
POLYLINE
  8
8XV3_EC_PLATE_MIX_ISO-EDGE_CUTS
 66
1
 10
0.00
 20
0.00
 30
0.00
 70
1
 40
0.20
 41
0.20
  0
VERTEX
  8
8XV3_EC_PLATE_MIX_ISO-EDGE_CUTS
 10
277.08006
 20
-71.103332
 30
0.00
 42
1
  0
VERTEX
  8
8XV3_EC_PLATE_MIX_ISO-EDGE_CUTS
 10
280.28006
 20
-71.103332
 30
0.00
 42
1
  0
SEQEND
  0
POLYLINE
  8
8XV3_EC_PLATE_MIX_ISO-EDGE_CUTS
 66
1
 10
0.00
 20
0.00
 30
0.00
 40
0.20
 41
0.20
  0
VERTEX
  8
8XV3_EC_PLATE_MIX_ISO-EDGE_CUTS
 10
236.68006
 20
-74.553332
 30
0.00
 42
1.00
  0
VERTEX
  8
8XV3_EC_PLATE_MIX_ISO-EDGE_CUTS
 10
236.68006
 20
-72.553332
 30
0.00
 42
0.00
  0
SEQEND
  0
POLYLINE
  8
8XV3_EC_PLATE_MIX_ISO-EDGE_CUTS
 66
1
 10
0.00
 20
0.00
 30
0.00
 40
0.20
 41
0.20
  0
VERTEX
  8
8XV3_EC_PLATE_MIX_ISO-EDGE_CUTS
 10
359.68006
 20
-192.853332
 30
0.00
 42
1.00
  0
VERTEX
  8
8XV3_EC_PLATE_MIX_ISO-EDGE_CUTS
 10
359.68006
 20
-194.853332
 30
0.00
 42
0.00
  0
SEQEND
  0
POLYLINE
  8
8XV3_EC_PLATE_MIX_ISO-EDGE_CUTS
 66
1
 10
0.00
 20
0.00
 30
0.00
 40
0.20
 41
0.20
  0
VERTEX
  8
8XV3_EC_PLATE_MIX_ISO-EDGE_CUTS
 10
232.68006
 20
-71.053332
 30
0.00
 42
0.4142136
  0
VERTEX
  8
8XV3_EC_PLATE_MIX_ISO-EDGE_CUTS
 10
234.18006
 20
-72.553332
 30
0.00
 42
0.00
  0
SEQEND
  0
POLYLINE
  8
8XV3_EC_PLATE_MIX_ISO-EDGE_CUTS
 66
1
 10
0.00
 20
0.00
 30
0.00
 40
0.20
 41
0.20
  0
VERTEX
  8
8XV3_EC_PLATE_MIX_ISO-EDGE_CUTS
 10
338.68006
 20
-197.303332
 30
0.00
 42
0.4142136
  0
VERTEX
  8
8XV3_EC_PLATE_MIX_ISO-EDGE_CUTS
 10
339.68006
 20
-198.303332
 30
0.00
 42
0.00
  0
SEQEND
  0
POLYLINE
  8
8XV3_EC_PLATE_MIX_ISO-EDGE_CUTS
 66
1
 10
0.00
 20
0.00
 30
0.00
 40
0.20
 41
0.20
  0
VERTEX
  8
8XV3_EC_PLATE_MIX_ISO-EDGE_CUTS
 10
323.68006
 20
-198.303332
 30
0.00
 42
0.4142136
  0
VERTEX
  8
8XV3_EC_PLATE_MIX_ISO-EDGE_CUTS
 10
324.68006
 20
-197.303332
 30
0.00
 42
0.00
  0
SEQEND
  0
POLYLINE
  8
8XV3_EC_PLATE_MIX_ISO-EDGE_CUTS
 66
1
 10
0.00
 20
0.00
 30
0.00
 40
0.20
 41
0.20
  0
VERTEX
  8
8XV3_EC_PLATE_MIX_ISO-EDGE_CUTS
 10
229.52756
 20
-74.553332
 30
0.00
 42
0.4142136
  0
VERTEX
  8
8XV3_EC_PLATE_MIX_ISO-EDGE_CUTS
 10
228.52756
 20
-75.553332
 30
0.00
 42
0.00
  0
SEQEND
  0
POLYLINE
  8
8XV3_EC_PLATE_MIX_ISO-EDGE_CUTS
 66
1
 10
0.00
 20
0.00
 30
0.00
 40
0.20
 41
0.20
  0
VERTEX
  8
8XV3_EC_PLATE_MIX_ISO-EDGE_CUTS
 10
241.68006
 20
-72.553332
 30
0.00
 42
1.00
  0
VERTEX
  8
8XV3_EC_PLATE_MIX_ISO-EDGE_CUTS
 10
241.68006
 20
-74.553332
 30
0.00
 42
0.00
  0
SEQEND
  0
POLYLINE
  8
8XV3_EC_PLATE_MIX_ISO-EDGE_CUTS
 66
1
 10
0.00
 20
0.00
 30
0.00
 40
0.20
 41
0.20
  0
VERTEX
  8
8XV3_EC_PLATE_MIX_ISO-EDGE_CUTS
 10
281.68006
 20
-70.603332
 30
0.00
 42
0.4142136
  0
VERTEX
  8
8XV3_EC_PLATE_MIX_ISO-EDGE_CUTS
 10
280.18006
 20
-69.103332
 30
0.00
 42
0.00
  0
SEQEND
  0
POLYLINE
  8
8XV3_EC_PLATE_MIX_ISO-EDGE_CUTS
 66
1
 10
0.00
 20
0.00
 30
0.00
 40
0.20
 41
0.20
  0
VERTEX
  8
8XV3_EC_PLATE_MIX_ISO-EDGE_CUTS
 10
325.68006
 20
-195.853332
 30
0.00
 42
0.4142136
  0
VERTEX
  8
8XV3_EC_PLATE_MIX_ISO-EDGE_CUTS
 10
324.68006
 20
-196.853332
 30
0.00
 42
0.00
  0
SEQEND
  0
POLYLINE
  8
8XV3_EC_PLATE_MIX_ISO-EDGE_CUTS
 66
1
 10
0.00
 20
0.00
 30
0.00
 40
0.20
 41
0.20
  0
VERTEX
  8
8XV3_EC_PLATE_MIX_ISO-EDGE_CUTS
 10
381.68006
 20
-196.803332
 30
0.00
 42
0.4142136
  0
VERTEX
  8
8XV3_EC_PLATE_MIX_ISO-EDGE_CUTS
 10
383.18006
 20
-198.303332
 30
0.00
 42
0.00
  0
SEQEND
  0
POLYLINE
  8
8XV3_EC_PLATE_MIX_ISO-EDGE_CUTS
 66
1
 10
0.00
 20
0.00
 30
0.00
 40
0.20
 41
0.20
  0
VERTEX
  8
8XV3_EC_PLATE_MIX_ISO-EDGE_CUTS
 10
324.68006
 20
-70.103332
 30
0.00
 42
0.4142136
  0
VERTEX
  8
8XV3_EC_PLATE_MIX_ISO-EDGE_CUTS
 10
323.68006
 20
-69.103332
 30
0.00
 42
0.00
  0
SEQEND
  0
POLYLINE
  8
8XV3_EC_PLATE_MIX_ISO-EDGE_CUTS
 66
1
 10
0.00
 20
0.00
 30
0.00
 40
0.20
 41
0.20
  0
VERTEX
  8
8XV3_EC_PLATE_MIX_ISO-EDGE_CUTS
 10
378.68006
 20
-70.603332
 30
0.00
 42
0.4142136
  0
VERTEX
  8
8XV3_EC_PLATE_MIX_ISO-EDGE_CUTS
 10
377.18006
 20
-69.103332
 30
0.00
 42
0.00
  0
SEQEND
  0
POLYLINE
  8
8XV3_EC_PLATE_MIX_ISO-EDGE_CUTS
 66
1
 10
0.00
 20
0.00
 30
0.00
 40
0.20
 41
0.20
  0
VERTEX
  8
8XV3_EC_PLATE_MIX_ISO-EDGE_CUTS
 10
303.68006
 20
-74.553332
 30
0.00
 42
1.00
  0
VERTEX
  8
8XV3_EC_PLATE_MIX_ISO-EDGE_CUTS
 10
303.68006
 20
-72.553332
 30
0.00
 42
0.00
  0
SEQEND
  0
POLYLINE
  8
8XV3_EC_PLATE_MIX_ISO-EDGE_CUTS
 66
1
 10
0.00
 20
0.00
 30
0.00
 40
0.20
 41
0.20
  0
VERTEX
  8
8XV3_EC_PLATE_MIX_ISO-EDGE_CUTS
 10
271.18006
 20
-72.553332
 30
0.00
 42
0.4142136
  0
VERTEX
  8
8XV3_EC_PLATE_MIX_ISO-EDGE_CUTS
 10
272.68006
 20
-71.053332
 30
0.00
 42
0.00
  0
SEQEND
  0
POLYLINE
  8
8XV3_EC_PLATE_MIX_ISO-EDGE_CUTS
 66
1
 10
0.00
 20
0.00
 30
0.00
 40
0.20
 41
0.20
  0
VERTEX
  8
8XV3_EC_PLATE_MIX_ISO-EDGE_CUTS
 10
337.68006
 20
-71.553332
 30
0.00
 42
0.4142136
  0
VERTEX
  8
8XV3_EC_PLATE_MIX_ISO-EDGE_CUTS
 10
338.68006
 20
-70.553332
 30
0.00
 42
0.00
  0
SEQEND
  0
POLYLINE
  8
8XV3_EC_PLATE_MIX_ISO-EDGE_CUTS
 66
1
 10
0.00
 20
0.00
 30
0.00
 40
0.20
 41
0.20
  0
VERTEX
  8
8XV3_EC_PLATE_MIX_ISO-EDGE_CUTS
 10
284.68006
 20
-71.053332
 30
0.00
 42
0.4142136
  0
VERTEX
  8
8XV3_EC_PLATE_MIX_ISO-EDGE_CUTS
 10
286.18006
 20
-72.553332
 30
0.00
 42
0.00
  0
SEQEND
  0
POLYLINE
  8
8XV3_EC_PLATE_MIX_ISO-EDGE_CUTS
 66
1
 10
0.00
 20
0.00
 30
0.00
 40
0.20
 41
0.20
  0
VERTEX
  8
8XV3_EC_PLATE_MIX_ISO-EDGE_CUTS
 10
234.18006
 20
-69.103332
 30
0.00
 42
0.4142136
  0
VERTEX
  8
8XV3_EC_PLATE_MIX_ISO-EDGE_CUTS
 10
232.68006
 20
-70.603332
 30
0.00
 42
0.00
  0
SEQEND
  0
POLYLINE
  8
8XV3_EC_PLATE_MIX_ISO-EDGE_CUTS
 66
1
 10
0.00
 20
0.00
 30
0.00
 40
0.20
 41
0.20
  0
VERTEX
  8
8XV3_EC_PLATE_MIX_ISO-EDGE_CUTS
 10
310.68006
 20
-72.553332
 30
0.00
 42
1.00
  0
VERTEX
  8
8XV3_EC_PLATE_MIX_ISO-EDGE_CUTS
 10
310.68006
 20
-74.553332
 30
0.00
 42
0.00
  0
SEQEND
  0
POLYLINE
  8
8XV3_EC_PLATE_MIX_ISO-EDGE_CUTS
 66
1
 10
0.00
 20
0.00
 30
0.00
 40
0.20
 41
0.20
  0
VERTEX
  8
8XV3_EC_PLATE_MIX_ISO-EDGE_CUTS
 10
359.68006
 20
-72.553332
 30
0.00
 42
1.00
  0
VERTEX
  8
8XV3_EC_PLATE_MIX_ISO-EDGE_CUTS
 10
359.68006
 20
-74.553332
 30
0.00
 42
0.00
  0
SEQEND
  0
POLYLINE
  8
8XV3_EC_PLATE_MIX_ISO-EDGE_CUTS
 66
1
 10
0.00
 20
0.00
 30
0.00
 40
0.20
 41
0.20
  0
VERTEX
  8
8XV3_EC_PLATE_MIX_ISO-EDGE_CUTS
 10
383.18006
 20
-69.103332
 30
0.00
 42
0.4142136
  0
VERTEX
  8
8XV3_EC_PLATE_MIX_ISO-EDGE_CUTS
 10
381.68006
 20
-70.603332
 30
0.00
 42
0.00
  0
SEQEND
  0
POLYLINE
  8
8XV3_EC_PLATE_MIX_ISO-EDGE_CUTS
 66
1
 10
0.00
 20
0.00
 30
0.00
 40
0.20
 41
0.20
  0
VERTEX
  8
8XV3_EC_PLATE_MIX_ISO-EDGE_CUTS
 10
338.68006
 20
-196.853332
 30
0.00
 42
0.4142136
  0
VERTEX
  8
8XV3_EC_PLATE_MIX_ISO-EDGE_CUTS
 10
337.68006
 20
-195.853332
 30
0.00
 42
0.00
  0
SEQEND
  0
POLYLINE
  8
8XV3_EC_PLATE_MIX_ISO-EDGE_CUTS
 66
1
 10
0.00
 20
0.00
 30
0.00
 40
0.20
 41
0.20
  0
VERTEX
  8
8XV3_EC_PLATE_MIX_ISO-EDGE_CUTS
 10
352.68006
 20
-74.553332
 30
0.00
 42
1.00
  0
VERTEX
  8
8XV3_EC_PLATE_MIX_ISO-EDGE_CUTS
 10
352.68006
 20
-72.553332
 30
0.00
 42
0.00
  0
SEQEND
  0
POLYLINE
  8
8XV3_EC_PLATE_MIX_ISO-EDGE_CUTS
 66
1
 10
0.00
 20
0.00
 30
0.00
 40
0.20
 41
0.20
  0
VERTEX
  8
8XV3_EC_PLATE_MIX_ISO-EDGE_CUTS
 10
393.23006
 20
-75.553332
 30
0.00
 42
0.4142136
  0
VERTEX
  8
8XV3_EC_PLATE_MIX_ISO-EDGE_CUTS
 10
392.23006
 20
-74.553332
 30
0.00
 42
0.00
  0
SEQEND
  0
POLYLINE
  8
8XV3_EC_PLATE_MIX_ISO-EDGE_CUTS
 66
1
 10
0.00
 20
0.00
 30
0.00
 40
0.20
 41
0.20
  0
VERTEX
  8
8XV3_EC_PLATE_MIX_ISO-EDGE_CUTS
 10
387.68006
 20
-73.553332
 30
0.00
 42
0.4142136
  0
VERTEX
  8
8XV3_EC_PLATE_MIX_ISO-EDGE_CUTS
 10
388.68006
 20
-74.553332
 30
0.00
 42
0.00
  0
SEQEND
  0
POLYLINE
  8
8XV3_EC_PLATE_MIX_ISO-EDGE_CUTS
 66
1
 10
0.00
 20
0.00
 30
0.00
 40
0.20
 41
0.20
  0
VERTEX
  8
8XV3_EC_PLATE_MIX_ISO-EDGE_CUTS
 10
380.68006
 20
-74.553332
 30
0.00
 42
0.4142136
  0
VERTEX
  8
8XV3_EC_PLATE_MIX_ISO-EDGE_CUTS
 10
381.68006
 20
-73.553332
 30
0.00
 42
0.00
  0
SEQEND
  0
POLYLINE
  8
8XV3_EC_PLATE_MIX_ISO-EDGE_CUTS
 66
1
 10
0.00
 20
0.00
 30
0.00
 40
0.20
 41
0.20
  0
VERTEX
  8
8XV3_EC_PLATE_MIX_ISO-EDGE_CUTS
 10
263.68006
 20
-74.553332
 30
0.00
 42
1.00
  0
VERTEX
  8
8XV3_EC_PLATE_MIX_ISO-EDGE_CUTS
 10
263.68006
 20
-72.553332
 30
0.00
 42
0.00
  0
SEQEND
  0
POLYLINE
  8
8XV3_EC_PLATE_MIX_ISO-EDGE_CUTS
 66
1
 10
0.00
 20
0.00
 30
0.00
 40
0.20
 41
0.20
  0
VERTEX
  8
8XV3_EC_PLATE_MIX_ISO-EDGE_CUTS
 10
392.23006
 20
-192.853332
 30
0.00
 42
0.4142136
  0
VERTEX
  8
8XV3_EC_PLATE_MIX_ISO-EDGE_CUTS
 10
393.23006
 20
-191.853332
 30
0.00
 42
0.00
  0
SEQEND
  0
POLYLINE
  8
8XV3_EC_PLATE_MIX_ISO-EDGE_CUTS
 66
1
 10
0.00
 20
0.00
 30
0.00
 40
0.20
 41
0.20
  0
VERTEX
  8
8XV3_EC_PLATE_MIX_ISO-EDGE_CUTS
 10
281.68006
 20
-73.553332
 30
0.00
 42
0.4142136
  0
VERTEX
  8
8XV3_EC_PLATE_MIX_ISO-EDGE_CUTS
 10
282.68006
 20
-74.553332
 30
0.00
 42
0.00
  0
SEQEND
  0
POLYLINE
  8
8XV3_EC_PLATE_MIX_ISO-EDGE_CUTS
 66
1
 10
0.00
 20
0.00
 30
0.00
 40
0.20
 41
0.20
  0
VERTEX
  8
8XV3_EC_PLATE_MIX_ISO-EDGE_CUTS
 10
377.18006
 20
-198.303332
 30
0.00
 42
0.4142136
  0
VERTEX
  8
8XV3_EC_PLATE_MIX_ISO-EDGE_CUTS
 10
378.68006
 20
-196.803332
 30
0.00
 42
0.00
  0
SEQEND
  0
POLYLINE
  8
8XV3_EC_PLATE_MIX_ISO-EDGE_CUTS
 66
1
 10
0.00
 20
0.00
 30
0.00
 70
1
 40
0.20
 41
0.20
  0
VERTEX
  8
8XV3_EC_PLATE_MIX_ISO-EDGE_CUTS
 10
383.08006
 20
-196.303332
 30
0.00
 42
1
  0
VERTEX
  8
8XV3_EC_PLATE_MIX_ISO-EDGE_CUTS
 10
386.28006
 20
-196.303332
 30
0.00
 42
1
  0
SEQEND
  0
POLYLINE
  8
8XV3_EC_PLATE_MIX_ISO-EDGE_CUTS
 66
1
 10
0.00
 20
0.00
 30
0.00
 40
0.20
 41
0.20
  0
VERTEX
  8
8XV3_EC_PLATE_MIX_ISO-EDGE_CUTS
 10
387.68006
 20
-70.603332
 30
0.00
 42
0.4142136
  0
VERTEX
  8
8XV3_EC_PLATE_MIX_ISO-EDGE_CUTS
 10
386.18006
 20
-69.103332
 30
0.00
 42
0.00
  0
SEQEND
  0
POLYLINE
  8
8XV3_EC_PLATE_MIX_ISO-EDGE_CUTS
 66
1
 10
0.00
 20
0.00
 30
0.00
 40
0.20
 41
0.20
  0
VERTEX
  8
8XV3_EC_PLATE_MIX_ISO-EDGE_CUTS
 10
339.68006
 20
-69.103332
 30
0.00
 42
0.4142136
  0
VERTEX
  8
8XV3_EC_PLATE_MIX_ISO-EDGE_CUTS
 10
338.68006
 20
-70.103332
 30
0.00
 42
0.00
  0
SEQEND
  0
POLYLINE
  8
8XV3_EC_PLATE_MIX_ISO-EDGE_CUTS
 66
1
 10
0.00
 20
0.00
 30
0.00
 40
0.20
 41
0.20
  0
VERTEX
  8
8XV3_EC_PLATE_MIX_ISO-EDGE_CUTS
 10
272.68006
 20
-70.603332
 30
0.00
 42
0.4142136
  0
VERTEX
  8
8XV3_EC_PLATE_MIX_ISO-EDGE_CUTS
 10
271.18006
 20
-69.103332
 30
0.00
 42
0.00
  0
SEQEND
  0
POLYLINE
  8
8XV3_EC_PLATE_MIX_ISO-EDGE_CUTS
 66
1
 10
0.00
 20
0.00
 30
0.00
 40
0.20
 41
0.20
  0
VERTEX
  8
8XV3_EC_PLATE_MIX_ISO-EDGE_CUTS
 10
324.68006
 20
-70.553332
 30
0.00
 42
0.4142136
  0
VERTEX
  8
8XV3_EC_PLATE_MIX_ISO-EDGE_CUTS
 10
325.68006
 20
-71.553332
 30
0.00
 42
0.00
  0
SEQEND
  0
POLYLINE
  8
8XV3_EC_PLATE_MIX_ISO-EDGE_CUTS
 66
1
 10
0.00
 20
0.00
 30
0.00
 40
0.20
 41
0.20
  0
VERTEX
  8
8XV3_EC_PLATE_MIX_ISO-EDGE_CUTS
 10
377.18006
 20
-72.553332
 30
0.00
 42
0.4142136
  0
VERTEX
  8
8XV3_EC_PLATE_MIX_ISO-EDGE_CUTS
 10
378.68006
 20
-71.053332
 30
0.00
 42
0.00
  0
SEQEND
  0
POLYLINE
  8
8XV3_EC_PLATE_MIX_ISO-EDGE_CUTS
 66
1
 10
0.00
 20
0.00
 30
0.00
 40
0.20
 41
0.20
  0
VERTEX
  8
8XV3_EC_PLATE_MIX_ISO-EDGE_CUTS
 10
62.37506
 20
-69.103332
 30
0.00
 42
0.4142136
  0
VERTEX
  8
8XV3_EC_PLATE_MIX_ISO-EDGE_CUTS
 10
60.87506
 20
-70.603332
 30
0.00
 42
0.00
  0
SEQEND
  0
POLYLINE
  8
8XV3_EC_PLATE_MIX_ISO-EDGE_CUTS
 66
1
 10
0.00
 20
0.00
 30
0.00
 40
0.20
 41
0.20
  0
VERTEX
  8
8XV3_EC_PLATE_MIX_ISO-EDGE_CUTS
 10
101.877574
 20
-198.303332
 30
0.00
 42
0.4142136
  0
VERTEX
  8
8XV3_EC_PLATE_MIX_ISO-EDGE_CUTS
 10
103.377574
 20
-196.803332
 30
0.00
 42
0.00
  0
SEQEND
  0
POLYLINE
  8
8XV3_EC_PLATE_MIX_ISO-EDGE_CUTS
 66
1
 10
0.00
 20
0.00
 30
0.00
 40
0.20
 41
0.20
  0
VERTEX
  8
8XV3_EC_PLATE_MIX_ISO-EDGE_CUTS
 10
205.72506
 20
-192.853332
 30
0.00
 42
1.00
  0
VERTEX
  8
8XV3_EC_PLATE_MIX_ISO-EDGE_CUTS
 10
205.72506
 20
-194.853332
 30
0.00
 42
0.00
  0
SEQEND
  0
POLYLINE
  8
8XV3_EC_PLATE_MIX_ISO-EDGE_CUTS
 66
1
 10
0.00
 20
0.00
 30
0.00
 40
0.20
 41
0.20
  0
VERTEX
  8
8XV3_EC_PLATE_MIX_ISO-EDGE_CUTS
 10
116.785008
 20
-193.853332
 30
0.00
 42
0.4142136
  0
VERTEX
  8
8XV3_EC_PLATE_MIX_ISO-EDGE_CUTS
 10
115.785008
 20
-192.853332
 30
0.00
 42
0.00
  0
SEQEND
  0
POLYLINE
  8
8XV3_EC_PLATE_MIX_ISO-EDGE_CUTS
 66
1
 10
0.00
 20
0.00
 30
0.00
 40
0.20
 41
0.20
  0
VERTEX
  8
8XV3_EC_PLATE_MIX_ISO-EDGE_CUTS
 10
103.377574
 20
-196.353332
 30
0.00
 42
0.4142136
  0
VERTEX
  8
8XV3_EC_PLATE_MIX_ISO-EDGE_CUTS
 10
101.877574
 20
-194.853332
 30
0.00
 42
0.00
  0
SEQEND
  0
POLYLINE
  8
8XV3_EC_PLATE_MIX_ISO-EDGE_CUTS
 66
1
 10
0.00
 20
0.00
 30
0.00
 70
1
 40
0.20
 41
0.20
  0
VERTEX
  8
8XV3_EC_PLATE_MIX_ISO-EDGE_CUTS
 10
159.27506
 20
-71.103332
 30
0.00
 42
1
  0
VERTEX
  8
8XV3_EC_PLATE_MIX_ISO-EDGE_CUTS
 10
162.47506
 20
-71.103332
 30
0.00
 42
1
  0
SEQEND
  0
POLYLINE
  8
8XV3_EC_PLATE_MIX_ISO-EDGE_CUTS
 66
1
 10
0.00
 20
0.00
 30
0.00
 40
0.20
 41
0.20
  0
VERTEX
  8
8XV3_EC_PLATE_MIX_ISO-EDGE_CUTS
 10
179.95256
 20
-69.103332
 30
0.00
 42
0.4142136
  0
VERTEX
  8
8XV3_EC_PLATE_MIX_ISO-EDGE_CUTS
 10
178.45256
 20
-70.603332
 30
0.00
 42
0.00
  0
SEQEND
  0
POLYLINE
  8
8XV3_EC_PLATE_MIX_ISO-EDGE_CUTS
 66
1
 10
0.00
 20
0.00
 30
0.00
 40
0.20
 41
0.20
  0
VERTEX
  8
8XV3_EC_PLATE_MIX_ISO-EDGE_CUTS
 10
96.880086
 20
-192.853332
 30
0.00
 42
1.00
  0
VERTEX
  8
8XV3_EC_PLATE_MIX_ISO-EDGE_CUTS
 10
96.880086
 20
-194.853332
 30
0.00
 42
0.00
  0
SEQEND
  0
POLYLINE
  8
8XV3_EC_PLATE_MIX_ISO-EDGE_CUTS
 66
1
 10
0.00
 20
0.00
 30
0.00
 40
0.20
 41
0.20
  0
VERTEX
  8
8XV3_EC_PLATE_MIX_ISO-EDGE_CUTS
 10
57.87506
 20
-70.603332
 30
0.00
 42
0.4142136
  0
VERTEX
  8
8XV3_EC_PLATE_MIX_ISO-EDGE_CUTS
 10
56.37506
 20
-69.103332
 30
0.00
 42
0.00
  0
SEQEND
  0
POLYLINE
  8
8XV3_EC_PLATE_MIX_ISO-EDGE_CUTS
 66
1
 10
0.00
 20
0.00
 30
0.00
 40
0.20
 41
0.20
  0
VERTEX
  8
8XV3_EC_PLATE_MIX_ISO-EDGE_CUTS
 10
123.785008
 20
-192.853332
 30
0.00
 42
0.4142136
  0
VERTEX
  8
8XV3_EC_PLATE_MIX_ISO-EDGE_CUTS
 10
122.785008
 20
-193.853332
 30
0.00
 42
0.00
  0
SEQEND
  0
POLYLINE
  8
8XV3_EC_PLATE_MIX_ISO-EDGE_CUTS
 66
1
 10
0.00
 20
0.00
 30
0.00
 40
0.20
 41
0.20
  0
VERTEX
  8
8XV3_EC_PLATE_MIX_ISO-EDGE_CUTS
 10
206.72506
 20
-198.303332
 30
0.00
 42
0.4142136
  0
VERTEX
  8
8XV3_EC_PLATE_MIX_ISO-EDGE_CUTS
 10
208.22506
 20
-196.803332
 30
0.00
 42
0.00
  0
SEQEND
  0
POLYLINE
  8
8XV3_EC_PLATE_MIX_ISO-EDGE_CUTS
 66
1
 10
0.00
 20
0.00
 30
0.00
 40
0.20
 41
0.20
  0
VERTEX
  8
8XV3_EC_PLATE_MIX_ISO-EDGE_CUTS
 10
53.37506
 20
-69.103332
 30
0.00
 42
0.4142136
  0
VERTEX
  8
8XV3_EC_PLATE_MIX_ISO-EDGE_CUTS
 10
51.87506
 20
-70.603332
 30
0.00
 42
0.00
  0
SEQEND
  0
POLYLINE
  8
8XV3_EC_PLATE_MIX_ISO-EDGE_CUTS
 66
1
 10
0.00
 20
0.00
 30
0.00
 40
0.20
 41
0.20
  0
VERTEX
  8
8XV3_EC_PLATE_MIX_ISO-EDGE_CUTS
 10
310.68006
 20
-192.853332
 30
0.00
 42
1.00
  0
VERTEX
  8
8XV3_EC_PLATE_MIX_ISO-EDGE_CUTS
 10
310.68006
 20
-194.853332
 30
0.00
 42
0.00
  0
SEQEND
  0
POLYLINE
  8
8XV3_EC_PLATE_MIX_ISO-EDGE_CUTS
 66
1
 10
0.00
 20
0.00
 30
0.00
 40
0.20
 41
0.20
  0
VERTEX
  8
8XV3_EC_PLATE_MIX_ISO-EDGE_CUTS
 10
261.88756
 20
-193.853332
 30
0.00
 42
0.4142136
  0
VERTEX
  8
8XV3_EC_PLATE_MIX_ISO-EDGE_CUTS
 10
260.88756
 20
-192.853332
 30
0.00
 42
0.00
  0
SEQEND
  0
POLYLINE
  8
8XV3_EC_PLATE_MIX_ISO-EDGE_CUTS
 66
1
 10
0.00
 20
0.00
 30
0.00
 70
1
 40
0.20
 41
0.20
  0
VERTEX
  8
8XV3_EC_PLATE_MIX_ISO-EDGE_CUTS
 10
72.42506
 20
-95.603332
 30
0.00
 42
1
  0
VERTEX
  8
8XV3_EC_PLATE_MIX_ISO-EDGE_CUTS
 10
75.42506
 20
-95.603332
 30
0.00
 42
1
  0
SEQEND
  0
POLYLINE
  8
8XV3_EC_PLATE_MIX_ISO-EDGE_CUTS
 66
1
 10
0.00
 20
0.00
 30
0.00
 40
0.20
 41
0.20
  0
VERTEX
  8
8XV3_EC_PLATE_MIX_ISO-EDGE_CUTS
 10
261.88756
 20
-196.803332
 30
0.00
 42
0.4142136
  0
VERTEX
  8
8XV3_EC_PLATE_MIX_ISO-EDGE_CUTS
 10
263.38756
 20
-198.303332
 30
0.00
 42
0.00
  0
SEQEND
  0
POLYLINE
  8
8XV3_EC_PLATE_MIX_ISO-EDGE_CUTS
 66
1
 10
0.00
 20
0.00
 30
0.00
 70
1
 40
0.20
 41
0.20
  0
VERTEX
  8
8XV3_EC_PLATE_MIX_ISO-EDGE_CUTS
 10
263.28756
 20
-196.303332
 30
0.00
 42
1
  0
VERTEX
  8
8XV3_EC_PLATE_MIX_ISO-EDGE_CUTS
 10
266.48756
 20
-196.303332
 30
0.00
 42
1
  0
SEQEND
  0
POLYLINE
  8
8XV3_EC_PLATE_MIX_ISO-EDGE_CUTS
 66
1
 10
0.00
 20
0.00
 30
0.00
 40
0.20
 41
0.20
  0
VERTEX
  8
8XV3_EC_PLATE_MIX_ISO-EDGE_CUTS
 10
182.45256
 20
-74.553332
 30
0.00
 42
1.00
  0
VERTEX
  8
8XV3_EC_PLATE_MIX_ISO-EDGE_CUTS
 10
182.45256
 20
-72.553332
 30
0.00
 42
0.00
  0
SEQEND
  0
POLYLINE
  8
8XV3_EC_PLATE_MIX_ISO-EDGE_CUTS
 66
1
 10
0.00
 20
0.00
 30
0.00
 40
0.20
 41
0.20
  0
VERTEX
  8
8XV3_EC_PLATE_MIX_ISO-EDGE_CUTS
 10
135.87506
 20
-72.553332
 30
0.00
 42
1.00
  0
VERTEX
  8
8XV3_EC_PLATE_MIX_ISO-EDGE_CUTS
 10
135.87506
 20
-74.553332
 30
0.00
 42
0.00
  0
SEQEND
  0
POLYLINE
  8
8XV3_EC_PLATE_MIX_ISO-EDGE_CUTS
 66
1
 10
0.00
 20
0.00
 30
0.00
 70
1
 40
0.20
 41
0.20
  0
VERTEX
  8
8XV3_EC_PLATE_MIX_ISO-EDGE_CUTS
 10
162.91381
 20
-95.603332
 30
0.00
 42
1
  0
VERTEX
  8
8XV3_EC_PLATE_MIX_ISO-EDGE_CUTS
 10
165.91381
 20
-95.603332
 30
0.00
 42
1
  0
SEQEND
  0
POLYLINE
  8
8XV3_EC_PLATE_MIX_ISO-EDGE_CUTS
 66
1
 10
0.00
 20
0.00
 30
0.00
 40
0.20
 41
0.20
  0
VERTEX
  8
8XV3_EC_PLATE_MIX_ISO-EDGE_CUTS
 10
159.37506
 20
-69.103332
 30
0.00
 42
0.4142136
  0
VERTEX
  8
8XV3_EC_PLATE_MIX_ISO-EDGE_CUTS
 10
157.87506
 20
-70.603332
 30
0.00
 42
0.00
  0
SEQEND
  0
POLYLINE
  8
8XV3_EC_PLATE_MIX_ISO-EDGE_CUTS
 66
1
 10
0.00
 20
0.00
 30
0.00
 40
0.20
 41
0.20
  0
VERTEX
  8
8XV3_EC_PLATE_MIX_ISO-EDGE_CUTS
 10
47.32506
 20
-74.553332
 30
0.00
 42
0.4142136
  0
VERTEX
  8
8XV3_EC_PLATE_MIX_ISO-EDGE_CUTS
 10
46.32506
 20
-75.553332
 30
0.00
 42
0.00
  0
SEQEND
  0
POLYLINE
  8
8XV3_EC_PLATE_MIX_ISO-EDGE_CUTS
 66
1
 10
0.00
 20
0.00
 30
0.00
 40
0.20
 41
0.20
  0
VERTEX
  8
8XV3_EC_PLATE_MIX_ISO-EDGE_CUTS
 10
170.72506
 20
-194.853332
 30
0.00
 42
1.00
  0
VERTEX
  8
8XV3_EC_PLATE_MIX_ISO-EDGE_CUTS
 10
170.72506
 20
-192.853332
 30
0.00
 42
0.00
  0
SEQEND
  0
POLYLINE
  8
8XV3_EC_PLATE_MIX_ISO-EDGE_CUTS
 66
1
 10
0.00
 20
0.00
 30
0.00
 40
0.20
 41
0.20
  0
VERTEX
  8
8XV3_EC_PLATE_MIX_ISO-EDGE_CUTS
 10
268.88756
 20
-192.853332
 30
0.00
 42
0.4142136
  0
VERTEX
  8
8XV3_EC_PLATE_MIX_ISO-EDGE_CUTS
 10
267.88756
 20
-193.853332
 30
0.00
 42
0.00
  0
SEQEND
  0
POLYLINE
  8
8XV3_EC_PLATE_MIX_ISO-EDGE_CUTS
 66
1
 10
0.00
 20
0.00
 30
0.00
 40
0.20
 41
0.20
  0
VERTEX
  8
8XV3_EC_PLATE_MIX_ISO-EDGE_CUTS
 10
303.68006
 20
-194.853332
 30
0.00
 42
1.00
  0
VERTEX
  8
8XV3_EC_PLATE_MIX_ISO-EDGE_CUTS
 10
303.68006
 20
-192.853332
 30
0.00
 42
0.00
  0
SEQEND
  0
POLYLINE
  8
8XV3_EC_PLATE_MIX_ISO-EDGE_CUTS
 66
1
 10
0.00
 20
0.00
 30
0.00
 40
0.20
 41
0.20
  0
VERTEX
  8
8XV3_EC_PLATE_MIX_ISO-EDGE_CUTS
 10
218.45256
 20
-70.603332
 30
0.00
 42
0.4142136
  0
VERTEX
  8
8XV3_EC_PLATE_MIX_ISO-EDGE_CUTS
 10
216.95256
 20
-69.103332
 30
0.00
 42
0.00
  0
SEQEND
  0
POLYLINE
  8
8XV3_EC_PLATE_MIX_ISO-EDGE_CUTS
 66
1
 10
0.00
 20
0.00
 30
0.00
 40
0.20
 41
0.20
  0
VERTEX
  8
8XV3_EC_PLATE_MIX_ISO-EDGE_CUTS
 10
266.38756
 20
-198.303332
 30
0.00
 42
0.4142136
  0
VERTEX
  8
8XV3_EC_PLATE_MIX_ISO-EDGE_CUTS
 10
267.88756
 20
-196.803332
 30
0.00
 42
0.00
  0
SEQEND
  0
POLYLINE
  8
8XV3_EC_PLATE_MIX_ISO-EDGE_CUTS
 66
1
 10
0.00
 20
0.00
 30
0.00
 40
0.20
 41
0.20
  0
VERTEX
  8
8XV3_EC_PLATE_MIX_ISO-EDGE_CUTS
 10
178.45256
 20
-71.053332
 30
0.00
 42
0.4142136
  0
VERTEX
  8
8XV3_EC_PLATE_MIX_ISO-EDGE_CUTS
 10
179.95256
 20
-72.553332
 30
0.00
 42
0.00
  0
SEQEND
  0
POLYLINE
  8
8XV3_EC_PLATE_MIX_ISO-EDGE_CUTS
 66
1
 10
0.00
 20
0.00
 30
0.00
 40
0.20
 41
0.20
  0
VERTEX
  8
8XV3_EC_PLATE_MIX_ISO-EDGE_CUTS
 10
100.87506
 20
-70.103332
 30
0.00
 42
0.4142136
  0
VERTEX
  8
8XV3_EC_PLATE_MIX_ISO-EDGE_CUTS
 10
99.87506
 20
-69.103332
 30
0.00
 42
0.00
  0
SEQEND
  0
POLYLINE
  8
8XV3_EC_PLATE_MIX_ISO-EDGE_CUTS
 66
1
 10
0.00
 20
0.00
 30
0.00
 40
0.20
 41
0.20
  0
VERTEX
  8
8XV3_EC_PLATE_MIX_ISO-EDGE_CUTS
 10
208.22506
 20
-196.353332
 30
0.00
 42
0.4142136
  0
VERTEX
  8
8XV3_EC_PLATE_MIX_ISO-EDGE_CUTS
 10
206.72506
 20
-194.853332
 30
0.00
 42
0.00
  0
SEQEND
  0
POLYLINE
  8
8XV3_EC_PLATE_MIX_ISO-EDGE_CUTS
 66
1
 10
0.00
 20
0.00
 30
0.00
 40
0.20
 41
0.20
  0
VERTEX
  8
8XV3_EC_PLATE_MIX_ISO-EDGE_CUTS
 10
284.68006
 20
-196.803332
 30
0.00
 42
0.4142136
  0
VERTEX
  8
8XV3_EC_PLATE_MIX_ISO-EDGE_CUTS
 10
286.18006
 20
-198.303332
 30
0.00
 42
0.00
  0
SEQEND
  0
POLYLINE
  8
8XV3_EC_PLATE_MIX_ISO-EDGE_CUTS
 66
1
 10
0.00
 20
0.00
 30
0.00
 40
0.20
 41
0.20
  0
VERTEX
  8
8XV3_EC_PLATE_MIX_ISO-EDGE_CUTS
 10
214.45256
 20
-72.553332
 30
0.00
 42
1.00
  0
VERTEX
  8
8XV3_EC_PLATE_MIX_ISO-EDGE_CUTS
 10
214.45256
 20
-74.553332
 30
0.00
 42
0.00
  0
SEQEND
  0
POLYLINE
  8
8XV3_EC_PLATE_MIX_ISO-EDGE_CUTS
 66
1
 10
0.00
 20
0.00
 30
0.00
 40
0.20
 41
0.20
  0
VERTEX
  8
8XV3_EC_PLATE_MIX_ISO-EDGE_CUTS
 10
156.87506
 20
-74.553332
 30
0.00
 42
0.4142136
  0
VERTEX
  8
8XV3_EC_PLATE_MIX_ISO-EDGE_CUTS
 10
157.87506
 20
-73.553332
 30
0.00
 42
0.00
  0
SEQEND
  0
POLYLINE
  8
8XV3_EC_PLATE_MIX_ISO-EDGE_CUTS
 66
1
 10
0.00
 20
0.00
 30
0.00
 40
0.20
 41
0.20
  0
VERTEX
  8
8XV3_EC_PLATE_MIX_ISO-EDGE_CUTS
 10
154.87506
 20
-70.603332
 30
0.00
 42
0.4142136
  0
VERTEX
  8
8XV3_EC_PLATE_MIX_ISO-EDGE_CUTS
 10
153.37506
 20
-69.103332
 30
0.00
 42
0.00
  0
SEQEND
  0
POLYLINE
  8
8XV3_EC_PLATE_MIX_ISO-EDGE_CUTS
 66
1
 10
0.00
 20
0.00
 30
0.00
 40
0.20
 41
0.20
  0
VERTEX
  8
8XV3_EC_PLATE_MIX_ISO-EDGE_CUTS
 10
79.87506
 20
-74.553332
 30
0.00
 42
1.00
  0
VERTEX
  8
8XV3_EC_PLATE_MIX_ISO-EDGE_CUTS
 10
79.87506
 20
-72.553332
 30
0.00
 42
0.00
  0
SEQEND
  0
POLYLINE
  8
8XV3_EC_PLATE_MIX_ISO-EDGE_CUTS
 66
1
 10
0.00
 20
0.00
 30
0.00
 40
0.20
 41
0.20
  0
VERTEX
  8
8XV3_EC_PLATE_MIX_ISO-EDGE_CUTS
 10
201.72506
 20
-194.853332
 30
0.00
 42
1.00
  0
VERTEX
  8
8XV3_EC_PLATE_MIX_ISO-EDGE_CUTS
 10
201.72506
 20
-192.853332
 30
0.00
 42
0.00
  0
SEQEND
  0
POLYLINE
  8
8XV3_EC_PLATE_MIX_ISO-EDGE_CUTS
 66
1
 10
0.00
 20
0.00
 30
0.00
 40
0.20
 41
0.20
  0
VERTEX
  8
8XV3_EC_PLATE_MIX_ISO-EDGE_CUTS
 10
57.87506
 20
-73.553332
 30
0.00
 42
0.4142136
  0
VERTEX
  8
8XV3_EC_PLATE_MIX_ISO-EDGE_CUTS
 10
58.87506
 20
-74.553332
 30
0.00
 42
0.00
  0
SEQEND
  0
POLYLINE
  8
8XV3_EC_PLATE_MIX_ISO-EDGE_CUTS
 66
1
 10
0.00
 20
0.00
 30
0.00
 40
0.20
 41
0.20
  0
VERTEX
  8
8XV3_EC_PLATE_MIX_ISO-EDGE_CUTS
 10
60.87506
 20
-71.053332
 30
0.00
 42
0.4142136
  0
VERTEX
  8
8XV3_EC_PLATE_MIX_ISO-EDGE_CUTS
 10
62.37506
 20
-72.553332
 30
0.00
 42
0.00
  0
SEQEND
  0
POLYLINE
  8
8XV3_EC_PLATE_MIX_ISO-EDGE_CUTS
 66
1
 10
0.00
 20
0.00
 30
0.00
 40
0.20
 41
0.20
  0
VERTEX
  8
8XV3_EC_PLATE_MIX_ISO-EDGE_CUTS
 10
168.22506
 20
-196.803332
 30
0.00
 42
0.4142136
  0
VERTEX
  8
8XV3_EC_PLATE_MIX_ISO-EDGE_CUTS
 10
169.72506
 20
-198.303332
 30
0.00
 42
0.00
  0
SEQEND
  0
POLYLINE
  8
8XV3_EC_PLATE_MIX_ISO-EDGE_CUTS
 66
1
 10
0.00
 20
0.00
 30
0.00
 40
0.20
 41
0.20
  0
VERTEX
  8
8XV3_EC_PLATE_MIX_ISO-EDGE_CUTS
 10
169.72506
 20
-194.853332
 30
0.00
 42
0.4142136
  0
VERTEX
  8
8XV3_EC_PLATE_MIX_ISO-EDGE_CUTS
 10
168.22506
 20
-196.353332
 30
0.00
 42
0.00
  0
SEQEND
  0
POLYLINE
  8
8XV3_EC_PLATE_MIX_ISO-EDGE_CUTS
 66
1
 10
0.00
 20
0.00
 30
0.00
 40
0.20
 41
0.20
  0
VERTEX
  8
8XV3_EC_PLATE_MIX_ISO-EDGE_CUTS
 10
187.45256
 20
-72.553332
 30
0.00
 42
1.00
  0
VERTEX
  8
8XV3_EC_PLATE_MIX_ISO-EDGE_CUTS
 10
187.45256
 20
-74.553332
 30
0.00
 42
0.00
  0
SEQEND
  0
POLYLINE
  8
8XV3_EC_PLATE_MIX_ISO-EDGE_CUTS
 66
1
 10
0.00
 20
0.00
 30
0.00
 40
0.20
 41
0.20
  0
VERTEX
  8
8XV3_EC_PLATE_MIX_ISO-EDGE_CUTS
 10
113.87506
 20
-71.553332
 30
0.00
 42
0.4142136
  0
VERTEX
  8
8XV3_EC_PLATE_MIX_ISO-EDGE_CUTS
 10
114.87506
 20
-70.553332
 30
0.00
 42
0.00
  0
SEQEND
  0
POLYLINE
  8
8XV3_EC_PLATE_MIX_ISO-EDGE_CUTS
 66
1
 10
0.00
 20
0.00
 30
0.00
 40
0.20
 41
0.20
  0
VERTEX
  8
8XV3_EC_PLATE_MIX_ISO-EDGE_CUTS
 10
50.87506
 20
-74.553332
 30
0.00
 42
0.4142136
  0
VERTEX
  8
8XV3_EC_PLATE_MIX_ISO-EDGE_CUTS
 10
51.87506
 20
-73.553332
 30
0.00
 42
0.00
  0
SEQEND
  0
POLYLINE
  8
8XV3_EC_PLATE_MIX_ISO-EDGE_CUTS
 66
1
 10
0.00
 20
0.00
 30
0.00
 40
0.20
 41
0.20
  0
VERTEX
  8
8XV3_EC_PLATE_MIX_ISO-EDGE_CUTS
 10
115.87506
 20
-69.103332
 30
0.00
 42
0.4142136
  0
VERTEX
  8
8XV3_EC_PLATE_MIX_ISO-EDGE_CUTS
 10
114.87506
 20
-70.103332
 30
0.00
 42
0.00
  0
SEQEND
  0
POLYLINE
  8
8XV3_EC_PLATE_MIX_ISO-EDGE_CUTS
 66
1
 10
0.00
 20
0.00
 30
0.00
 40
0.20
 41
0.20
  0
VERTEX
  8
8XV3_EC_PLATE_MIX_ISO-EDGE_CUTS
 10
163.87506
 20
-73.553332
 30
0.00
 42
0.4142136
  0
VERTEX
  8
8XV3_EC_PLATE_MIX_ISO-EDGE_CUTS
 10
164.87506
 20
-74.553332
 30
0.00
 42
0.00
  0
SEQEND
  0
POLYLINE
  8
8XV3_EC_PLATE_MIX_ISO-EDGE_CUTS
 66
1
 10
0.00
 20
0.00
 30
0.00
 40
0.20
 41
0.20
  0
VERTEX
  8
8XV3_EC_PLATE_MIX_ISO-EDGE_CUTS
 10
216.95256
 20
-72.553332
 30
0.00
 42
0.4142136
  0
VERTEX
  8
8XV3_EC_PLATE_MIX_ISO-EDGE_CUTS
 10
218.45256
 20
-71.053332
 30
0.00
 42
0.00
  0
SEQEND
  0
POLYLINE
  8
8XV3_EC_PLATE_MIX_ISO-EDGE_CUTS
 66
1
 10
0.00
 20
0.00
 30
0.00
 40
0.20
 41
0.20
  0
VERTEX
  8
8XV3_EC_PLATE_MIX_ISO-EDGE_CUTS
 10
86.87506
 20
-72.553332
 30
0.00
 42
1.00
  0
VERTEX
  8
8XV3_EC_PLATE_MIX_ISO-EDGE_CUTS
 10
86.87506
 20
-74.553332
 30
0.00
 42
0.00
  0
SEQEND
  0
POLYLINE
  8
8XV3_EC_PLATE_MIX_ISO-EDGE_CUTS
 66
1
 10
0.00
 20
0.00
 30
0.00
 40
0.20
 41
0.20
  0
VERTEX
  8
8XV3_EC_PLATE_MIX_ISO-EDGE_CUTS
 10
174.72506
 20
-192.853332
 30
0.00
 42
1.00
  0
VERTEX
  8
8XV3_EC_PLATE_MIX_ISO-EDGE_CUTS
 10
174.72506
 20
-194.853332
 30
0.00
 42
0.00
  0
SEQEND
  0
POLYLINE
  8
8XV3_EC_PLATE_MIX_ISO-EDGE_CUTS
 66
1
 10
0.00
 20
0.00
 30
0.00
 40
0.20
 41
0.20
  0
VERTEX
  8
8XV3_EC_PLATE_MIX_ISO-EDGE_CUTS
 10
92.880086
 20
-194.853332
 30
0.00
 42
1.00
  0
VERTEX
  8
8XV3_EC_PLATE_MIX_ISO-EDGE_CUTS
 10
92.880086
 20
-192.853332
 30
0.00
 42
0.00
  0
SEQEND
  0
POLYLINE
  8
8XV3_EC_PLATE_MIX_ISO-EDGE_CUTS
 66
1
 10
0.00
 20
0.00
 30
0.00
 40
0.20
 41
0.20
  0
VERTEX
  8
8XV3_EC_PLATE_MIX_ISO-EDGE_CUTS
 10
100.87506
 20
-70.553332
 30
0.00
 42
0.4142136
  0
VERTEX
  8
8XV3_EC_PLATE_MIX_ISO-EDGE_CUTS
 10
101.87506
 20
-71.553332
 30
0.00
 42
0.00
  0
SEQEND
  0
POLYLINE
  8
8XV3_EC_PLATE_MIX_ISO-EDGE_CUTS
 66
1
 10
0.00
 20
0.00
 30
0.00
 40
0.20
 41
0.20
  0
VERTEX
  8
8XV3_EC_PLATE_MIX_ISO-EDGE_CUTS
 10
128.87506
 20
-74.553332
 30
0.00
 42
1.00
  0
VERTEX
  8
8XV3_EC_PLATE_MIX_ISO-EDGE_CUTS
 10
128.87506
 20
-72.553332
 30
0.00
 42
0.00
  0
SEQEND
  0
POLYLINE
  8
8XV3_EC_PLATE_MIX_ISO-EDGE_CUTS
 66
1
 10
0.00
 20
0.00
 30
0.00
 70
1
 40
0.20
 41
0.20
  0
VERTEX
  8
8XV3_EC_PLATE_MIX_ISO-EDGE_CUTS
 10
53.27506
 20
-71.103332
 30
0.00
 42
1
  0
VERTEX
  8
8XV3_EC_PLATE_MIX_ISO-EDGE_CUTS
 10
56.47506
 20
-71.103332
 30
0.00
 42
1
  0
SEQEND
  0
POLYLINE
  8
8XV3_EC_PLATE_MIX_ISO-EDGE_CUTS
 66
1
 10
0.00
 20
0.00
 30
0.00
 40
0.20
 41
0.20
  0
VERTEX
  8
8XV3_EC_PLATE_MIX_ISO-EDGE_CUTS
 10
163.87506
 20
-70.603332
 30
0.00
 42
0.4142136
  0
VERTEX
  8
8XV3_EC_PLATE_MIX_ISO-EDGE_CUTS
 10
162.37506
 20
-69.103332
 30
0.00
 42
0.00
  0
SEQEND
  0
POLYLINE
  8
8XV3_EC_PLATE_MIX_ISO-EDGE_CUTS
 66
1
 10
0.00
 20
0.00
 30
0.00
 40
0.20
 41
0.20
  0
VERTEX
  8
8XV3_EC_PLATE_MIX_ISO-EDGE_CUTS
 10
209.45256
 20
-74.553332
 30
0.00
 42
1.00
  0
VERTEX
  8
8XV3_EC_PLATE_MIX_ISO-EDGE_CUTS
 10
209.45256
 20
-72.553332
 30
0.00
 42
0.00
  0
SEQEND
  0
POLYLINE
  8
8XV3_EC_PLATE_MIX_ISO-EDGE_CUTS
 66
1
 10
0.00
 20
0.00
 30
0.00
 40
0.20
 41
0.20
  0
VERTEX
  8
8XV3_EC_PLATE_MIX_ISO-EDGE_CUTS
 10
153.37506
 20
-72.553332
 30
0.00
 42
0.4142136
  0
VERTEX
  8
8XV3_EC_PLATE_MIX_ISO-EDGE_CUTS
 10
154.87506
 20
-71.053332
 30
0.00
 42
0.00
  0
SEQEND
  0
POLYLINE
  8
8XV3_EC_PLATE_MIX_ISO-EDGE_CUTS
 66
1
 10
0.00
 20
0.00
 30
0.00
 40
0.20
 41
0.20
  0
VERTEX
  8
8XV3_EC_PLATE_MIX_ISO-EDGE_CUTS
 10
286.18006
 20
-194.853332
 30
0.00
 42
0.4142136
  0
VERTEX
  8
8XV3_EC_PLATE_MIX_ISO-EDGE_CUTS
 10
284.68006
 20
-196.353332
 30
0.00
 42
0.00
  0
SEQEND
  0
POLYLINE
  8
8XV3_EC_PLATE_MIX_ISO-EDGE_CUTS
 66
1
 10
0.00
 20
0.00
 30
0.00
 40
0.20
 41
0.20
  0
VERTEX
  8
8XV3_EC_PLATE_MIX_ISO-EDGE_CUTS
 10
378.68006
 20
-196.803332
 30
0.00
  0
VERTEX
  8
8XV3_EC_PLATE_MIX_ISO-EDGE_CUTS
 10
378.68006
 20
-196.353332
 30
0.00
  0
SEQEND
  0
POLYLINE
  8
8XV3_EC_PLATE_MIX_ISO-EDGE_CUTS
 66
1
 10
0.00
 20
0.00
 30
0.00
 40
0.20
 41
0.20
  0
VERTEX
  8
8XV3_EC_PLATE_MIX_ISO-EDGE_CUTS
 10
381.68006
 20
-70.603332
 30
0.00
  0
VERTEX
  8
8XV3_EC_PLATE_MIX_ISO-EDGE_CUTS
 10
381.68006
 20
-73.553332
 30
0.00
  0
SEQEND
  0
POLYLINE
  8
8XV3_EC_PLATE_MIX_ISO-EDGE_CUTS
 66
1
 10
0.00
 20
0.00
 30
0.00
 40
0.20
 41
0.20
  0
VERTEX
  8
8XV3_EC_PLATE_MIX_ISO-EDGE_CUTS
 10
121.285008
 20
-198.303332
 30
0.00
 42
0.4142136
  0
VERTEX
  8
8XV3_EC_PLATE_MIX_ISO-EDGE_CUTS
 10
122.785008
 20
-196.803332
 30
0.00
 42
0.00
  0
SEQEND
  0
POLYLINE
  8
8XV3_EC_PLATE_MIX_ISO-EDGE_CUTS
 66
1
 10
0.00
 20
0.00
 30
0.00
 40
0.20
 41
0.20
  0
VERTEX
  8
8XV3_EC_PLATE_MIX_ISO-EDGE_CUTS
 10
391.73006
 20
-154.203332
 30
0.00
  0
VERTEX
  8
8XV3_EC_PLATE_MIX_ISO-EDGE_CUTS
 10
391.73006
 20
-138.203332
 30
0.00
  0
SEQEND
  0
POLYLINE
  8
8XV3_EC_PLATE_MIX_ISO-EDGE_CUTS
 66
1
 10
0.00
 20
0.00
 30
0.00
 40
0.20
 41
0.20
  0
VERTEX
  8
8XV3_EC_PLATE_MIX_ISO-EDGE_CUTS
 10
387.68006
 20
-196.803332
 30
0.00
  0
VERTEX
  8
8XV3_EC_PLATE_MIX_ISO-EDGE_CUTS
 10
387.68006
 20
-193.853332
 30
0.00
  0
SEQEND
  0
POLYLINE
  8
8XV3_EC_PLATE_MIX_ISO-EDGE_CUTS
 66
1
 10
0.00
 20
0.00
 30
0.00
 40
0.20
 41
0.20
  0
VERTEX
  8
8XV3_EC_PLATE_MIX_ISO-EDGE_CUTS
 10
69.87506
 20
-194.853332
 30
0.00
 42
1.00
  0
VERTEX
  8
8XV3_EC_PLATE_MIX_ISO-EDGE_CUTS
 10
69.87506
 20
-192.853332
 30
0.00
 42
0.00
  0
SEQEND
  0
POLYLINE
  8
8XV3_EC_PLATE_MIX_ISO-EDGE_CUTS
 66
1
 10
0.00
 20
0.00
 30
0.00
 40
0.20
 41
0.20
  0
VERTEX
  8
8XV3_EC_PLATE_MIX_ISO-EDGE_CUTS
 10
116.785008
 20
-196.803332
 30
0.00
 42
0.4142136
  0
VERTEX
  8
8XV3_EC_PLATE_MIX_ISO-EDGE_CUTS
 10
118.285008
 20
-198.303332
 30
0.00
 42
0.00
  0
SEQEND
  0
POLYLINE
  8
8XV3_EC_PLATE_MIX_ISO-EDGE_CUTS
 66
1
 10
0.00
 20
0.00
 30
0.00
 70
1
 40
0.20
 41
0.20
  0
VERTEX
  8
8XV3_EC_PLATE_MIX_ISO-EDGE_CUTS
 10
118.185008
 20
-196.303332
 30
0.00
 42
1
  0
VERTEX
  8
8XV3_EC_PLATE_MIX_ISO-EDGE_CUTS
 10
121.385008
 20
-196.303332
 30
0.00
 42
1
  0
SEQEND
  0
POLYLINE
  8
8XV3_EC_PLATE_MIX_ISO-EDGE_CUTS
 66
1
 10
0.00
 20
0.00
 30
0.00
 40
0.20
 41
0.20
  0
VERTEX
  8
8XV3_EC_PLATE_MIX_ISO-EDGE_CUTS
 10
73.87506
 20
-192.853332
 30
0.00
 42
1.00
  0
VERTEX
  8
8XV3_EC_PLATE_MIX_ISO-EDGE_CUTS
 10
73.87506
 20
-194.853332
 30
0.00
 42
0.00
  0
SEQEND
  0
POLYLINE
  8
8XV3_EC_PLATE_MIX_ISO-EDGE_CUTS
 66
1
 10
0.00
 20
0.00
 30
0.00
 40
0.20
 41
0.20
  0
VERTEX
  8
8XV3_EC_PLATE_MIX_ISO-EDGE_CUTS
 10
381.68006
 20
-193.853332
 30
0.00
  0
VERTEX
  8
8XV3_EC_PLATE_MIX_ISO-EDGE_CUTS
 10
381.68006
 20
-196.803332
 30
0.00
  0
SEQEND
  0
POLYLINE
  8
8XV3_EC_PLATE_MIX_ISO-EDGE_CUTS
 66
1
 10
0.00
 20
0.00
 30
0.00
 40
0.20
 41
0.20
  0
VERTEX
  8
8XV3_EC_PLATE_MIX_ISO-EDGE_CUTS
 10
46.32506
 20
-191.853332
 30
0.00
 42
0.4142136
  0
VERTEX
  8
8XV3_EC_PLATE_MIX_ISO-EDGE_CUTS
 10
47.32506
 20
-192.853332
 30
0.00
 42
0.00
  0
SEQEND
  0
POLYLINE
  8
8XV3_EC_PLATE_MIX_ISO-EDGE_CUTS
 66
1
 10
0.00
 20
0.00
 30
0.00
 40
0.20
 41
0.20
  0
VERTEX
  8
8XV3_EC_PLATE_MIX_ISO-EDGE_CUTS
 10
51.87506
 20
-193.853332
 30
0.00
 42
0.4142136
  0
VERTEX
  8
8XV3_EC_PLATE_MIX_ISO-EDGE_CUTS
 10
50.87506
 20
-192.853332
 30
0.00
 42
0.00
  0
SEQEND
  0
POLYLINE
  8
8XV3_EC_PLATE_MIX_ISO-EDGE_CUTS
 66
1
 10
0.00
 20
0.00
 30
0.00
 40
0.20
 41
0.20
  0
VERTEX
  8
8XV3_EC_PLATE_MIX_ISO-EDGE_CUTS
 10
58.87506
 20
-192.853332
 30
0.00
 42
0.4142136
  0
VERTEX
  8
8XV3_EC_PLATE_MIX_ISO-EDGE_CUTS
 10
57.87506
 20
-193.853332
 30
0.00
 42
0.00
  0
SEQEND
  0
POLYLINE
  8
8XV3_EC_PLATE_MIX_ISO-EDGE_CUTS
 66
1
 10
0.00
 20
0.00
 30
0.00
 40
0.20
 41
0.20
  0
VERTEX
  8
8XV3_EC_PLATE_MIX_ISO-EDGE_CUTS
 10
51.87506
 20
-196.803332
 30
0.00
 42
0.4142136
  0
VERTEX
  8
8XV3_EC_PLATE_MIX_ISO-EDGE_CUTS
 10
53.37506
 20
-198.303332
 30
0.00
 42
0.00
  0
SEQEND
  0
POLYLINE
  8
8XV3_EC_PLATE_MIX_ISO-EDGE_CUTS
 66
1
 10
0.00
 20
0.00
 30
0.00
 40
0.20
 41
0.20
  0
VERTEX
  8
8XV3_EC_PLATE_MIX_ISO-EDGE_CUTS
 10
56.37506
 20
-198.303332
 30
0.00
 42
0.4142136
  0
VERTEX
  8
8XV3_EC_PLATE_MIX_ISO-EDGE_CUTS
 10
57.87506
 20
-196.803332
 30
0.00
 42
0.00
  0
SEQEND
  0
POLYLINE
  8
8XV3_EC_PLATE_MIX_ISO-EDGE_CUTS
 66
1
 10
0.00
 20
0.00
 30
0.00
 40
0.20
 41
0.20
  0
VERTEX
  8
8XV3_EC_PLATE_MIX_ISO-EDGE_CUTS
 10
64.877574
 20
-194.853332
 30
0.00
 42
0.4142136
  0
VERTEX
  8
8XV3_EC_PLATE_MIX_ISO-EDGE_CUTS
 10
63.377574
 20
-196.353332
 30
0.00
 42
0.00
  0
SEQEND
  0
POLYLINE
  8
8XV3_EC_PLATE_MIX_ISO-EDGE_CUTS
 66
1
 10
0.00
 20
0.00
 30
0.00
 40
0.20
 41
0.20
  0
VERTEX
  8
8XV3_EC_PLATE_MIX_ISO-EDGE_CUTS
 10
63.377574
 20
-196.803332
 30
0.00
 42
0.4142136
  0
VERTEX
  8
8XV3_EC_PLATE_MIX_ISO-EDGE_CUTS
 10
64.877574
 20
-198.303332
 30
0.00
 42
0.00
  0
SEQEND
  0
POLYLINE
  8
8XV3_EC_PLATE_MIX_ISO-EDGE_CUTS
 66
1
 10
0.00
 20
0.00
 30
0.00
 70
1
 40
0.20
 41
0.20
  0
VERTEX
  8
8XV3_EC_PLATE_MIX_ISO-EDGE_CUTS
 10
53.27506
 20
-196.303332
 30
0.00
 42
1
  0
VERTEX
  8
8XV3_EC_PLATE_MIX_ISO-EDGE_CUTS
 10
56.47506
 20
-196.303332
 30
0.00
 42
1
  0
SEQEND
  0
POLYLINE
  8
8XV3_EC_PLATE_MIX_ISO-EDGE_CUTS
 66
1
 10
0.00
 20
0.00
 30
0.00
 40
0.20
 41
0.20
  0
VERTEX
  8
8XV3_EC_PLATE_MIX_ISO-EDGE_CUTS
 10
387.68006
 20
-73.553332
 30
0.00
  0
VERTEX
  8
8XV3_EC_PLATE_MIX_ISO-EDGE_CUTS
 10
387.68006
 20
-70.603332
 30
0.00
  0
SEQEND
  0
POLYLINE
  8
8XV3_EC_PLATE_MIX_ISO-EDGE_CUTS
 66
1
 10
0.00
 20
0.00
 30
0.00
 40
0.20
 41
0.20
  0
VERTEX
  8
8XV3_EC_PLATE_MIX_ISO-EDGE_CUTS
 10
378.68006
 20
-70.603332
 30
0.00
  0
VERTEX
  8
8XV3_EC_PLATE_MIX_ISO-EDGE_CUTS
 10
378.68006
 20
-71.053332
 30
0.00
  0
SEQEND
  0
POLYLINE
  8
8XV3_EC_PLATE_MIX_ISO-EDGE_CUTS
 66
1
 10
0.00
 20
0.00
 30
0.00
 40
0.20
 41
0.20
  0
VERTEX
  8
8XV3_EC_PLATE_MIX_ISO-EDGE_CUTS
 10
393.23006
 20
-75.553332
 30
0.00
  0
VERTEX
  8
8XV3_EC_PLATE_MIX_ISO-EDGE_CUTS
 10
393.23006
 20
-191.853332
 30
0.00
  0
SEQEND
  0
INSERT
  2
ROUND_3
  8
8XV3_EC_PLATE_MIX_ISO-NPTH_DRL
 10
47.73168
 20
-184.3024
 30
0.00
 41
1.00
 42
1.00
 50
0.00
  0
INSERT
  2
ROUND_3
  8
8XV3_EC_PLATE_MIX_ISO-NPTH_DRL
 10
47.73168
 20
-146.2024
 30
0.00
 41
1.00
 42
1.00
 50
0.00
  0
INSERT
  2
ROUND_3
  8
8XV3_EC_PLATE_MIX_ISO-NPTH_DRL
 10
64.39916
 20
-108.1024
 30
0.00
 41
1.00
 42
1.00
 50
0.00
  0
INSERT
  2
ROUND_3
  8
8XV3_EC_PLATE_MIX_ISO-NPTH_DRL
 10
71.54418
 20
-127.1524
 30
0.00
 41
1.00
 42
1.00
 50
0.00
  0
INSERT
  2
ROUND_3
  8
8XV3_EC_PLATE_MIX_ISO-NPTH_DRL
 10
73.92416
 20
-83.10372
 30
0.00
 41
1.00
 42
1.00
 50
0.00
  0
INSERT
  2
ROUND_3
  8
8XV3_EC_PLATE_MIX_ISO-NPTH_DRL
 10
88.21166
 20
-165.2524
 30
0.00
 41
1.00
 42
1.00
 50
0.00
  0
INSERT
  2
ROUND_3
  8
8XV3_EC_PLATE_MIX_ISO-NPTH_DRL
 10
95.35668
 20
-184.3024
 30
0.00
 41
1.00
 42
1.00
 50
0.00
  0
INSERT
  2
ROUND_3
  8
8XV3_EC_PLATE_MIX_ISO-NPTH_DRL
 10
97.73666
 20
-146.2024
 30
0.00
 41
1.00
 42
1.00
 50
0.00
  0
INSERT
  2
ROUND_3
  8
8XV3_EC_PLATE_MIX_ISO-NPTH_DRL
 10
121.54916
 20
-108.1024
 30
0.00
 41
1.00
 42
1.00
 50
0.00
  0
INSERT
  2
ROUND_3
  8
8XV3_EC_PLATE_MIX_ISO-NPTH_DRL
 10
126.31166
 20
-165.2524
 30
0.00
 41
1.00
 42
1.00
 50
0.00
  0
INSERT
  2
ROUND_3
  8
8XV3_EC_PLATE_MIX_ISO-NPTH_DRL
 10
140.59916
 20
-83.10372
 30
0.00
 41
1.00
 42
1.00
 50
0.00
  0
INSERT
  2
ROUND_3
  8
8XV3_EC_PLATE_MIX_ISO-NPTH_DRL
 10
150.12416
 20
-127.1524
 30
0.00
 41
1.00
 42
1.00
 50
0.00
  0
INSERT
  2
ROUND_3
  8
8XV3_EC_PLATE_MIX_ISO-NPTH_DRL
 10
167.00246
 20
-184.3024
 30
0.00
 41
1.00
 42
1.00
 50
0.00
  0
INSERT
  2
ROUND_3
  8
8XV3_EC_PLATE_MIX_ISO-NPTH_DRL
 10
188.2267
 20
-83.10372
 30
0.00
 41
1.00
 42
1.00
 50
0.00
  0
INSERT
  2
ROUND_3
  8
8XV3_EC_PLATE_MIX_ISO-NPTH_DRL
 10
192.98666
 20
-146.2024
 30
0.00
 41
1.00
 42
1.00
 50
0.00
  0
INSERT
  2
ROUND_3
  8
8XV3_EC_PLATE_MIX_ISO-NPTH_DRL
 10
197.74916
 20
-108.1024
 30
0.00
 41
1.00
 42
1.00
 50
0.00
  0
INSERT
  2
ROUND_3
  8
8XV3_EC_PLATE_MIX_ISO-NPTH_DRL
 10
209.4484
 20
-184.3024
 30
0.00
 41
1.00
 42
1.00
 50
0.00
  0
INSERT
  2
ROUND_3
  8
8XV3_EC_PLATE_MIX_ISO-NPTH_DRL
 10
240.61166
 20
-165.2524
 30
0.00
 41
1.00
 42
1.00
 50
0.00
  0
INSERT
  2
ROUND_3
  8
8XV3_EC_PLATE_MIX_ISO-NPTH_DRL
 10
245.37416
 20
-127.1524
 30
0.00
 41
1.00
 42
1.00
 50
0.00
  0
INSERT
  2
ROUND_3
  8
8XV3_EC_PLATE_MIX_ISO-NPTH_DRL
 10
250.14174
 20
-83.10372
 30
0.00
 41
1.00
 42
1.00
 50
0.00
  0
INSERT
  2
ROUND_3
  8
8XV3_EC_PLATE_MIX_ISO-NPTH_DRL
 10
273.94916
 20
-108.1024
 30
0.00
 41
1.00
 42
1.00
 50
0.00
  0
INSERT
  2
ROUND_3
  8
8XV3_EC_PLATE_MIX_ISO-NPTH_DRL
 10
281.09418
 20
-184.3024
 30
0.00
 41
1.00
 42
1.00
 50
0.00
  0
INSERT
  2
ROUND_3
  8
8XV3_EC_PLATE_MIX_ISO-NPTH_DRL
 10
288.23666
 20
-146.2024
 30
0.00
 41
1.00
 42
1.00
 50
0.00
  0
INSERT
  2
ROUND_3
  8
8XV3_EC_PLATE_MIX_ISO-NPTH_DRL
 10
312.05424
 20
-83.10372
 30
0.00
 41
1.00
 42
1.00
 50
0.00
  0
INSERT
  2
ROUND_3
  8
8XV3_EC_PLATE_MIX_ISO-NPTH_DRL
 10
331.69606
 20
-184.3024
 30
0.00
 41
1.00
 42
1.00
 50
0.00
  0
INSERT
  2
ROUND_3
  8
8XV3_EC_PLATE_MIX_ISO-NPTH_DRL
 10
335.85912
 20
-146.2024
 30
0.00
 41
1.00
 42
1.00
 50
0.00
  0
INSERT
  2
ROUND_3
  8
8XV3_EC_PLATE_MIX_ISO-NPTH_DRL
 10
356.10546
 20
-83.10372
 30
0.00
 41
1.00
 42
1.00
 50
0.00
  0
INSERT
  2
ROUND_3
  8
8XV3_EC_PLATE_MIX_ISO-NPTH_DRL
 10
356.10546
 20
-108.1024
 30
0.00
 41
1.00
 42
1.00
 50
0.00
  0
INSERT
  2
ROUND_3
  8
8XV3_EC_PLATE_MIX_ISO-NPTH_DRL
 10
375.15546
 20
-127.1524
 30
0.00
 41
1.00
 42
1.00
 50
0.00
  0
INSERT
  2
ROUND_3
  8
8XV3_EC_PLATE_MIX_ISO-NPTH_DRL
 10
375.15546
 20
-184.3024
 30
0.00
 41
1.00
 42
1.00
 50
0.00
  0
INSERT
  2
ROUND_3
  8
8XV3_EC_PLATE_MIX_ISO-NPTH_DRL
 10
384.68046
 20
-95.60306
 30
0.00
 41
1.00
 42
1.00
 50
0.00
  0
INSERT
  2
ROUND_3
  8
8XV3_EC_PLATE_MIX_ISO-NPTH_DRL
 10
384.68046
 20
-165.2524
 30
0.00
 41
1.00
 42
1.00
 50
0.00
  0
ENDSEC
  0
EOF
