  0
SECTION
  2
HEADER
  9
$EXTNAMES
290
1
  9
$EXTMIN
 10
58.2406
 20
-173.0084
 30
0.00
  9
$EXTMAX
 10
363.1906
 20
-65.1084
 30
0.00
  0
ENDSEC
  0
SECTION
  2
TABLES
  0
TABLE
  2
LTYPE
 70
3
  0
LTYPE
  2
BYBLOCK
 70
0
  3

 72
65
 73
0
 40
0.00
  0
LTYPE
  2
BYLAYER
 70
0
  3

 72
65
 73
0
 40
0.00
  0
LTYPE
  2
CONTINUOUS
 70
0
  3
Solid line
 72
65
 73
0
 40
0.00
  0
ENDTAB
  0
TABLE
  2
LAYER
 70
4
  0
LAYER
  2
0
 70
0
 62
7
  6
CONTINUOUS
  0
LAYER
  2
CORSA_PLATE_FIX-EDGE_CUTS_GBR
 70
0
 62
7
  6
CONTINUOUS
  0
LAYER
  2
CORSA_PLATE_FIX-F_MASK_GBR
 70
0
 62
6
  6
CONTINUOUS
  0
LAYER
  2
CORSA_PLATE_FIX-NPTH_DRL
 70
0
 62
1
  6
CONTINUOUS
  0
ENDTAB
  0
TABLE
  2
STYLE
 70
0
  0
ENDTAB
  0
ENDSEC
  0
SECTION
  2
BLOCKS
  0
BLOCK
  2
ROUND_1
  3
ROUND_1
 70
64
 10
0.00
 20
0.00
 30
0.00
  0
CIRCLE
  8
0
 10
0.00
 20
0.00
 30
0.00
 40
0.10
  0
ENDBLK
  0
BLOCK
  2
ROUND_2
  3
ROUND_2
 70
64
 10
0.00
 20
0.00
 30
0.00
  0
CIRCLE
  8
0
 10
0.00
 20
0.00
 30
0.00
 40
1.35
  0
ENDBLK
  0
BLOCK
  2
ROUND_3
  3
ROUND_3
 70
64
 10
0.00
 20
0.00
 30
0.00
  0
CIRCLE
  8
0
 10
0.00
 20
0.00
 30
0.00
 40
1.35001
  0
ENDBLK
  0
ENDSEC
  0
SECTION
  2
ENTITIES
  0
POLYLINE
  8
CORSA_PLATE_FIX-EDGE_CUTS_GBR
 66
1
 10
0.00
 20
0.00
 30
0.00
 40
0.20
 41
0.20
  0
VERTEX
  8
CORSA_PLATE_FIX-EDGE_CUTS_GBR
 10
235.95795
 20
-154.4084
 30
0.00
  0
VERTEX
  8
CORSA_PLATE_FIX-EDGE_CUTS_GBR
 10
235.95795
 20
-156.908398
 30
0.00
  0
SEQEND
  0
POLYLINE
  8
CORSA_PLATE_FIX-EDGE_CUTS_GBR
 66
1
 10
0.00
 20
0.00
 30
0.00
 40
0.20
 41
0.20
  0
VERTEX
  8
CORSA_PLATE_FIX-EDGE_CUTS_GBR
 10
196.63555
 20
-163.4584
 30
0.00
  0
VERTEX
  8
CORSA_PLATE_FIX-EDGE_CUTS_GBR
 10
196.63555
 20
-154.4084
 30
0.00
  0
SEQEND
  0
POLYLINE
  8
CORSA_PLATE_FIX-EDGE_CUTS_GBR
 66
1
 10
0.00
 20
0.00
 30
0.00
 40
0.20
 41
0.20
  0
VERTEX
  8
CORSA_PLATE_FIX-EDGE_CUTS_GBR
 10
181.93555
 20
-154.4084
 30
0.00
  0
VERTEX
  8
CORSA_PLATE_FIX-EDGE_CUTS_GBR
 10
181.93555
 20
-163.4584
 30
0.00
  0
SEQEND
  0
POLYLINE
  8
CORSA_PLATE_FIX-EDGE_CUTS_GBR
 66
1
 10
0.00
 20
0.00
 30
0.00
 40
0.20
 41
0.20
  0
VERTEX
  8
CORSA_PLATE_FIX-EDGE_CUTS_GBR
 10
142.60795
 20
-154.4084
 30
0.00
  0
VERTEX
  8
CORSA_PLATE_FIX-EDGE_CUTS_GBR
 10
142.60795
 20
-156.9084
 30
0.00
  0
SEQEND
  0
POLYLINE
  8
CORSA_PLATE_FIX-EDGE_CUTS_GBR
 66
1
 10
0.00
 20
0.00
 30
0.00
 40
0.20
 41
0.20
  0
VERTEX
  8
CORSA_PLATE_FIX-EDGE_CUTS_GBR
 10
196.63555
 20
-151.3584
 30
0.00
  0
VERTEX
  8
CORSA_PLATE_FIX-EDGE_CUTS_GBR
 10
196.63555
 20
-152.4154
 30
0.00
  0
SEQEND
  0
POLYLINE
  8
CORSA_PLATE_FIX-EDGE_CUTS_GBR
 66
1
 10
0.00
 20
0.00
 30
0.00
 40
0.20
 41
0.20
  0
VERTEX
  8
CORSA_PLATE_FIX-EDGE_CUTS_GBR
 10
181.93555
 20
-151.3584
 30
0.00
  0
VERTEX
  8
CORSA_PLATE_FIX-EDGE_CUTS_GBR
 10
181.93555
 20
-152.418652
 30
0.00
  0
SEQEND
  0
POLYLINE
  8
CORSA_PLATE_FIX-EDGE_CUTS_GBR
 66
1
 10
0.00
 20
0.00
 30
0.00
 70
1
 40
0.20
 41
0.20
  0
VERTEX
  8
CORSA_PLATE_FIX-EDGE_CUTS_GBR
 10
84.48435
 20
-114.3084
 30
0.00
 42
1
  0
VERTEX
  8
CORSA_PLATE_FIX-EDGE_CUTS_GBR
 10
87.48435
 20
-114.3084
 30
0.00
 42
1
  0
SEQEND
  0
POLYLINE
  8
CORSA_PLATE_FIX-EDGE_CUTS_GBR
 66
1
 10
0.00
 20
0.00
 30
0.00
 40
0.20
 41
0.20
  0
VERTEX
  8
CORSA_PLATE_FIX-EDGE_CUTS_GBR
 10
341.4536
 20
-71.7084
 30
0.00
  0
VERTEX
  8
CORSA_PLATE_FIX-EDGE_CUTS_GBR
 10
327.0406
 20
-71.7084
 30
0.00
  0
SEQEND
  0
POLYLINE
  8
CORSA_PLATE_FIX-EDGE_CUTS_GBR
 66
1
 10
0.00
 20
0.00
 30
0.00
 40
0.20
 41
0.20
  0
VERTEX
  8
CORSA_PLATE_FIX-EDGE_CUTS_GBR
 10
345.4536
 20
-91.7084
 30
0.00
  0
VERTEX
  8
CORSA_PLATE_FIX-EDGE_CUTS_GBR
 10
361.0906
 20
-91.7084
 30
0.00
  0
SEQEND
  0
POLYLINE
  8
CORSA_PLATE_FIX-EDGE_CUTS_GBR
 66
1
 10
0.00
 20
0.00
 30
0.00
 40
0.20
 41
0.20
  0
VERTEX
  8
CORSA_PLATE_FIX-EDGE_CUTS_GBR
 10
363.0906
 20
-93.7084
 30
0.00
 42
0.4142136
  0
VERTEX
  8
CORSA_PLATE_FIX-EDGE_CUTS_GBR
 10
361.0906
 20
-91.7084
 30
0.00
 42
0.00
  0
SEQEND
  0
POLYLINE
  8
CORSA_PLATE_FIX-EDGE_CUTS_GBR
 66
1
 10
0.00
 20
0.00
 30
0.00
 40
0.20
 41
0.20
  0
VERTEX
  8
CORSA_PLATE_FIX-EDGE_CUTS_GBR
 10
343.4536
 20
-89.7084
 30
0.00
 42
0.4142136
  0
VERTEX
  8
CORSA_PLATE_FIX-EDGE_CUTS_GBR
 10
345.4536
 20
-91.7084
 30
0.00
 42
0.00
  0
SEQEND
  0
POLYLINE
  8
CORSA_PLATE_FIX-EDGE_CUTS_GBR
 66
1
 10
0.00
 20
0.00
 30
0.00
 40
0.20
 41
0.20
  0
VERTEX
  8
CORSA_PLATE_FIX-EDGE_CUTS_GBR
 10
343.4536
 20
-73.7084
 30
0.00
 42
0.4142136
  0
VERTEX
  8
CORSA_PLATE_FIX-EDGE_CUTS_GBR
 10
341.4536
 20
-71.7084
 30
0.00
 42
0.00
  0
SEQEND
  0
POLYLINE
  8
CORSA_PLATE_FIX-EDGE_CUTS_GBR
 66
1
 10
0.00
 20
0.00
 30
0.00
 40
0.20
 41
0.20
  0
VERTEX
  8
CORSA_PLATE_FIX-EDGE_CUTS_GBR
 10
343.4536
 20
-73.7084
 30
0.00
  0
VERTEX
  8
CORSA_PLATE_FIX-EDGE_CUTS_GBR
 10
343.4536
 20
-89.7084
 30
0.00
  0
SEQEND
  0
POLYLINE
  8
CORSA_PLATE_FIX-EDGE_CUTS_GBR
 66
1
 10
0.00
 20
0.00
 30
0.00
 40
0.20
 41
0.20
  0
VERTEX
  8
CORSA_PLATE_FIX-EDGE_CUTS_GBR
 10
346.2406
 20
-151.3584
 30
0.00
  0
VERTEX
  8
CORSA_PLATE_FIX-EDGE_CUTS_GBR
 10
347.2406
 20
-150.3584
 30
0.00
  0
SEQEND
  0
POLYLINE
  8
CORSA_PLATE_FIX-EDGE_CUTS_GBR
 66
1
 10
0.00
 20
0.00
 30
0.00
 40
0.20
 41
0.20
  0
VERTEX
  8
CORSA_PLATE_FIX-EDGE_CUTS_GBR
 10
346.2406
 20
-163.4584
 30
0.00
  0
VERTEX
  8
CORSA_PLATE_FIX-EDGE_CUTS_GBR
 10
346.2406
 20
-151.3584
 30
0.00
  0
SEQEND
  0
POLYLINE
  8
CORSA_PLATE_FIX-EDGE_CUTS_GBR
 66
1
 10
0.00
 20
0.00
 30
0.00
 40
0.20
 41
0.20
  0
VERTEX
  8
CORSA_PLATE_FIX-EDGE_CUTS_GBR
 10
347.2406
 20
-164.4584
 30
0.00
  0
VERTEX
  8
CORSA_PLATE_FIX-EDGE_CUTS_GBR
 10
346.2406
 20
-163.4584
 30
0.00
  0
SEQEND
  0
POLYLINE
  8
CORSA_PLATE_FIX-EDGE_CUTS_GBR
 66
1
 10
0.00
 20
0.00
 30
0.00
 40
0.20
 41
0.20
  0
VERTEX
  8
CORSA_PLATE_FIX-EDGE_CUTS_GBR
 10
359.9406
 20
-164.4584
 30
0.00
  0
VERTEX
  8
CORSA_PLATE_FIX-EDGE_CUTS_GBR
 10
347.2406
 20
-164.4584
 30
0.00
  0
SEQEND
  0
POLYLINE
  8
CORSA_PLATE_FIX-EDGE_CUTS_GBR
 66
1
 10
0.00
 20
0.00
 30
0.00
 40
0.20
 41
0.20
  0
VERTEX
  8
CORSA_PLATE_FIX-EDGE_CUTS_GBR
 10
360.9406
 20
-163.4584
 30
0.00
  0
VERTEX
  8
CORSA_PLATE_FIX-EDGE_CUTS_GBR
 10
359.9406
 20
-164.4584
 30
0.00
  0
SEQEND
  0
POLYLINE
  8
CORSA_PLATE_FIX-EDGE_CUTS_GBR
 66
1
 10
0.00
 20
0.00
 30
0.00
 40
0.20
 41
0.20
  0
VERTEX
  8
CORSA_PLATE_FIX-EDGE_CUTS_GBR
 10
360.9406
 20
-151.3584
 30
0.00
  0
VERTEX
  8
CORSA_PLATE_FIX-EDGE_CUTS_GBR
 10
360.9406
 20
-163.4584
 30
0.00
  0
SEQEND
  0
POLYLINE
  8
CORSA_PLATE_FIX-EDGE_CUTS_GBR
 66
1
 10
0.00
 20
0.00
 30
0.00
 40
0.20
 41
0.20
  0
VERTEX
  8
CORSA_PLATE_FIX-EDGE_CUTS_GBR
 10
359.9406
 20
-150.3584
 30
0.00
  0
VERTEX
  8
CORSA_PLATE_FIX-EDGE_CUTS_GBR
 10
360.9406
 20
-151.3584
 30
0.00
  0
SEQEND
  0
POLYLINE
  8
CORSA_PLATE_FIX-EDGE_CUTS_GBR
 66
1
 10
0.00
 20
0.00
 30
0.00
 40
0.20
 41
0.20
  0
VERTEX
  8
CORSA_PLATE_FIX-EDGE_CUTS_GBR
 10
347.2406
 20
-150.3584
 30
0.00
  0
VERTEX
  8
CORSA_PLATE_FIX-EDGE_CUTS_GBR
 10
359.9406
 20
-150.3584
 30
0.00
  0
SEQEND
  0
POLYLINE
  8
CORSA_PLATE_FIX-EDGE_CUTS_GBR
 66
1
 10
0.00
 20
0.00
 30
0.00
 40
0.20
 41
0.20
  0
VERTEX
  8
CORSA_PLATE_FIX-EDGE_CUTS_GBR
 10
327.1906
 20
-151.3584
 30
0.00
  0
VERTEX
  8
CORSA_PLATE_FIX-EDGE_CUTS_GBR
 10
328.1906
 20
-150.3584
 30
0.00
  0
SEQEND
  0
POLYLINE
  8
CORSA_PLATE_FIX-EDGE_CUTS_GBR
 66
1
 10
0.00
 20
0.00
 30
0.00
 40
0.20
 41
0.20
  0
VERTEX
  8
CORSA_PLATE_FIX-EDGE_CUTS_GBR
 10
327.1906
 20
-163.4584
 30
0.00
  0
VERTEX
  8
CORSA_PLATE_FIX-EDGE_CUTS_GBR
 10
327.1906
 20
-151.3584
 30
0.00
  0
SEQEND
  0
POLYLINE
  8
CORSA_PLATE_FIX-EDGE_CUTS_GBR
 66
1
 10
0.00
 20
0.00
 30
0.00
 40
0.20
 41
0.20
  0
VERTEX
  8
CORSA_PLATE_FIX-EDGE_CUTS_GBR
 10
328.1906
 20
-164.4584
 30
0.00
  0
VERTEX
  8
CORSA_PLATE_FIX-EDGE_CUTS_GBR
 10
327.1906
 20
-163.4584
 30
0.00
  0
SEQEND
  0
POLYLINE
  8
CORSA_PLATE_FIX-EDGE_CUTS_GBR
 66
1
 10
0.00
 20
0.00
 30
0.00
 40
0.20
 41
0.20
  0
VERTEX
  8
CORSA_PLATE_FIX-EDGE_CUTS_GBR
 10
340.8906
 20
-164.4584
 30
0.00
  0
VERTEX
  8
CORSA_PLATE_FIX-EDGE_CUTS_GBR
 10
328.1906
 20
-164.4584
 30
0.00
  0
SEQEND
  0
POLYLINE
  8
CORSA_PLATE_FIX-EDGE_CUTS_GBR
 66
1
 10
0.00
 20
0.00
 30
0.00
 40
0.20
 41
0.20
  0
VERTEX
  8
CORSA_PLATE_FIX-EDGE_CUTS_GBR
 10
341.8906
 20
-163.4584
 30
0.00
  0
VERTEX
  8
CORSA_PLATE_FIX-EDGE_CUTS_GBR
 10
340.8906
 20
-164.4584
 30
0.00
  0
SEQEND
  0
POLYLINE
  8
CORSA_PLATE_FIX-EDGE_CUTS_GBR
 66
1
 10
0.00
 20
0.00
 30
0.00
 40
0.20
 41
0.20
  0
VERTEX
  8
CORSA_PLATE_FIX-EDGE_CUTS_GBR
 10
341.8906
 20
-151.3584
 30
0.00
  0
VERTEX
  8
CORSA_PLATE_FIX-EDGE_CUTS_GBR
 10
341.8906
 20
-163.4584
 30
0.00
  0
SEQEND
  0
POLYLINE
  8
CORSA_PLATE_FIX-EDGE_CUTS_GBR
 66
1
 10
0.00
 20
0.00
 30
0.00
 40
0.20
 41
0.20
  0
VERTEX
  8
CORSA_PLATE_FIX-EDGE_CUTS_GBR
 10
340.8906
 20
-150.3584
 30
0.00
  0
VERTEX
  8
CORSA_PLATE_FIX-EDGE_CUTS_GBR
 10
341.8906
 20
-151.3584
 30
0.00
  0
SEQEND
  0
POLYLINE
  8
CORSA_PLATE_FIX-EDGE_CUTS_GBR
 66
1
 10
0.00
 20
0.00
 30
0.00
 40
0.20
 41
0.20
  0
VERTEX
  8
CORSA_PLATE_FIX-EDGE_CUTS_GBR
 10
328.1906
 20
-150.3584
 30
0.00
  0
VERTEX
  8
CORSA_PLATE_FIX-EDGE_CUTS_GBR
 10
340.8906
 20
-150.3584
 30
0.00
  0
SEQEND
  0
POLYLINE
  8
CORSA_PLATE_FIX-EDGE_CUTS_GBR
 66
1
 10
0.00
 20
0.00
 30
0.00
 40
0.20
 41
0.20
  0
VERTEX
  8
CORSA_PLATE_FIX-EDGE_CUTS_GBR
 10
308.1406
 20
-151.3584
 30
0.00
  0
VERTEX
  8
CORSA_PLATE_FIX-EDGE_CUTS_GBR
 10
309.1406
 20
-150.3584
 30
0.00
  0
SEQEND
  0
POLYLINE
  8
CORSA_PLATE_FIX-EDGE_CUTS_GBR
 66
1
 10
0.00
 20
0.00
 30
0.00
 40
0.20
 41
0.20
  0
VERTEX
  8
CORSA_PLATE_FIX-EDGE_CUTS_GBR
 10
308.1406
 20
-163.4584
 30
0.00
  0
VERTEX
  8
CORSA_PLATE_FIX-EDGE_CUTS_GBR
 10
308.1406
 20
-151.3584
 30
0.00
  0
SEQEND
  0
POLYLINE
  8
CORSA_PLATE_FIX-EDGE_CUTS_GBR
 66
1
 10
0.00
 20
0.00
 30
0.00
 40
0.20
 41
0.20
  0
VERTEX
  8
CORSA_PLATE_FIX-EDGE_CUTS_GBR
 10
309.1406
 20
-164.4584
 30
0.00
  0
VERTEX
  8
CORSA_PLATE_FIX-EDGE_CUTS_GBR
 10
308.1406
 20
-163.4584
 30
0.00
  0
SEQEND
  0
POLYLINE
  8
CORSA_PLATE_FIX-EDGE_CUTS_GBR
 66
1
 10
0.00
 20
0.00
 30
0.00
 40
0.20
 41
0.20
  0
VERTEX
  8
CORSA_PLATE_FIX-EDGE_CUTS_GBR
 10
321.8406
 20
-164.4584
 30
0.00
  0
VERTEX
  8
CORSA_PLATE_FIX-EDGE_CUTS_GBR
 10
309.1406
 20
-164.4584
 30
0.00
  0
SEQEND
  0
POLYLINE
  8
CORSA_PLATE_FIX-EDGE_CUTS_GBR
 66
1
 10
0.00
 20
0.00
 30
0.00
 40
0.20
 41
0.20
  0
VERTEX
  8
CORSA_PLATE_FIX-EDGE_CUTS_GBR
 10
322.8406
 20
-163.4584
 30
0.00
  0
VERTEX
  8
CORSA_PLATE_FIX-EDGE_CUTS_GBR
 10
321.8406
 20
-164.4584
 30
0.00
  0
SEQEND
  0
POLYLINE
  8
CORSA_PLATE_FIX-EDGE_CUTS_GBR
 66
1
 10
0.00
 20
0.00
 30
0.00
 40
0.20
 41
0.20
  0
VERTEX
  8
CORSA_PLATE_FIX-EDGE_CUTS_GBR
 10
322.8406
 20
-151.3584
 30
0.00
  0
VERTEX
  8
CORSA_PLATE_FIX-EDGE_CUTS_GBR
 10
322.8406
 20
-163.4584
 30
0.00
  0
SEQEND
  0
POLYLINE
  8
CORSA_PLATE_FIX-EDGE_CUTS_GBR
 66
1
 10
0.00
 20
0.00
 30
0.00
 40
0.20
 41
0.20
  0
VERTEX
  8
CORSA_PLATE_FIX-EDGE_CUTS_GBR
 10
321.8406
 20
-150.3584
 30
0.00
  0
VERTEX
  8
CORSA_PLATE_FIX-EDGE_CUTS_GBR
 10
322.8406
 20
-151.3584
 30
0.00
  0
SEQEND
  0
POLYLINE
  8
CORSA_PLATE_FIX-EDGE_CUTS_GBR
 66
1
 10
0.00
 20
0.00
 30
0.00
 40
0.20
 41
0.20
  0
VERTEX
  8
CORSA_PLATE_FIX-EDGE_CUTS_GBR
 10
309.1406
 20
-150.3584
 30
0.00
  0
VERTEX
  8
CORSA_PLATE_FIX-EDGE_CUTS_GBR
 10
321.8406
 20
-150.3584
 30
0.00
  0
SEQEND
  0
POLYLINE
  8
CORSA_PLATE_FIX-EDGE_CUTS_GBR
 66
1
 10
0.00
 20
0.00
 30
0.00
 40
0.20
 41
0.20
  0
VERTEX
  8
CORSA_PLATE_FIX-EDGE_CUTS_GBR
 10
346.2406
 20
-132.3084
 30
0.00
  0
VERTEX
  8
CORSA_PLATE_FIX-EDGE_CUTS_GBR
 10
347.2406
 20
-131.3084
 30
0.00
  0
SEQEND
  0
POLYLINE
  8
CORSA_PLATE_FIX-EDGE_CUTS_GBR
 66
1
 10
0.00
 20
0.00
 30
0.00
 40
0.20
 41
0.20
  0
VERTEX
  8
CORSA_PLATE_FIX-EDGE_CUTS_GBR
 10
346.2406
 20
-144.4084
 30
0.00
  0
VERTEX
  8
CORSA_PLATE_FIX-EDGE_CUTS_GBR
 10
346.2406
 20
-132.3084
 30
0.00
  0
SEQEND
  0
POLYLINE
  8
CORSA_PLATE_FIX-EDGE_CUTS_GBR
 66
1
 10
0.00
 20
0.00
 30
0.00
 40
0.20
 41
0.20
  0
VERTEX
  8
CORSA_PLATE_FIX-EDGE_CUTS_GBR
 10
347.2406
 20
-145.4084
 30
0.00
  0
VERTEX
  8
CORSA_PLATE_FIX-EDGE_CUTS_GBR
 10
346.2406
 20
-144.4084
 30
0.00
  0
SEQEND
  0
POLYLINE
  8
CORSA_PLATE_FIX-EDGE_CUTS_GBR
 66
1
 10
0.00
 20
0.00
 30
0.00
 40
0.20
 41
0.20
  0
VERTEX
  8
CORSA_PLATE_FIX-EDGE_CUTS_GBR
 10
359.9406
 20
-145.4084
 30
0.00
  0
VERTEX
  8
CORSA_PLATE_FIX-EDGE_CUTS_GBR
 10
347.2406
 20
-145.4084
 30
0.00
  0
SEQEND
  0
POLYLINE
  8
CORSA_PLATE_FIX-EDGE_CUTS_GBR
 66
1
 10
0.00
 20
0.00
 30
0.00
 40
0.20
 41
0.20
  0
VERTEX
  8
CORSA_PLATE_FIX-EDGE_CUTS_GBR
 10
360.9406
 20
-144.4084
 30
0.00
  0
VERTEX
  8
CORSA_PLATE_FIX-EDGE_CUTS_GBR
 10
359.9406
 20
-145.4084
 30
0.00
  0
SEQEND
  0
POLYLINE
  8
CORSA_PLATE_FIX-EDGE_CUTS_GBR
 66
1
 10
0.00
 20
0.00
 30
0.00
 40
0.20
 41
0.20
  0
VERTEX
  8
CORSA_PLATE_FIX-EDGE_CUTS_GBR
 10
360.9406
 20
-132.3084
 30
0.00
  0
VERTEX
  8
CORSA_PLATE_FIX-EDGE_CUTS_GBR
 10
360.9406
 20
-144.4084
 30
0.00
  0
SEQEND
  0
POLYLINE
  8
CORSA_PLATE_FIX-EDGE_CUTS_GBR
 66
1
 10
0.00
 20
0.00
 30
0.00
 40
0.20
 41
0.20
  0
VERTEX
  8
CORSA_PLATE_FIX-EDGE_CUTS_GBR
 10
359.9406
 20
-131.3084
 30
0.00
  0
VERTEX
  8
CORSA_PLATE_FIX-EDGE_CUTS_GBR
 10
360.9406
 20
-132.3084
 30
0.00
  0
SEQEND
  0
POLYLINE
  8
CORSA_PLATE_FIX-EDGE_CUTS_GBR
 66
1
 10
0.00
 20
0.00
 30
0.00
 40
0.20
 41
0.20
  0
VERTEX
  8
CORSA_PLATE_FIX-EDGE_CUTS_GBR
 10
347.2406
 20
-131.3084
 30
0.00
  0
VERTEX
  8
CORSA_PLATE_FIX-EDGE_CUTS_GBR
 10
359.9406
 20
-131.3084
 30
0.00
  0
SEQEND
  0
POLYLINE
  8
CORSA_PLATE_FIX-EDGE_CUTS_GBR
 66
1
 10
0.00
 20
0.00
 30
0.00
 40
0.20
 41
0.20
  0
VERTEX
  8
CORSA_PLATE_FIX-EDGE_CUTS_GBR
 10
327.1906
 20
-132.3084
 30
0.00
  0
VERTEX
  8
CORSA_PLATE_FIX-EDGE_CUTS_GBR
 10
328.1906
 20
-131.3084
 30
0.00
  0
SEQEND
  0
POLYLINE
  8
CORSA_PLATE_FIX-EDGE_CUTS_GBR
 66
1
 10
0.00
 20
0.00
 30
0.00
 40
0.20
 41
0.20
  0
VERTEX
  8
CORSA_PLATE_FIX-EDGE_CUTS_GBR
 10
327.1906
 20
-144.4084
 30
0.00
  0
VERTEX
  8
CORSA_PLATE_FIX-EDGE_CUTS_GBR
 10
327.1906
 20
-132.3084
 30
0.00
  0
SEQEND
  0
POLYLINE
  8
CORSA_PLATE_FIX-EDGE_CUTS_GBR
 66
1
 10
0.00
 20
0.00
 30
0.00
 40
0.20
 41
0.20
  0
VERTEX
  8
CORSA_PLATE_FIX-EDGE_CUTS_GBR
 10
328.1906
 20
-145.4084
 30
0.00
  0
VERTEX
  8
CORSA_PLATE_FIX-EDGE_CUTS_GBR
 10
327.1906
 20
-144.4084
 30
0.00
  0
SEQEND
  0
POLYLINE
  8
CORSA_PLATE_FIX-EDGE_CUTS_GBR
 66
1
 10
0.00
 20
0.00
 30
0.00
 40
0.20
 41
0.20
  0
VERTEX
  8
CORSA_PLATE_FIX-EDGE_CUTS_GBR
 10
340.8906
 20
-145.4084
 30
0.00
  0
VERTEX
  8
CORSA_PLATE_FIX-EDGE_CUTS_GBR
 10
328.1906
 20
-145.4084
 30
0.00
  0
SEQEND
  0
POLYLINE
  8
CORSA_PLATE_FIX-EDGE_CUTS_GBR
 66
1
 10
0.00
 20
0.00
 30
0.00
 40
0.20
 41
0.20
  0
VERTEX
  8
CORSA_PLATE_FIX-EDGE_CUTS_GBR
 10
341.8906
 20
-144.4084
 30
0.00
  0
VERTEX
  8
CORSA_PLATE_FIX-EDGE_CUTS_GBR
 10
340.8906
 20
-145.4084
 30
0.00
  0
SEQEND
  0
POLYLINE
  8
CORSA_PLATE_FIX-EDGE_CUTS_GBR
 66
1
 10
0.00
 20
0.00
 30
0.00
 40
0.20
 41
0.20
  0
VERTEX
  8
CORSA_PLATE_FIX-EDGE_CUTS_GBR
 10
341.8906
 20
-132.3084
 30
0.00
  0
VERTEX
  8
CORSA_PLATE_FIX-EDGE_CUTS_GBR
 10
341.8906
 20
-144.4084
 30
0.00
  0
SEQEND
  0
POLYLINE
  8
CORSA_PLATE_FIX-EDGE_CUTS_GBR
 66
1
 10
0.00
 20
0.00
 30
0.00
 40
0.20
 41
0.20
  0
VERTEX
  8
CORSA_PLATE_FIX-EDGE_CUTS_GBR
 10
340.8906
 20
-131.3084
 30
0.00
  0
VERTEX
  8
CORSA_PLATE_FIX-EDGE_CUTS_GBR
 10
341.8906
 20
-132.3084
 30
0.00
  0
SEQEND
  0
POLYLINE
  8
CORSA_PLATE_FIX-EDGE_CUTS_GBR
 66
1
 10
0.00
 20
0.00
 30
0.00
 40
0.20
 41
0.20
  0
VERTEX
  8
CORSA_PLATE_FIX-EDGE_CUTS_GBR
 10
328.1906
 20
-131.3084
 30
0.00
  0
VERTEX
  8
CORSA_PLATE_FIX-EDGE_CUTS_GBR
 10
340.8906
 20
-131.3084
 30
0.00
  0
SEQEND
  0
POLYLINE
  8
CORSA_PLATE_FIX-EDGE_CUTS_GBR
 66
1
 10
0.00
 20
0.00
 30
0.00
 40
0.20
 41
0.20
  0
VERTEX
  8
CORSA_PLATE_FIX-EDGE_CUTS_GBR
 10
300.99685
 20
-132.3084
 30
0.00
  0
VERTEX
  8
CORSA_PLATE_FIX-EDGE_CUTS_GBR
 10
301.99685
 20
-131.3084
 30
0.00
  0
SEQEND
  0
POLYLINE
  8
CORSA_PLATE_FIX-EDGE_CUTS_GBR
 66
1
 10
0.00
 20
0.00
 30
0.00
 40
0.20
 41
0.20
  0
VERTEX
  8
CORSA_PLATE_FIX-EDGE_CUTS_GBR
 10
300.99685
 20
-144.4084
 30
0.00
  0
VERTEX
  8
CORSA_PLATE_FIX-EDGE_CUTS_GBR
 10
300.99685
 20
-132.3084
 30
0.00
  0
SEQEND
  0
POLYLINE
  8
CORSA_PLATE_FIX-EDGE_CUTS_GBR
 66
1
 10
0.00
 20
0.00
 30
0.00
 40
0.20
 41
0.20
  0
VERTEX
  8
CORSA_PLATE_FIX-EDGE_CUTS_GBR
 10
301.99685
 20
-145.4084
 30
0.00
  0
VERTEX
  8
CORSA_PLATE_FIX-EDGE_CUTS_GBR
 10
300.99685
 20
-144.4084
 30
0.00
  0
SEQEND
  0
POLYLINE
  8
CORSA_PLATE_FIX-EDGE_CUTS_GBR
 66
1
 10
0.00
 20
0.00
 30
0.00
 40
0.20
 41
0.20
  0
VERTEX
  8
CORSA_PLATE_FIX-EDGE_CUTS_GBR
 10
314.69685
 20
-145.4084
 30
0.00
  0
VERTEX
  8
CORSA_PLATE_FIX-EDGE_CUTS_GBR
 10
301.99685
 20
-145.4084
 30
0.00
  0
SEQEND
  0
POLYLINE
  8
CORSA_PLATE_FIX-EDGE_CUTS_GBR
 66
1
 10
0.00
 20
0.00
 30
0.00
 40
0.20
 41
0.20
  0
VERTEX
  8
CORSA_PLATE_FIX-EDGE_CUTS_GBR
 10
315.69685
 20
-144.4084
 30
0.00
  0
VERTEX
  8
CORSA_PLATE_FIX-EDGE_CUTS_GBR
 10
314.69685
 20
-145.4084
 30
0.00
  0
SEQEND
  0
POLYLINE
  8
CORSA_PLATE_FIX-EDGE_CUTS_GBR
 66
1
 10
0.00
 20
0.00
 30
0.00
 40
0.20
 41
0.20
  0
VERTEX
  8
CORSA_PLATE_FIX-EDGE_CUTS_GBR
 10
315.69685
 20
-132.3084
 30
0.00
  0
VERTEX
  8
CORSA_PLATE_FIX-EDGE_CUTS_GBR
 10
315.69685
 20
-144.4084
 30
0.00
  0
SEQEND
  0
POLYLINE
  8
CORSA_PLATE_FIX-EDGE_CUTS_GBR
 66
1
 10
0.00
 20
0.00
 30
0.00
 40
0.20
 41
0.20
  0
VERTEX
  8
CORSA_PLATE_FIX-EDGE_CUTS_GBR
 10
314.69685
 20
-131.3084
 30
0.00
  0
VERTEX
  8
CORSA_PLATE_FIX-EDGE_CUTS_GBR
 10
315.69685
 20
-132.3084
 30
0.00
  0
SEQEND
  0
POLYLINE
  8
CORSA_PLATE_FIX-EDGE_CUTS_GBR
 66
1
 10
0.00
 20
0.00
 30
0.00
 40
0.20
 41
0.20
  0
VERTEX
  8
CORSA_PLATE_FIX-EDGE_CUTS_GBR
 10
301.99685
 20
-131.3084
 30
0.00
  0
VERTEX
  8
CORSA_PLATE_FIX-EDGE_CUTS_GBR
 10
314.69685
 20
-131.3084
 30
0.00
  0
SEQEND
  0
POLYLINE
  8
CORSA_PLATE_FIX-EDGE_CUTS_GBR
 66
1
 10
0.00
 20
0.00
 30
0.00
 40
0.20
 41
0.20
  0
VERTEX
  8
CORSA_PLATE_FIX-EDGE_CUTS_GBR
 10
274.8031
 20
-132.3084
 30
0.00
  0
VERTEX
  8
CORSA_PLATE_FIX-EDGE_CUTS_GBR
 10
275.8031
 20
-131.3084
 30
0.00
  0
SEQEND
  0
POLYLINE
  8
CORSA_PLATE_FIX-EDGE_CUTS_GBR
 66
1
 10
0.00
 20
0.00
 30
0.00
 40
0.20
 41
0.20
  0
VERTEX
  8
CORSA_PLATE_FIX-EDGE_CUTS_GBR
 10
274.8031
 20
-144.4084
 30
0.00
  0
VERTEX
  8
CORSA_PLATE_FIX-EDGE_CUTS_GBR
 10
274.8031
 20
-132.3084
 30
0.00
  0
SEQEND
  0
POLYLINE
  8
CORSA_PLATE_FIX-EDGE_CUTS_GBR
 66
1
 10
0.00
 20
0.00
 30
0.00
 40
0.20
 41
0.20
  0
VERTEX
  8
CORSA_PLATE_FIX-EDGE_CUTS_GBR
 10
275.8031
 20
-145.4084
 30
0.00
  0
VERTEX
  8
CORSA_PLATE_FIX-EDGE_CUTS_GBR
 10
274.8031
 20
-144.4084
 30
0.00
  0
SEQEND
  0
POLYLINE
  8
CORSA_PLATE_FIX-EDGE_CUTS_GBR
 66
1
 10
0.00
 20
0.00
 30
0.00
 40
0.20
 41
0.20
  0
VERTEX
  8
CORSA_PLATE_FIX-EDGE_CUTS_GBR
 10
288.5031
 20
-145.4084
 30
0.00
  0
VERTEX
  8
CORSA_PLATE_FIX-EDGE_CUTS_GBR
 10
275.8031
 20
-145.4084
 30
0.00
  0
SEQEND
  0
POLYLINE
  8
CORSA_PLATE_FIX-EDGE_CUTS_GBR
 66
1
 10
0.00
 20
0.00
 30
0.00
 40
0.20
 41
0.20
  0
VERTEX
  8
CORSA_PLATE_FIX-EDGE_CUTS_GBR
 10
289.5031
 20
-144.4084
 30
0.00
  0
VERTEX
  8
CORSA_PLATE_FIX-EDGE_CUTS_GBR
 10
288.5031
 20
-145.4084
 30
0.00
  0
SEQEND
  0
POLYLINE
  8
CORSA_PLATE_FIX-EDGE_CUTS_GBR
 66
1
 10
0.00
 20
0.00
 30
0.00
 40
0.20
 41
0.20
  0
VERTEX
  8
CORSA_PLATE_FIX-EDGE_CUTS_GBR
 10
289.5031
 20
-132.3084
 30
0.00
  0
VERTEX
  8
CORSA_PLATE_FIX-EDGE_CUTS_GBR
 10
289.5031
 20
-144.4084
 30
0.00
  0
SEQEND
  0
POLYLINE
  8
CORSA_PLATE_FIX-EDGE_CUTS_GBR
 66
1
 10
0.00
 20
0.00
 30
0.00
 40
0.20
 41
0.20
  0
VERTEX
  8
CORSA_PLATE_FIX-EDGE_CUTS_GBR
 10
288.5031
 20
-131.3084
 30
0.00
  0
VERTEX
  8
CORSA_PLATE_FIX-EDGE_CUTS_GBR
 10
289.5031
 20
-132.3084
 30
0.00
  0
SEQEND
  0
POLYLINE
  8
CORSA_PLATE_FIX-EDGE_CUTS_GBR
 66
1
 10
0.00
 20
0.00
 30
0.00
 40
0.20
 41
0.20
  0
VERTEX
  8
CORSA_PLATE_FIX-EDGE_CUTS_GBR
 10
275.8031
 20
-131.3084
 30
0.00
  0
VERTEX
  8
CORSA_PLATE_FIX-EDGE_CUTS_GBR
 10
288.5031
 20
-131.3084
 30
0.00
  0
SEQEND
  0
POLYLINE
  8
CORSA_PLATE_FIX-EDGE_CUTS_GBR
 66
1
 10
0.00
 20
0.00
 30
0.00
 40
0.20
 41
0.20
  0
VERTEX
  8
CORSA_PLATE_FIX-EDGE_CUTS_GBR
 10
255.7531
 20
-132.3084
 30
0.00
  0
VERTEX
  8
CORSA_PLATE_FIX-EDGE_CUTS_GBR
 10
256.7531
 20
-131.3084
 30
0.00
  0
SEQEND
  0
POLYLINE
  8
CORSA_PLATE_FIX-EDGE_CUTS_GBR
 66
1
 10
0.00
 20
0.00
 30
0.00
 40
0.20
 41
0.20
  0
VERTEX
  8
CORSA_PLATE_FIX-EDGE_CUTS_GBR
 10
255.7531
 20
-144.4084
 30
0.00
  0
VERTEX
  8
CORSA_PLATE_FIX-EDGE_CUTS_GBR
 10
255.7531
 20
-132.3084
 30
0.00
  0
SEQEND
  0
POLYLINE
  8
CORSA_PLATE_FIX-EDGE_CUTS_GBR
 66
1
 10
0.00
 20
0.00
 30
0.00
 40
0.20
 41
0.20
  0
VERTEX
  8
CORSA_PLATE_FIX-EDGE_CUTS_GBR
 10
256.7531
 20
-145.4084
 30
0.00
  0
VERTEX
  8
CORSA_PLATE_FIX-EDGE_CUTS_GBR
 10
255.7531
 20
-144.4084
 30
0.00
  0
SEQEND
  0
POLYLINE
  8
CORSA_PLATE_FIX-EDGE_CUTS_GBR
 66
1
 10
0.00
 20
0.00
 30
0.00
 40
0.20
 41
0.20
  0
VERTEX
  8
CORSA_PLATE_FIX-EDGE_CUTS_GBR
 10
269.4531
 20
-145.4084
 30
0.00
  0
VERTEX
  8
CORSA_PLATE_FIX-EDGE_CUTS_GBR
 10
256.7531
 20
-145.4084
 30
0.00
  0
SEQEND
  0
POLYLINE
  8
CORSA_PLATE_FIX-EDGE_CUTS_GBR
 66
1
 10
0.00
 20
0.00
 30
0.00
 40
0.20
 41
0.20
  0
VERTEX
  8
CORSA_PLATE_FIX-EDGE_CUTS_GBR
 10
270.4531
 20
-144.4084
 30
0.00
  0
VERTEX
  8
CORSA_PLATE_FIX-EDGE_CUTS_GBR
 10
269.4531
 20
-145.4084
 30
0.00
  0
SEQEND
  0
POLYLINE
  8
CORSA_PLATE_FIX-EDGE_CUTS_GBR
 66
1
 10
0.00
 20
0.00
 30
0.00
 40
0.20
 41
0.20
  0
VERTEX
  8
CORSA_PLATE_FIX-EDGE_CUTS_GBR
 10
270.4531
 20
-132.3084
 30
0.00
  0
VERTEX
  8
CORSA_PLATE_FIX-EDGE_CUTS_GBR
 10
270.4531
 20
-144.4084
 30
0.00
  0
SEQEND
  0
POLYLINE
  8
CORSA_PLATE_FIX-EDGE_CUTS_GBR
 66
1
 10
0.00
 20
0.00
 30
0.00
 40
0.20
 41
0.20
  0
VERTEX
  8
CORSA_PLATE_FIX-EDGE_CUTS_GBR
 10
269.4531
 20
-131.3084
 30
0.00
  0
VERTEX
  8
CORSA_PLATE_FIX-EDGE_CUTS_GBR
 10
270.4531
 20
-132.3084
 30
0.00
  0
SEQEND
  0
POLYLINE
  8
CORSA_PLATE_FIX-EDGE_CUTS_GBR
 66
1
 10
0.00
 20
0.00
 30
0.00
 40
0.20
 41
0.20
  0
VERTEX
  8
CORSA_PLATE_FIX-EDGE_CUTS_GBR
 10
256.7531
 20
-131.3084
 30
0.00
  0
VERTEX
  8
CORSA_PLATE_FIX-EDGE_CUTS_GBR
 10
269.4531
 20
-131.3084
 30
0.00
  0
SEQEND
  0
POLYLINE
  8
CORSA_PLATE_FIX-EDGE_CUTS_GBR
 66
1
 10
0.00
 20
0.00
 30
0.00
 40
0.20
 41
0.20
  0
VERTEX
  8
CORSA_PLATE_FIX-EDGE_CUTS_GBR
 10
346.2406
 20
-113.2584
 30
0.00
  0
VERTEX
  8
CORSA_PLATE_FIX-EDGE_CUTS_GBR
 10
347.2406
 20
-112.2584
 30
0.00
  0
SEQEND
  0
POLYLINE
  8
CORSA_PLATE_FIX-EDGE_CUTS_GBR
 66
1
 10
0.00
 20
0.00
 30
0.00
 40
0.20
 41
0.20
  0
VERTEX
  8
CORSA_PLATE_FIX-EDGE_CUTS_GBR
 10
346.2406
 20
-125.3584
 30
0.00
  0
VERTEX
  8
CORSA_PLATE_FIX-EDGE_CUTS_GBR
 10
346.2406
 20
-113.2584
 30
0.00
  0
SEQEND
  0
POLYLINE
  8
CORSA_PLATE_FIX-EDGE_CUTS_GBR
 66
1
 10
0.00
 20
0.00
 30
0.00
 40
0.20
 41
0.20
  0
VERTEX
  8
CORSA_PLATE_FIX-EDGE_CUTS_GBR
 10
347.2406
 20
-126.3584
 30
0.00
  0
VERTEX
  8
CORSA_PLATE_FIX-EDGE_CUTS_GBR
 10
346.2406
 20
-125.3584
 30
0.00
  0
SEQEND
  0
POLYLINE
  8
CORSA_PLATE_FIX-EDGE_CUTS_GBR
 66
1
 10
0.00
 20
0.00
 30
0.00
 40
0.20
 41
0.20
  0
VERTEX
  8
CORSA_PLATE_FIX-EDGE_CUTS_GBR
 10
359.9406
 20
-126.3584
 30
0.00
  0
VERTEX
  8
CORSA_PLATE_FIX-EDGE_CUTS_GBR
 10
347.2406
 20
-126.3584
 30
0.00
  0
SEQEND
  0
POLYLINE
  8
CORSA_PLATE_FIX-EDGE_CUTS_GBR
 66
1
 10
0.00
 20
0.00
 30
0.00
 40
0.20
 41
0.20
  0
VERTEX
  8
CORSA_PLATE_FIX-EDGE_CUTS_GBR
 10
360.9406
 20
-125.3584
 30
0.00
  0
VERTEX
  8
CORSA_PLATE_FIX-EDGE_CUTS_GBR
 10
359.9406
 20
-126.3584
 30
0.00
  0
SEQEND
  0
POLYLINE
  8
CORSA_PLATE_FIX-EDGE_CUTS_GBR
 66
1
 10
0.00
 20
0.00
 30
0.00
 40
0.20
 41
0.20
  0
VERTEX
  8
CORSA_PLATE_FIX-EDGE_CUTS_GBR
 10
360.9406
 20
-113.2584
 30
0.00
  0
VERTEX
  8
CORSA_PLATE_FIX-EDGE_CUTS_GBR
 10
360.9406
 20
-125.3584
 30
0.00
  0
SEQEND
  0
POLYLINE
  8
CORSA_PLATE_FIX-EDGE_CUTS_GBR
 66
1
 10
0.00
 20
0.00
 30
0.00
 40
0.20
 41
0.20
  0
VERTEX
  8
CORSA_PLATE_FIX-EDGE_CUTS_GBR
 10
359.9406
 20
-112.2584
 30
0.00
  0
VERTEX
  8
CORSA_PLATE_FIX-EDGE_CUTS_GBR
 10
360.9406
 20
-113.2584
 30
0.00
  0
SEQEND
  0
POLYLINE
  8
CORSA_PLATE_FIX-EDGE_CUTS_GBR
 66
1
 10
0.00
 20
0.00
 30
0.00
 40
0.20
 41
0.20
  0
VERTEX
  8
CORSA_PLATE_FIX-EDGE_CUTS_GBR
 10
347.2406
 20
-112.2584
 30
0.00
  0
VERTEX
  8
CORSA_PLATE_FIX-EDGE_CUTS_GBR
 10
359.9406
 20
-112.2584
 30
0.00
  0
SEQEND
  0
POLYLINE
  8
CORSA_PLATE_FIX-EDGE_CUTS_GBR
 66
1
 10
0.00
 20
0.00
 30
0.00
 40
0.20
 41
0.20
  0
VERTEX
  8
CORSA_PLATE_FIX-EDGE_CUTS_GBR
 10
306.53435
 20
-113.2584
 30
0.00
  0
VERTEX
  8
CORSA_PLATE_FIX-EDGE_CUTS_GBR
 10
307.53435
 20
-112.2584
 30
0.00
  0
SEQEND
  0
POLYLINE
  8
CORSA_PLATE_FIX-EDGE_CUTS_GBR
 66
1
 10
0.00
 20
0.00
 30
0.00
 40
0.20
 41
0.20
  0
VERTEX
  8
CORSA_PLATE_FIX-EDGE_CUTS_GBR
 10
306.53435
 20
-124.6284
 30
0.00
  0
VERTEX
  8
CORSA_PLATE_FIX-EDGE_CUTS_GBR
 10
306.53435
 20
-113.2584
 30
0.00
  0
SEQEND
  0
POLYLINE
  8
CORSA_PLATE_FIX-EDGE_CUTS_GBR
 66
1
 10
0.00
 20
0.00
 30
0.00
 40
0.20
 41
0.20
  0
VERTEX
  8
CORSA_PLATE_FIX-EDGE_CUTS_GBR
 10
309.53435
 20
-126.3584
 30
0.00
  0
VERTEX
  8
CORSA_PLATE_FIX-EDGE_CUTS_GBR
 10
306.53435
 20
-124.6284
 30
0.00
  0
SEQEND
  0
POLYLINE
  8
CORSA_PLATE_FIX-EDGE_CUTS_GBR
 66
1
 10
0.00
 20
0.00
 30
0.00
 40
0.20
 41
0.20
  0
VERTEX
  8
CORSA_PLATE_FIX-EDGE_CUTS_GBR
 10
335.73435
 20
-126.3584
 30
0.00
  0
VERTEX
  8
CORSA_PLATE_FIX-EDGE_CUTS_GBR
 10
309.53435
 20
-126.3584
 30
0.00
  0
SEQEND
  0
POLYLINE
  8
CORSA_PLATE_FIX-EDGE_CUTS_GBR
 66
1
 10
0.00
 20
0.00
 30
0.00
 40
0.20
 41
0.20
  0
VERTEX
  8
CORSA_PLATE_FIX-EDGE_CUTS_GBR
 10
338.73435
 20
-124.6284
 30
0.00
  0
VERTEX
  8
CORSA_PLATE_FIX-EDGE_CUTS_GBR
 10
335.73435
 20
-126.3584
 30
0.00
  0
SEQEND
  0
POLYLINE
  8
CORSA_PLATE_FIX-EDGE_CUTS_GBR
 66
1
 10
0.00
 20
0.00
 30
0.00
 40
0.20
 41
0.20
  0
VERTEX
  8
CORSA_PLATE_FIX-EDGE_CUTS_GBR
 10
338.73435
 20
-113.2584
 30
0.00
  0
VERTEX
  8
CORSA_PLATE_FIX-EDGE_CUTS_GBR
 10
338.73435
 20
-124.6284
 30
0.00
  0
SEQEND
  0
POLYLINE
  8
CORSA_PLATE_FIX-EDGE_CUTS_GBR
 66
1
 10
0.00
 20
0.00
 30
0.00
 40
0.20
 41
0.20
  0
VERTEX
  8
CORSA_PLATE_FIX-EDGE_CUTS_GBR
 10
337.73435
 20
-112.2584
 30
0.00
  0
VERTEX
  8
CORSA_PLATE_FIX-EDGE_CUTS_GBR
 10
338.73435
 20
-113.2584
 30
0.00
  0
SEQEND
  0
POLYLINE
  8
CORSA_PLATE_FIX-EDGE_CUTS_GBR
 66
1
 10
0.00
 20
0.00
 30
0.00
 40
0.20
 41
0.20
  0
VERTEX
  8
CORSA_PLATE_FIX-EDGE_CUTS_GBR
 10
307.53435
 20
-112.2584
 30
0.00
  0
VERTEX
  8
CORSA_PLATE_FIX-EDGE_CUTS_GBR
 10
337.73435
 20
-112.2584
 30
0.00
  0
SEQEND
  0
POLYLINE
  8
CORSA_PLATE_FIX-EDGE_CUTS_GBR
 66
1
 10
0.00
 20
0.00
 30
0.00
 40
0.20
 41
0.20
  0
VERTEX
  8
CORSA_PLATE_FIX-EDGE_CUTS_GBR
 10
284.3281
 20
-113.2584
 30
0.00
  0
VERTEX
  8
CORSA_PLATE_FIX-EDGE_CUTS_GBR
 10
285.3281
 20
-112.2584
 30
0.00
  0
SEQEND
  0
POLYLINE
  8
CORSA_PLATE_FIX-EDGE_CUTS_GBR
 66
1
 10
0.00
 20
0.00
 30
0.00
 40
0.20
 41
0.20
  0
VERTEX
  8
CORSA_PLATE_FIX-EDGE_CUTS_GBR
 10
284.3281
 20
-125.3584
 30
0.00
  0
VERTEX
  8
CORSA_PLATE_FIX-EDGE_CUTS_GBR
 10
284.3281
 20
-113.2584
 30
0.00
  0
SEQEND
  0
POLYLINE
  8
CORSA_PLATE_FIX-EDGE_CUTS_GBR
 66
1
 10
0.00
 20
0.00
 30
0.00
 40
0.20
 41
0.20
  0
VERTEX
  8
CORSA_PLATE_FIX-EDGE_CUTS_GBR
 10
285.3281
 20
-126.3584
 30
0.00
  0
VERTEX
  8
CORSA_PLATE_FIX-EDGE_CUTS_GBR
 10
284.3281
 20
-125.3584
 30
0.00
  0
SEQEND
  0
POLYLINE
  8
CORSA_PLATE_FIX-EDGE_CUTS_GBR
 66
1
 10
0.00
 20
0.00
 30
0.00
 40
0.20
 41
0.20
  0
VERTEX
  8
CORSA_PLATE_FIX-EDGE_CUTS_GBR
 10
298.0281
 20
-126.3584
 30
0.00
  0
VERTEX
  8
CORSA_PLATE_FIX-EDGE_CUTS_GBR
 10
285.3281
 20
-126.3584
 30
0.00
  0
SEQEND
  0
POLYLINE
  8
CORSA_PLATE_FIX-EDGE_CUTS_GBR
 66
1
 10
0.00
 20
0.00
 30
0.00
 40
0.20
 41
0.20
  0
VERTEX
  8
CORSA_PLATE_FIX-EDGE_CUTS_GBR
 10
299.0281
 20
-125.3584
 30
0.00
  0
VERTEX
  8
CORSA_PLATE_FIX-EDGE_CUTS_GBR
 10
298.0281
 20
-126.3584
 30
0.00
  0
SEQEND
  0
POLYLINE
  8
CORSA_PLATE_FIX-EDGE_CUTS_GBR
 66
1
 10
0.00
 20
0.00
 30
0.00
 40
0.20
 41
0.20
  0
VERTEX
  8
CORSA_PLATE_FIX-EDGE_CUTS_GBR
 10
299.0281
 20
-113.2584
 30
0.00
  0
VERTEX
  8
CORSA_PLATE_FIX-EDGE_CUTS_GBR
 10
299.0281
 20
-125.3584
 30
0.00
  0
SEQEND
  0
POLYLINE
  8
CORSA_PLATE_FIX-EDGE_CUTS_GBR
 66
1
 10
0.00
 20
0.00
 30
0.00
 40
0.20
 41
0.20
  0
VERTEX
  8
CORSA_PLATE_FIX-EDGE_CUTS_GBR
 10
298.0281
 20
-112.2584
 30
0.00
  0
VERTEX
  8
CORSA_PLATE_FIX-EDGE_CUTS_GBR
 10
299.0281
 20
-113.2584
 30
0.00
  0
SEQEND
  0
POLYLINE
  8
CORSA_PLATE_FIX-EDGE_CUTS_GBR
 66
1
 10
0.00
 20
0.00
 30
0.00
 40
0.20
 41
0.20
  0
VERTEX
  8
CORSA_PLATE_FIX-EDGE_CUTS_GBR
 10
285.3281
 20
-112.2584
 30
0.00
  0
VERTEX
  8
CORSA_PLATE_FIX-EDGE_CUTS_GBR
 10
298.0281
 20
-112.2584
 30
0.00
  0
SEQEND
  0
POLYLINE
  8
CORSA_PLATE_FIX-EDGE_CUTS_GBR
 66
1
 10
0.00
 20
0.00
 30
0.00
 40
0.20
 41
0.20
  0
VERTEX
  8
CORSA_PLATE_FIX-EDGE_CUTS_GBR
 10
265.2781
 20
-113.2584
 30
0.00
  0
VERTEX
  8
CORSA_PLATE_FIX-EDGE_CUTS_GBR
 10
266.2781
 20
-112.2584
 30
0.00
  0
SEQEND
  0
POLYLINE
  8
CORSA_PLATE_FIX-EDGE_CUTS_GBR
 66
1
 10
0.00
 20
0.00
 30
0.00
 40
0.20
 41
0.20
  0
VERTEX
  8
CORSA_PLATE_FIX-EDGE_CUTS_GBR
 10
265.2781
 20
-125.3584
 30
0.00
  0
VERTEX
  8
CORSA_PLATE_FIX-EDGE_CUTS_GBR
 10
265.2781
 20
-113.2584
 30
0.00
  0
SEQEND
  0
POLYLINE
  8
CORSA_PLATE_FIX-EDGE_CUTS_GBR
 66
1
 10
0.00
 20
0.00
 30
0.00
 40
0.20
 41
0.20
  0
VERTEX
  8
CORSA_PLATE_FIX-EDGE_CUTS_GBR
 10
266.2781
 20
-126.3584
 30
0.00
  0
VERTEX
  8
CORSA_PLATE_FIX-EDGE_CUTS_GBR
 10
265.2781
 20
-125.3584
 30
0.00
  0
SEQEND
  0
POLYLINE
  8
CORSA_PLATE_FIX-EDGE_CUTS_GBR
 66
1
 10
0.00
 20
0.00
 30
0.00
 40
0.20
 41
0.20
  0
VERTEX
  8
CORSA_PLATE_FIX-EDGE_CUTS_GBR
 10
278.9781
 20
-126.3584
 30
0.00
  0
VERTEX
  8
CORSA_PLATE_FIX-EDGE_CUTS_GBR
 10
266.2781
 20
-126.3584
 30
0.00
  0
SEQEND
  0
POLYLINE
  8
CORSA_PLATE_FIX-EDGE_CUTS_GBR
 66
1
 10
0.00
 20
0.00
 30
0.00
 40
0.20
 41
0.20
  0
VERTEX
  8
CORSA_PLATE_FIX-EDGE_CUTS_GBR
 10
279.9781
 20
-125.3584
 30
0.00
  0
VERTEX
  8
CORSA_PLATE_FIX-EDGE_CUTS_GBR
 10
278.9781
 20
-126.3584
 30
0.00
  0
SEQEND
  0
POLYLINE
  8
CORSA_PLATE_FIX-EDGE_CUTS_GBR
 66
1
 10
0.00
 20
0.00
 30
0.00
 40
0.20
 41
0.20
  0
VERTEX
  8
CORSA_PLATE_FIX-EDGE_CUTS_GBR
 10
279.9781
 20
-113.2584
 30
0.00
  0
VERTEX
  8
CORSA_PLATE_FIX-EDGE_CUTS_GBR
 10
279.9781
 20
-125.3584
 30
0.00
  0
SEQEND
  0
POLYLINE
  8
CORSA_PLATE_FIX-EDGE_CUTS_GBR
 66
1
 10
0.00
 20
0.00
 30
0.00
 40
0.20
 41
0.20
  0
VERTEX
  8
CORSA_PLATE_FIX-EDGE_CUTS_GBR
 10
278.9781
 20
-112.2584
 30
0.00
  0
VERTEX
  8
CORSA_PLATE_FIX-EDGE_CUTS_GBR
 10
279.9781
 20
-113.2584
 30
0.00
  0
SEQEND
  0
POLYLINE
  8
CORSA_PLATE_FIX-EDGE_CUTS_GBR
 66
1
 10
0.00
 20
0.00
 30
0.00
 40
0.20
 41
0.20
  0
VERTEX
  8
CORSA_PLATE_FIX-EDGE_CUTS_GBR
 10
266.2781
 20
-112.2584
 30
0.00
  0
VERTEX
  8
CORSA_PLATE_FIX-EDGE_CUTS_GBR
 10
278.9781
 20
-112.2584
 30
0.00
  0
SEQEND
  0
POLYLINE
  8
CORSA_PLATE_FIX-EDGE_CUTS_GBR
 66
1
 10
0.00
 20
0.00
 30
0.00
 40
0.20
 41
0.20
  0
VERTEX
  8
CORSA_PLATE_FIX-EDGE_CUTS_GBR
 10
246.2281
 20
-113.2584
 30
0.00
  0
VERTEX
  8
CORSA_PLATE_FIX-EDGE_CUTS_GBR
 10
247.2281
 20
-112.2584
 30
0.00
  0
SEQEND
  0
POLYLINE
  8
CORSA_PLATE_FIX-EDGE_CUTS_GBR
 66
1
 10
0.00
 20
0.00
 30
0.00
 40
0.20
 41
0.20
  0
VERTEX
  8
CORSA_PLATE_FIX-EDGE_CUTS_GBR
 10
246.2281
 20
-125.3584
 30
0.00
  0
VERTEX
  8
CORSA_PLATE_FIX-EDGE_CUTS_GBR
 10
246.2281
 20
-113.2584
 30
0.00
  0
SEQEND
  0
POLYLINE
  8
CORSA_PLATE_FIX-EDGE_CUTS_GBR
 66
1
 10
0.00
 20
0.00
 30
0.00
 40
0.20
 41
0.20
  0
VERTEX
  8
CORSA_PLATE_FIX-EDGE_CUTS_GBR
 10
247.2281
 20
-126.3584
 30
0.00
  0
VERTEX
  8
CORSA_PLATE_FIX-EDGE_CUTS_GBR
 10
246.2281
 20
-125.3584
 30
0.00
  0
SEQEND
  0
POLYLINE
  8
CORSA_PLATE_FIX-EDGE_CUTS_GBR
 66
1
 10
0.00
 20
0.00
 30
0.00
 40
0.20
 41
0.20
  0
VERTEX
  8
CORSA_PLATE_FIX-EDGE_CUTS_GBR
 10
259.9281
 20
-126.3584
 30
0.00
  0
VERTEX
  8
CORSA_PLATE_FIX-EDGE_CUTS_GBR
 10
247.2281
 20
-126.3584
 30
0.00
  0
SEQEND
  0
POLYLINE
  8
CORSA_PLATE_FIX-EDGE_CUTS_GBR
 66
1
 10
0.00
 20
0.00
 30
0.00
 40
0.20
 41
0.20
  0
VERTEX
  8
CORSA_PLATE_FIX-EDGE_CUTS_GBR
 10
260.9281
 20
-125.3584
 30
0.00
  0
VERTEX
  8
CORSA_PLATE_FIX-EDGE_CUTS_GBR
 10
259.9281
 20
-126.3584
 30
0.00
  0
SEQEND
  0
POLYLINE
  8
CORSA_PLATE_FIX-EDGE_CUTS_GBR
 66
1
 10
0.00
 20
0.00
 30
0.00
 40
0.20
 41
0.20
  0
VERTEX
  8
CORSA_PLATE_FIX-EDGE_CUTS_GBR
 10
260.9281
 20
-113.2584
 30
0.00
  0
VERTEX
  8
CORSA_PLATE_FIX-EDGE_CUTS_GBR
 10
260.9281
 20
-125.3584
 30
0.00
  0
SEQEND
  0
POLYLINE
  8
CORSA_PLATE_FIX-EDGE_CUTS_GBR
 66
1
 10
0.00
 20
0.00
 30
0.00
 40
0.20
 41
0.20
  0
VERTEX
  8
CORSA_PLATE_FIX-EDGE_CUTS_GBR
 10
259.9281
 20
-112.2584
 30
0.00
  0
VERTEX
  8
CORSA_PLATE_FIX-EDGE_CUTS_GBR
 10
260.9281
 20
-113.2584
 30
0.00
  0
SEQEND
  0
POLYLINE
  8
CORSA_PLATE_FIX-EDGE_CUTS_GBR
 66
1
 10
0.00
 20
0.00
 30
0.00
 40
0.20
 41
0.20
  0
VERTEX
  8
CORSA_PLATE_FIX-EDGE_CUTS_GBR
 10
247.2281
 20
-112.2584
 30
0.00
  0
VERTEX
  8
CORSA_PLATE_FIX-EDGE_CUTS_GBR
 10
259.9281
 20
-112.2584
 30
0.00
  0
SEQEND
  0
POLYLINE
  8
CORSA_PLATE_FIX-EDGE_CUTS_GBR
 66
1
 10
0.00
 20
0.00
 30
0.00
 40
0.20
 41
0.20
  0
VERTEX
  8
CORSA_PLATE_FIX-EDGE_CUTS_GBR
 10
346.2406
 20
-94.2084
 30
0.00
  0
VERTEX
  8
CORSA_PLATE_FIX-EDGE_CUTS_GBR
 10
347.2406
 20
-93.2084
 30
0.00
  0
SEQEND
  0
POLYLINE
  8
CORSA_PLATE_FIX-EDGE_CUTS_GBR
 66
1
 10
0.00
 20
0.00
 30
0.00
 40
0.20
 41
0.20
  0
VERTEX
  8
CORSA_PLATE_FIX-EDGE_CUTS_GBR
 10
346.2406
 20
-106.3084
 30
0.00
  0
VERTEX
  8
CORSA_PLATE_FIX-EDGE_CUTS_GBR
 10
346.2406
 20
-94.2084
 30
0.00
  0
SEQEND
  0
POLYLINE
  8
CORSA_PLATE_FIX-EDGE_CUTS_GBR
 66
1
 10
0.00
 20
0.00
 30
0.00
 40
0.20
 41
0.20
  0
VERTEX
  8
CORSA_PLATE_FIX-EDGE_CUTS_GBR
 10
347.2406
 20
-107.3084
 30
0.00
  0
VERTEX
  8
CORSA_PLATE_FIX-EDGE_CUTS_GBR
 10
346.2406
 20
-106.3084
 30
0.00
  0
SEQEND
  0
POLYLINE
  8
CORSA_PLATE_FIX-EDGE_CUTS_GBR
 66
1
 10
0.00
 20
0.00
 30
0.00
 40
0.20
 41
0.20
  0
VERTEX
  8
CORSA_PLATE_FIX-EDGE_CUTS_GBR
 10
359.9406
 20
-107.3084
 30
0.00
  0
VERTEX
  8
CORSA_PLATE_FIX-EDGE_CUTS_GBR
 10
347.2406
 20
-107.3084
 30
0.00
  0
SEQEND
  0
POLYLINE
  8
CORSA_PLATE_FIX-EDGE_CUTS_GBR
 66
1
 10
0.00
 20
0.00
 30
0.00
 40
0.20
 41
0.20
  0
VERTEX
  8
CORSA_PLATE_FIX-EDGE_CUTS_GBR
 10
360.9406
 20
-106.3084
 30
0.00
  0
VERTEX
  8
CORSA_PLATE_FIX-EDGE_CUTS_GBR
 10
359.9406
 20
-107.3084
 30
0.00
  0
SEQEND
  0
POLYLINE
  8
CORSA_PLATE_FIX-EDGE_CUTS_GBR
 66
1
 10
0.00
 20
0.00
 30
0.00
 40
0.20
 41
0.20
  0
VERTEX
  8
CORSA_PLATE_FIX-EDGE_CUTS_GBR
 10
360.9406
 20
-94.2084
 30
0.00
  0
VERTEX
  8
CORSA_PLATE_FIX-EDGE_CUTS_GBR
 10
360.9406
 20
-106.3084
 30
0.00
  0
SEQEND
  0
POLYLINE
  8
CORSA_PLATE_FIX-EDGE_CUTS_GBR
 66
1
 10
0.00
 20
0.00
 30
0.00
 40
0.20
 41
0.20
  0
VERTEX
  8
CORSA_PLATE_FIX-EDGE_CUTS_GBR
 10
359.9406
 20
-93.2084
 30
0.00
  0
VERTEX
  8
CORSA_PLATE_FIX-EDGE_CUTS_GBR
 10
360.9406
 20
-94.2084
 30
0.00
  0
SEQEND
  0
POLYLINE
  8
CORSA_PLATE_FIX-EDGE_CUTS_GBR
 66
1
 10
0.00
 20
0.00
 30
0.00
 40
0.20
 41
0.20
  0
VERTEX
  8
CORSA_PLATE_FIX-EDGE_CUTS_GBR
 10
347.2406
 20
-93.2084
 30
0.00
  0
VERTEX
  8
CORSA_PLATE_FIX-EDGE_CUTS_GBR
 10
359.9406
 20
-93.2084
 30
0.00
  0
SEQEND
  0
POLYLINE
  8
CORSA_PLATE_FIX-EDGE_CUTS_GBR
 66
1
 10
0.00
 20
0.00
 30
0.00
 40
0.20
 41
0.20
  0
VERTEX
  8
CORSA_PLATE_FIX-EDGE_CUTS_GBR
 10
322.4281
 20
-94.2084
 30
0.00
  0
VERTEX
  8
CORSA_PLATE_FIX-EDGE_CUTS_GBR
 10
323.4281
 20
-93.2084
 30
0.00
  0
SEQEND
  0
POLYLINE
  8
CORSA_PLATE_FIX-EDGE_CUTS_GBR
 66
1
 10
0.00
 20
0.00
 30
0.00
 40
0.20
 41
0.20
  0
VERTEX
  8
CORSA_PLATE_FIX-EDGE_CUTS_GBR
 10
322.4281
 20
-106.3084
 30
0.00
  0
VERTEX
  8
CORSA_PLATE_FIX-EDGE_CUTS_GBR
 10
322.4281
 20
-94.2084
 30
0.00
  0
SEQEND
  0
POLYLINE
  8
CORSA_PLATE_FIX-EDGE_CUTS_GBR
 66
1
 10
0.00
 20
0.00
 30
0.00
 40
0.20
 41
0.20
  0
VERTEX
  8
CORSA_PLATE_FIX-EDGE_CUTS_GBR
 10
323.4281
 20
-107.3084
 30
0.00
  0
VERTEX
  8
CORSA_PLATE_FIX-EDGE_CUTS_GBR
 10
322.4281
 20
-106.3084
 30
0.00
  0
SEQEND
  0
POLYLINE
  8
CORSA_PLATE_FIX-EDGE_CUTS_GBR
 66
1
 10
0.00
 20
0.00
 30
0.00
 40
0.20
 41
0.20
  0
VERTEX
  8
CORSA_PLATE_FIX-EDGE_CUTS_GBR
 10
336.1281
 20
-107.3084
 30
0.00
  0
VERTEX
  8
CORSA_PLATE_FIX-EDGE_CUTS_GBR
 10
323.4281
 20
-107.3084
 30
0.00
  0
SEQEND
  0
POLYLINE
  8
CORSA_PLATE_FIX-EDGE_CUTS_GBR
 66
1
 10
0.00
 20
0.00
 30
0.00
 40
0.20
 41
0.20
  0
VERTEX
  8
CORSA_PLATE_FIX-EDGE_CUTS_GBR
 10
337.1281
 20
-106.3084
 30
0.00
  0
VERTEX
  8
CORSA_PLATE_FIX-EDGE_CUTS_GBR
 10
336.1281
 20
-107.3084
 30
0.00
  0
SEQEND
  0
POLYLINE
  8
CORSA_PLATE_FIX-EDGE_CUTS_GBR
 66
1
 10
0.00
 20
0.00
 30
0.00
 40
0.20
 41
0.20
  0
VERTEX
  8
CORSA_PLATE_FIX-EDGE_CUTS_GBR
 10
337.1281
 20
-94.2084
 30
0.00
  0
VERTEX
  8
CORSA_PLATE_FIX-EDGE_CUTS_GBR
 10
337.1281
 20
-106.3084
 30
0.00
  0
SEQEND
  0
POLYLINE
  8
CORSA_PLATE_FIX-EDGE_CUTS_GBR
 66
1
 10
0.00
 20
0.00
 30
0.00
 40
0.20
 41
0.20
  0
VERTEX
  8
CORSA_PLATE_FIX-EDGE_CUTS_GBR
 10
336.1281
 20
-93.2084
 30
0.00
  0
VERTEX
  8
CORSA_PLATE_FIX-EDGE_CUTS_GBR
 10
337.1281
 20
-94.2084
 30
0.00
  0
SEQEND
  0
POLYLINE
  8
CORSA_PLATE_FIX-EDGE_CUTS_GBR
 66
1
 10
0.00
 20
0.00
 30
0.00
 40
0.20
 41
0.20
  0
VERTEX
  8
CORSA_PLATE_FIX-EDGE_CUTS_GBR
 10
323.4281
 20
-93.2084
 30
0.00
  0
VERTEX
  8
CORSA_PLATE_FIX-EDGE_CUTS_GBR
 10
336.1281
 20
-93.2084
 30
0.00
  0
SEQEND
  0
POLYLINE
  8
CORSA_PLATE_FIX-EDGE_CUTS_GBR
 66
1
 10
0.00
 20
0.00
 30
0.00
 40
0.20
 41
0.20
  0
VERTEX
  8
CORSA_PLATE_FIX-EDGE_CUTS_GBR
 10
298.6156
 20
-94.2084
 30
0.00
  0
VERTEX
  8
CORSA_PLATE_FIX-EDGE_CUTS_GBR
 10
299.6156
 20
-93.2084
 30
0.00
  0
SEQEND
  0
POLYLINE
  8
CORSA_PLATE_FIX-EDGE_CUTS_GBR
 66
1
 10
0.00
 20
0.00
 30
0.00
 40
0.20
 41
0.20
  0
VERTEX
  8
CORSA_PLATE_FIX-EDGE_CUTS_GBR
 10
298.6156
 20
-106.3084
 30
0.00
  0
VERTEX
  8
CORSA_PLATE_FIX-EDGE_CUTS_GBR
 10
298.6156
 20
-94.2084
 30
0.00
  0
SEQEND
  0
POLYLINE
  8
CORSA_PLATE_FIX-EDGE_CUTS_GBR
 66
1
 10
0.00
 20
0.00
 30
0.00
 40
0.20
 41
0.20
  0
VERTEX
  8
CORSA_PLATE_FIX-EDGE_CUTS_GBR
 10
299.6156
 20
-107.3084
 30
0.00
  0
VERTEX
  8
CORSA_PLATE_FIX-EDGE_CUTS_GBR
 10
298.6156
 20
-106.3084
 30
0.00
  0
SEQEND
  0
POLYLINE
  8
CORSA_PLATE_FIX-EDGE_CUTS_GBR
 66
1
 10
0.00
 20
0.00
 30
0.00
 40
0.20
 41
0.20
  0
VERTEX
  8
CORSA_PLATE_FIX-EDGE_CUTS_GBR
 10
312.3156
 20
-107.3084
 30
0.00
  0
VERTEX
  8
CORSA_PLATE_FIX-EDGE_CUTS_GBR
 10
299.6156
 20
-107.3084
 30
0.00
  0
SEQEND
  0
POLYLINE
  8
CORSA_PLATE_FIX-EDGE_CUTS_GBR
 66
1
 10
0.00
 20
0.00
 30
0.00
 40
0.20
 41
0.20
  0
VERTEX
  8
CORSA_PLATE_FIX-EDGE_CUTS_GBR
 10
313.3156
 20
-106.3084
 30
0.00
  0
VERTEX
  8
CORSA_PLATE_FIX-EDGE_CUTS_GBR
 10
312.3156
 20
-107.3084
 30
0.00
  0
SEQEND
  0
POLYLINE
  8
CORSA_PLATE_FIX-EDGE_CUTS_GBR
 66
1
 10
0.00
 20
0.00
 30
0.00
 40
0.20
 41
0.20
  0
VERTEX
  8
CORSA_PLATE_FIX-EDGE_CUTS_GBR
 10
313.3156
 20
-94.2084
 30
0.00
  0
VERTEX
  8
CORSA_PLATE_FIX-EDGE_CUTS_GBR
 10
313.3156
 20
-106.3084
 30
0.00
  0
SEQEND
  0
POLYLINE
  8
CORSA_PLATE_FIX-EDGE_CUTS_GBR
 66
1
 10
0.00
 20
0.00
 30
0.00
 40
0.20
 41
0.20
  0
VERTEX
  8
CORSA_PLATE_FIX-EDGE_CUTS_GBR
 10
312.3156
 20
-93.2084
 30
0.00
  0
VERTEX
  8
CORSA_PLATE_FIX-EDGE_CUTS_GBR
 10
313.3156
 20
-94.2084
 30
0.00
  0
SEQEND
  0
POLYLINE
  8
CORSA_PLATE_FIX-EDGE_CUTS_GBR
 66
1
 10
0.00
 20
0.00
 30
0.00
 40
0.20
 41
0.20
  0
VERTEX
  8
CORSA_PLATE_FIX-EDGE_CUTS_GBR
 10
299.6156
 20
-93.2084
 30
0.00
  0
VERTEX
  8
CORSA_PLATE_FIX-EDGE_CUTS_GBR
 10
312.3156
 20
-93.2084
 30
0.00
  0
SEQEND
  0
POLYLINE
  8
CORSA_PLATE_FIX-EDGE_CUTS_GBR
 66
1
 10
0.00
 20
0.00
 30
0.00
 40
0.20
 41
0.20
  0
VERTEX
  8
CORSA_PLATE_FIX-EDGE_CUTS_GBR
 10
279.5656
 20
-94.2084
 30
0.00
  0
VERTEX
  8
CORSA_PLATE_FIX-EDGE_CUTS_GBR
 10
280.5656
 20
-93.2084
 30
0.00
  0
SEQEND
  0
POLYLINE
  8
CORSA_PLATE_FIX-EDGE_CUTS_GBR
 66
1
 10
0.00
 20
0.00
 30
0.00
 40
0.20
 41
0.20
  0
VERTEX
  8
CORSA_PLATE_FIX-EDGE_CUTS_GBR
 10
279.5656
 20
-106.3084
 30
0.00
  0
VERTEX
  8
CORSA_PLATE_FIX-EDGE_CUTS_GBR
 10
279.5656
 20
-94.2084
 30
0.00
  0
SEQEND
  0
POLYLINE
  8
CORSA_PLATE_FIX-EDGE_CUTS_GBR
 66
1
 10
0.00
 20
0.00
 30
0.00
 40
0.20
 41
0.20
  0
VERTEX
  8
CORSA_PLATE_FIX-EDGE_CUTS_GBR
 10
280.5656
 20
-107.3084
 30
0.00
  0
VERTEX
  8
CORSA_PLATE_FIX-EDGE_CUTS_GBR
 10
279.5656
 20
-106.3084
 30
0.00
  0
SEQEND
  0
POLYLINE
  8
CORSA_PLATE_FIX-EDGE_CUTS_GBR
 66
1
 10
0.00
 20
0.00
 30
0.00
 40
0.20
 41
0.20
  0
VERTEX
  8
CORSA_PLATE_FIX-EDGE_CUTS_GBR
 10
293.2656
 20
-107.3084
 30
0.00
  0
VERTEX
  8
CORSA_PLATE_FIX-EDGE_CUTS_GBR
 10
280.5656
 20
-107.3084
 30
0.00
  0
SEQEND
  0
POLYLINE
  8
CORSA_PLATE_FIX-EDGE_CUTS_GBR
 66
1
 10
0.00
 20
0.00
 30
0.00
 40
0.20
 41
0.20
  0
VERTEX
  8
CORSA_PLATE_FIX-EDGE_CUTS_GBR
 10
294.2656
 20
-106.3084
 30
0.00
  0
VERTEX
  8
CORSA_PLATE_FIX-EDGE_CUTS_GBR
 10
293.2656
 20
-107.3084
 30
0.00
  0
SEQEND
  0
POLYLINE
  8
CORSA_PLATE_FIX-EDGE_CUTS_GBR
 66
1
 10
0.00
 20
0.00
 30
0.00
 40
0.20
 41
0.20
  0
VERTEX
  8
CORSA_PLATE_FIX-EDGE_CUTS_GBR
 10
294.2656
 20
-94.2084
 30
0.00
  0
VERTEX
  8
CORSA_PLATE_FIX-EDGE_CUTS_GBR
 10
294.2656
 20
-106.3084
 30
0.00
  0
SEQEND
  0
POLYLINE
  8
CORSA_PLATE_FIX-EDGE_CUTS_GBR
 66
1
 10
0.00
 20
0.00
 30
0.00
 40
0.20
 41
0.20
  0
VERTEX
  8
CORSA_PLATE_FIX-EDGE_CUTS_GBR
 10
293.2656
 20
-93.2084
 30
0.00
  0
VERTEX
  8
CORSA_PLATE_FIX-EDGE_CUTS_GBR
 10
294.2656
 20
-94.2084
 30
0.00
  0
SEQEND
  0
POLYLINE
  8
CORSA_PLATE_FIX-EDGE_CUTS_GBR
 66
1
 10
0.00
 20
0.00
 30
0.00
 40
0.20
 41
0.20
  0
VERTEX
  8
CORSA_PLATE_FIX-EDGE_CUTS_GBR
 10
280.5656
 20
-93.2084
 30
0.00
  0
VERTEX
  8
CORSA_PLATE_FIX-EDGE_CUTS_GBR
 10
293.2656
 20
-93.2084
 30
0.00
  0
SEQEND
  0
POLYLINE
  8
CORSA_PLATE_FIX-EDGE_CUTS_GBR
 66
1
 10
0.00
 20
0.00
 30
0.00
 40
0.20
 41
0.20
  0
VERTEX
  8
CORSA_PLATE_FIX-EDGE_CUTS_GBR
 10
260.5156
 20
-94.2084
 30
0.00
  0
VERTEX
  8
CORSA_PLATE_FIX-EDGE_CUTS_GBR
 10
261.5156
 20
-93.2084
 30
0.00
  0
SEQEND
  0
POLYLINE
  8
CORSA_PLATE_FIX-EDGE_CUTS_GBR
 66
1
 10
0.00
 20
0.00
 30
0.00
 40
0.20
 41
0.20
  0
VERTEX
  8
CORSA_PLATE_FIX-EDGE_CUTS_GBR
 10
260.5156
 20
-106.3084
 30
0.00
  0
VERTEX
  8
CORSA_PLATE_FIX-EDGE_CUTS_GBR
 10
260.5156
 20
-94.2084
 30
0.00
  0
SEQEND
  0
POLYLINE
  8
CORSA_PLATE_FIX-EDGE_CUTS_GBR
 66
1
 10
0.00
 20
0.00
 30
0.00
 40
0.20
 41
0.20
  0
VERTEX
  8
CORSA_PLATE_FIX-EDGE_CUTS_GBR
 10
261.5156
 20
-107.3084
 30
0.00
  0
VERTEX
  8
CORSA_PLATE_FIX-EDGE_CUTS_GBR
 10
260.5156
 20
-106.3084
 30
0.00
  0
SEQEND
  0
POLYLINE
  8
CORSA_PLATE_FIX-EDGE_CUTS_GBR
 66
1
 10
0.00
 20
0.00
 30
0.00
 40
0.20
 41
0.20
  0
VERTEX
  8
CORSA_PLATE_FIX-EDGE_CUTS_GBR
 10
274.2156
 20
-107.3084
 30
0.00
  0
VERTEX
  8
CORSA_PLATE_FIX-EDGE_CUTS_GBR
 10
261.5156
 20
-107.3084
 30
0.00
  0
SEQEND
  0
POLYLINE
  8
CORSA_PLATE_FIX-EDGE_CUTS_GBR
 66
1
 10
0.00
 20
0.00
 30
0.00
 40
0.20
 41
0.20
  0
VERTEX
  8
CORSA_PLATE_FIX-EDGE_CUTS_GBR
 10
275.2156
 20
-106.3084
 30
0.00
  0
VERTEX
  8
CORSA_PLATE_FIX-EDGE_CUTS_GBR
 10
274.2156
 20
-107.3084
 30
0.00
  0
SEQEND
  0
POLYLINE
  8
CORSA_PLATE_FIX-EDGE_CUTS_GBR
 66
1
 10
0.00
 20
0.00
 30
0.00
 40
0.20
 41
0.20
  0
VERTEX
  8
CORSA_PLATE_FIX-EDGE_CUTS_GBR
 10
275.2156
 20
-94.2084
 30
0.00
  0
VERTEX
  8
CORSA_PLATE_FIX-EDGE_CUTS_GBR
 10
275.2156
 20
-106.3084
 30
0.00
  0
SEQEND
  0
POLYLINE
  8
CORSA_PLATE_FIX-EDGE_CUTS_GBR
 66
1
 10
0.00
 20
0.00
 30
0.00
 40
0.20
 41
0.20
  0
VERTEX
  8
CORSA_PLATE_FIX-EDGE_CUTS_GBR
 10
274.2156
 20
-93.2084
 30
0.00
  0
VERTEX
  8
CORSA_PLATE_FIX-EDGE_CUTS_GBR
 10
275.2156
 20
-94.2084
 30
0.00
  0
SEQEND
  0
POLYLINE
  8
CORSA_PLATE_FIX-EDGE_CUTS_GBR
 66
1
 10
0.00
 20
0.00
 30
0.00
 40
0.20
 41
0.20
  0
VERTEX
  8
CORSA_PLATE_FIX-EDGE_CUTS_GBR
 10
261.5156
 20
-93.2084
 30
0.00
  0
VERTEX
  8
CORSA_PLATE_FIX-EDGE_CUTS_GBR
 10
274.2156
 20
-93.2084
 30
0.00
  0
SEQEND
  0
POLYLINE
  8
CORSA_PLATE_FIX-EDGE_CUTS_GBR
 66
1
 10
0.00
 20
0.00
 30
0.00
 40
0.20
 41
0.20
  0
VERTEX
  8
CORSA_PLATE_FIX-EDGE_CUTS_GBR
 10
241.4656
 20
-94.2084
 30
0.00
  0
VERTEX
  8
CORSA_PLATE_FIX-EDGE_CUTS_GBR
 10
242.4656
 20
-93.2084
 30
0.00
  0
SEQEND
  0
POLYLINE
  8
CORSA_PLATE_FIX-EDGE_CUTS_GBR
 66
1
 10
0.00
 20
0.00
 30
0.00
 40
0.20
 41
0.20
  0
VERTEX
  8
CORSA_PLATE_FIX-EDGE_CUTS_GBR
 10
241.4656
 20
-106.3084
 30
0.00
  0
VERTEX
  8
CORSA_PLATE_FIX-EDGE_CUTS_GBR
 10
241.4656
 20
-94.2084
 30
0.00
  0
SEQEND
  0
POLYLINE
  8
CORSA_PLATE_FIX-EDGE_CUTS_GBR
 66
1
 10
0.00
 20
0.00
 30
0.00
 40
0.20
 41
0.20
  0
VERTEX
  8
CORSA_PLATE_FIX-EDGE_CUTS_GBR
 10
242.4656
 20
-107.3084
 30
0.00
  0
VERTEX
  8
CORSA_PLATE_FIX-EDGE_CUTS_GBR
 10
241.4656
 20
-106.3084
 30
0.00
  0
SEQEND
  0
POLYLINE
  8
CORSA_PLATE_FIX-EDGE_CUTS_GBR
 66
1
 10
0.00
 20
0.00
 30
0.00
 40
0.20
 41
0.20
  0
VERTEX
  8
CORSA_PLATE_FIX-EDGE_CUTS_GBR
 10
255.1656
 20
-107.3084
 30
0.00
  0
VERTEX
  8
CORSA_PLATE_FIX-EDGE_CUTS_GBR
 10
242.4656
 20
-107.3084
 30
0.00
  0
SEQEND
  0
POLYLINE
  8
CORSA_PLATE_FIX-EDGE_CUTS_GBR
 66
1
 10
0.00
 20
0.00
 30
0.00
 40
0.20
 41
0.20
  0
VERTEX
  8
CORSA_PLATE_FIX-EDGE_CUTS_GBR
 10
256.1656
 20
-106.3084
 30
0.00
  0
VERTEX
  8
CORSA_PLATE_FIX-EDGE_CUTS_GBR
 10
255.1656
 20
-107.3084
 30
0.00
  0
SEQEND
  0
POLYLINE
  8
CORSA_PLATE_FIX-EDGE_CUTS_GBR
 66
1
 10
0.00
 20
0.00
 30
0.00
 40
0.20
 41
0.20
  0
VERTEX
  8
CORSA_PLATE_FIX-EDGE_CUTS_GBR
 10
256.1656
 20
-94.2084
 30
0.00
  0
VERTEX
  8
CORSA_PLATE_FIX-EDGE_CUTS_GBR
 10
256.1656
 20
-106.3084
 30
0.00
  0
SEQEND
  0
POLYLINE
  8
CORSA_PLATE_FIX-EDGE_CUTS_GBR
 66
1
 10
0.00
 20
0.00
 30
0.00
 40
0.20
 41
0.20
  0
VERTEX
  8
CORSA_PLATE_FIX-EDGE_CUTS_GBR
 10
255.1656
 20
-93.2084
 30
0.00
  0
VERTEX
  8
CORSA_PLATE_FIX-EDGE_CUTS_GBR
 10
256.1656
 20
-94.2084
 30
0.00
  0
SEQEND
  0
POLYLINE
  8
CORSA_PLATE_FIX-EDGE_CUTS_GBR
 66
1
 10
0.00
 20
0.00
 30
0.00
 40
0.20
 41
0.20
  0
VERTEX
  8
CORSA_PLATE_FIX-EDGE_CUTS_GBR
 10
242.4656
 20
-93.2084
 30
0.00
  0
VERTEX
  8
CORSA_PLATE_FIX-EDGE_CUTS_GBR
 10
255.1656
 20
-93.2084
 30
0.00
  0
SEQEND
  0
POLYLINE
  8
CORSA_PLATE_FIX-EDGE_CUTS_GBR
 66
1
 10
0.00
 20
0.00
 30
0.00
 40
0.20
 41
0.20
  0
VERTEX
  8
CORSA_PLATE_FIX-EDGE_CUTS_GBR
 10
308.9156
 20
-75.1584
 30
0.00
  0
VERTEX
  8
CORSA_PLATE_FIX-EDGE_CUTS_GBR
 10
309.9156
 20
-74.1584
 30
0.00
  0
SEQEND
  0
POLYLINE
  8
CORSA_PLATE_FIX-EDGE_CUTS_GBR
 66
1
 10
0.00
 20
0.00
 30
0.00
 40
0.20
 41
0.20
  0
VERTEX
  8
CORSA_PLATE_FIX-EDGE_CUTS_GBR
 10
308.9156
 20
-86.5284
 30
0.00
  0
VERTEX
  8
CORSA_PLATE_FIX-EDGE_CUTS_GBR
 10
308.9156
 20
-75.1584
 30
0.00
  0
SEQEND
  0
POLYLINE
  8
CORSA_PLATE_FIX-EDGE_CUTS_GBR
 66
1
 10
0.00
 20
0.00
 30
0.00
 40
0.20
 41
0.20
  0
VERTEX
  8
CORSA_PLATE_FIX-EDGE_CUTS_GBR
 10
311.9156
 20
-88.2584
 30
0.00
  0
VERTEX
  8
CORSA_PLATE_FIX-EDGE_CUTS_GBR
 10
308.9156
 20
-86.5284
 30
0.00
  0
SEQEND
  0
POLYLINE
  8
CORSA_PLATE_FIX-EDGE_CUTS_GBR
 66
1
 10
0.00
 20
0.00
 30
0.00
 40
0.20
 41
0.20
  0
VERTEX
  8
CORSA_PLATE_FIX-EDGE_CUTS_GBR
 10
338.1156
 20
-88.2584
 30
0.00
  0
VERTEX
  8
CORSA_PLATE_FIX-EDGE_CUTS_GBR
 10
311.9156
 20
-88.2584
 30
0.00
  0
SEQEND
  0
POLYLINE
  8
CORSA_PLATE_FIX-EDGE_CUTS_GBR
 66
1
 10
0.00
 20
0.00
 30
0.00
 40
0.20
 41
0.20
  0
VERTEX
  8
CORSA_PLATE_FIX-EDGE_CUTS_GBR
 10
341.1156
 20
-86.5284
 30
0.00
  0
VERTEX
  8
CORSA_PLATE_FIX-EDGE_CUTS_GBR
 10
338.1156
 20
-88.2584
 30
0.00
  0
SEQEND
  0
POLYLINE
  8
CORSA_PLATE_FIX-EDGE_CUTS_GBR
 66
1
 10
0.00
 20
0.00
 30
0.00
 40
0.20
 41
0.20
  0
VERTEX
  8
CORSA_PLATE_FIX-EDGE_CUTS_GBR
 10
341.1156
 20
-75.1584
 30
0.00
  0
VERTEX
  8
CORSA_PLATE_FIX-EDGE_CUTS_GBR
 10
341.1156
 20
-86.5284
 30
0.00
  0
SEQEND
  0
POLYLINE
  8
CORSA_PLATE_FIX-EDGE_CUTS_GBR
 66
1
 10
0.00
 20
0.00
 30
0.00
 40
0.20
 41
0.20
  0
VERTEX
  8
CORSA_PLATE_FIX-EDGE_CUTS_GBR
 10
340.1156
 20
-74.1584
 30
0.00
  0
VERTEX
  8
CORSA_PLATE_FIX-EDGE_CUTS_GBR
 10
341.1156
 20
-75.1584
 30
0.00
  0
SEQEND
  0
POLYLINE
  8
CORSA_PLATE_FIX-EDGE_CUTS_GBR
 66
1
 10
0.00
 20
0.00
 30
0.00
 40
0.20
 41
0.20
  0
VERTEX
  8
CORSA_PLATE_FIX-EDGE_CUTS_GBR
 10
309.9156
 20
-74.1584
 30
0.00
  0
VERTEX
  8
CORSA_PLATE_FIX-EDGE_CUTS_GBR
 10
340.1156
 20
-74.1584
 30
0.00
  0
SEQEND
  0
POLYLINE
  8
CORSA_PLATE_FIX-EDGE_CUTS_GBR
 66
1
 10
0.00
 20
0.00
 30
0.00
 40
0.20
 41
0.20
  0
VERTEX
  8
CORSA_PLATE_FIX-EDGE_CUTS_GBR
 10
289.0906
 20
-75.1584
 30
0.00
  0
VERTEX
  8
CORSA_PLATE_FIX-EDGE_CUTS_GBR
 10
290.0906
 20
-74.1584
 30
0.00
  0
SEQEND
  0
POLYLINE
  8
CORSA_PLATE_FIX-EDGE_CUTS_GBR
 66
1
 10
0.00
 20
0.00
 30
0.00
 40
0.20
 41
0.20
  0
VERTEX
  8
CORSA_PLATE_FIX-EDGE_CUTS_GBR
 10
289.0906
 20
-87.2584
 30
0.00
  0
VERTEX
  8
CORSA_PLATE_FIX-EDGE_CUTS_GBR
 10
289.0906
 20
-75.1584
 30
0.00
  0
SEQEND
  0
POLYLINE
  8
CORSA_PLATE_FIX-EDGE_CUTS_GBR
 66
1
 10
0.00
 20
0.00
 30
0.00
 40
0.20
 41
0.20
  0
VERTEX
  8
CORSA_PLATE_FIX-EDGE_CUTS_GBR
 10
290.0906
 20
-88.2584
 30
0.00
  0
VERTEX
  8
CORSA_PLATE_FIX-EDGE_CUTS_GBR
 10
289.0906
 20
-87.2584
 30
0.00
  0
SEQEND
  0
POLYLINE
  8
CORSA_PLATE_FIX-EDGE_CUTS_GBR
 66
1
 10
0.00
 20
0.00
 30
0.00
 40
0.20
 41
0.20
  0
VERTEX
  8
CORSA_PLATE_FIX-EDGE_CUTS_GBR
 10
302.7906
 20
-88.2584
 30
0.00
  0
VERTEX
  8
CORSA_PLATE_FIX-EDGE_CUTS_GBR
 10
290.0906
 20
-88.2584
 30
0.00
  0
SEQEND
  0
POLYLINE
  8
CORSA_PLATE_FIX-EDGE_CUTS_GBR
 66
1
 10
0.00
 20
0.00
 30
0.00
 40
0.20
 41
0.20
  0
VERTEX
  8
CORSA_PLATE_FIX-EDGE_CUTS_GBR
 10
303.7906
 20
-87.2584
 30
0.00
  0
VERTEX
  8
CORSA_PLATE_FIX-EDGE_CUTS_GBR
 10
302.7906
 20
-88.2584
 30
0.00
  0
SEQEND
  0
POLYLINE
  8
CORSA_PLATE_FIX-EDGE_CUTS_GBR
 66
1
 10
0.00
 20
0.00
 30
0.00
 40
0.20
 41
0.20
  0
VERTEX
  8
CORSA_PLATE_FIX-EDGE_CUTS_GBR
 10
303.7906
 20
-75.1584
 30
0.00
  0
VERTEX
  8
CORSA_PLATE_FIX-EDGE_CUTS_GBR
 10
303.7906
 20
-87.2584
 30
0.00
  0
SEQEND
  0
POLYLINE
  8
CORSA_PLATE_FIX-EDGE_CUTS_GBR
 66
1
 10
0.00
 20
0.00
 30
0.00
 40
0.20
 41
0.20
  0
VERTEX
  8
CORSA_PLATE_FIX-EDGE_CUTS_GBR
 10
302.7906
 20
-74.1584
 30
0.00
  0
VERTEX
  8
CORSA_PLATE_FIX-EDGE_CUTS_GBR
 10
303.7906
 20
-75.1584
 30
0.00
  0
SEQEND
  0
POLYLINE
  8
CORSA_PLATE_FIX-EDGE_CUTS_GBR
 66
1
 10
0.00
 20
0.00
 30
0.00
 40
0.20
 41
0.20
  0
VERTEX
  8
CORSA_PLATE_FIX-EDGE_CUTS_GBR
 10
290.0906
 20
-74.1584
 30
0.00
  0
VERTEX
  8
CORSA_PLATE_FIX-EDGE_CUTS_GBR
 10
302.7906
 20
-74.1584
 30
0.00
  0
SEQEND
  0
POLYLINE
  8
CORSA_PLATE_FIX-EDGE_CUTS_GBR
 66
1
 10
0.00
 20
0.00
 30
0.00
 40
0.20
 41
0.20
  0
VERTEX
  8
CORSA_PLATE_FIX-EDGE_CUTS_GBR
 10
270.0406
 20
-75.1584
 30
0.00
  0
VERTEX
  8
CORSA_PLATE_FIX-EDGE_CUTS_GBR
 10
271.0406
 20
-74.1584
 30
0.00
  0
SEQEND
  0
POLYLINE
  8
CORSA_PLATE_FIX-EDGE_CUTS_GBR
 66
1
 10
0.00
 20
0.00
 30
0.00
 40
0.20
 41
0.20
  0
VERTEX
  8
CORSA_PLATE_FIX-EDGE_CUTS_GBR
 10
270.0406
 20
-87.2584
 30
0.00
  0
VERTEX
  8
CORSA_PLATE_FIX-EDGE_CUTS_GBR
 10
270.0406
 20
-75.1584
 30
0.00
  0
SEQEND
  0
POLYLINE
  8
CORSA_PLATE_FIX-EDGE_CUTS_GBR
 66
1
 10
0.00
 20
0.00
 30
0.00
 40
0.20
 41
0.20
  0
VERTEX
  8
CORSA_PLATE_FIX-EDGE_CUTS_GBR
 10
271.0406
 20
-88.2584
 30
0.00
  0
VERTEX
  8
CORSA_PLATE_FIX-EDGE_CUTS_GBR
 10
270.0406
 20
-87.2584
 30
0.00
  0
SEQEND
  0
POLYLINE
  8
CORSA_PLATE_FIX-EDGE_CUTS_GBR
 66
1
 10
0.00
 20
0.00
 30
0.00
 40
0.20
 41
0.20
  0
VERTEX
  8
CORSA_PLATE_FIX-EDGE_CUTS_GBR
 10
283.7406
 20
-88.2584
 30
0.00
  0
VERTEX
  8
CORSA_PLATE_FIX-EDGE_CUTS_GBR
 10
271.0406
 20
-88.2584
 30
0.00
  0
SEQEND
  0
POLYLINE
  8
CORSA_PLATE_FIX-EDGE_CUTS_GBR
 66
1
 10
0.00
 20
0.00
 30
0.00
 40
0.20
 41
0.20
  0
VERTEX
  8
CORSA_PLATE_FIX-EDGE_CUTS_GBR
 10
284.7406
 20
-87.2584
 30
0.00
  0
VERTEX
  8
CORSA_PLATE_FIX-EDGE_CUTS_GBR
 10
283.7406
 20
-88.2584
 30
0.00
  0
SEQEND
  0
POLYLINE
  8
CORSA_PLATE_FIX-EDGE_CUTS_GBR
 66
1
 10
0.00
 20
0.00
 30
0.00
 40
0.20
 41
0.20
  0
VERTEX
  8
CORSA_PLATE_FIX-EDGE_CUTS_GBR
 10
284.7406
 20
-75.1584
 30
0.00
  0
VERTEX
  8
CORSA_PLATE_FIX-EDGE_CUTS_GBR
 10
284.7406
 20
-87.2584
 30
0.00
  0
SEQEND
  0
POLYLINE
  8
CORSA_PLATE_FIX-EDGE_CUTS_GBR
 66
1
 10
0.00
 20
0.00
 30
0.00
 40
0.20
 41
0.20
  0
VERTEX
  8
CORSA_PLATE_FIX-EDGE_CUTS_GBR
 10
283.7406
 20
-74.1584
 30
0.00
  0
VERTEX
  8
CORSA_PLATE_FIX-EDGE_CUTS_GBR
 10
284.7406
 20
-75.1584
 30
0.00
  0
SEQEND
  0
POLYLINE
  8
CORSA_PLATE_FIX-EDGE_CUTS_GBR
 66
1
 10
0.00
 20
0.00
 30
0.00
 40
0.20
 41
0.20
  0
VERTEX
  8
CORSA_PLATE_FIX-EDGE_CUTS_GBR
 10
271.0406
 20
-74.1584
 30
0.00
  0
VERTEX
  8
CORSA_PLATE_FIX-EDGE_CUTS_GBR
 10
283.7406
 20
-74.1584
 30
0.00
  0
SEQEND
  0
POLYLINE
  8
CORSA_PLATE_FIX-EDGE_CUTS_GBR
 66
1
 10
0.00
 20
0.00
 30
0.00
 40
0.20
 41
0.20
  0
VERTEX
  8
CORSA_PLATE_FIX-EDGE_CUTS_GBR
 10
250.9906
 20
-75.1584
 30
0.00
  0
VERTEX
  8
CORSA_PLATE_FIX-EDGE_CUTS_GBR
 10
251.9906
 20
-74.1584
 30
0.00
  0
SEQEND
  0
POLYLINE
  8
CORSA_PLATE_FIX-EDGE_CUTS_GBR
 66
1
 10
0.00
 20
0.00
 30
0.00
 40
0.20
 41
0.20
  0
VERTEX
  8
CORSA_PLATE_FIX-EDGE_CUTS_GBR
 10
250.9906
 20
-87.2584
 30
0.00
  0
VERTEX
  8
CORSA_PLATE_FIX-EDGE_CUTS_GBR
 10
250.9906
 20
-75.1584
 30
0.00
  0
SEQEND
  0
POLYLINE
  8
CORSA_PLATE_FIX-EDGE_CUTS_GBR
 66
1
 10
0.00
 20
0.00
 30
0.00
 40
0.20
 41
0.20
  0
VERTEX
  8
CORSA_PLATE_FIX-EDGE_CUTS_GBR
 10
251.9906
 20
-88.2584
 30
0.00
  0
VERTEX
  8
CORSA_PLATE_FIX-EDGE_CUTS_GBR
 10
250.9906
 20
-87.2584
 30
0.00
  0
SEQEND
  0
POLYLINE
  8
CORSA_PLATE_FIX-EDGE_CUTS_GBR
 66
1
 10
0.00
 20
0.00
 30
0.00
 40
0.20
 41
0.20
  0
VERTEX
  8
CORSA_PLATE_FIX-EDGE_CUTS_GBR
 10
264.6906
 20
-88.2584
 30
0.00
  0
VERTEX
  8
CORSA_PLATE_FIX-EDGE_CUTS_GBR
 10
251.9906
 20
-88.2584
 30
0.00
  0
SEQEND
  0
POLYLINE
  8
CORSA_PLATE_FIX-EDGE_CUTS_GBR
 66
1
 10
0.00
 20
0.00
 30
0.00
 40
0.20
 41
0.20
  0
VERTEX
  8
CORSA_PLATE_FIX-EDGE_CUTS_GBR
 10
265.6906
 20
-87.2584
 30
0.00
  0
VERTEX
  8
CORSA_PLATE_FIX-EDGE_CUTS_GBR
 10
264.6906
 20
-88.2584
 30
0.00
  0
SEQEND
  0
POLYLINE
  8
CORSA_PLATE_FIX-EDGE_CUTS_GBR
 66
1
 10
0.00
 20
0.00
 30
0.00
 40
0.20
 41
0.20
  0
VERTEX
  8
CORSA_PLATE_FIX-EDGE_CUTS_GBR
 10
265.6906
 20
-75.1584
 30
0.00
  0
VERTEX
  8
CORSA_PLATE_FIX-EDGE_CUTS_GBR
 10
265.6906
 20
-87.2584
 30
0.00
  0
SEQEND
  0
POLYLINE
  8
CORSA_PLATE_FIX-EDGE_CUTS_GBR
 66
1
 10
0.00
 20
0.00
 30
0.00
 40
0.20
 41
0.20
  0
VERTEX
  8
CORSA_PLATE_FIX-EDGE_CUTS_GBR
 10
264.6906
 20
-74.1584
 30
0.00
  0
VERTEX
  8
CORSA_PLATE_FIX-EDGE_CUTS_GBR
 10
265.6906
 20
-75.1584
 30
0.00
  0
SEQEND
  0
POLYLINE
  8
CORSA_PLATE_FIX-EDGE_CUTS_GBR
 66
1
 10
0.00
 20
0.00
 30
0.00
 40
0.20
 41
0.20
  0
VERTEX
  8
CORSA_PLATE_FIX-EDGE_CUTS_GBR
 10
251.9906
 20
-74.1584
 30
0.00
  0
VERTEX
  8
CORSA_PLATE_FIX-EDGE_CUTS_GBR
 10
264.6906
 20
-74.1584
 30
0.00
  0
SEQEND
  0
POLYLINE
  8
CORSA_PLATE_FIX-EDGE_CUTS_GBR
 66
1
 10
0.00
 20
0.00
 30
0.00
 40
0.20
 41
0.20
  0
VERTEX
  8
CORSA_PLATE_FIX-EDGE_CUTS_GBR
 10
231.9406
 20
-75.1584
 30
0.00
  0
VERTEX
  8
CORSA_PLATE_FIX-EDGE_CUTS_GBR
 10
232.9406
 20
-74.1584
 30
0.00
  0
SEQEND
  0
POLYLINE
  8
CORSA_PLATE_FIX-EDGE_CUTS_GBR
 66
1
 10
0.00
 20
0.00
 30
0.00
 40
0.20
 41
0.20
  0
VERTEX
  8
CORSA_PLATE_FIX-EDGE_CUTS_GBR
 10
231.9406
 20
-87.2584
 30
0.00
  0
VERTEX
  8
CORSA_PLATE_FIX-EDGE_CUTS_GBR
 10
231.9406
 20
-75.1584
 30
0.00
  0
SEQEND
  0
POLYLINE
  8
CORSA_PLATE_FIX-EDGE_CUTS_GBR
 66
1
 10
0.00
 20
0.00
 30
0.00
 40
0.20
 41
0.20
  0
VERTEX
  8
CORSA_PLATE_FIX-EDGE_CUTS_GBR
 10
232.9406
 20
-88.2584
 30
0.00
  0
VERTEX
  8
CORSA_PLATE_FIX-EDGE_CUTS_GBR
 10
231.9406
 20
-87.2584
 30
0.00
  0
SEQEND
  0
POLYLINE
  8
CORSA_PLATE_FIX-EDGE_CUTS_GBR
 66
1
 10
0.00
 20
0.00
 30
0.00
 40
0.20
 41
0.20
  0
VERTEX
  8
CORSA_PLATE_FIX-EDGE_CUTS_GBR
 10
245.6406
 20
-88.2584
 30
0.00
  0
VERTEX
  8
CORSA_PLATE_FIX-EDGE_CUTS_GBR
 10
232.9406
 20
-88.2584
 30
0.00
  0
SEQEND
  0
POLYLINE
  8
CORSA_PLATE_FIX-EDGE_CUTS_GBR
 66
1
 10
0.00
 20
0.00
 30
0.00
 40
0.20
 41
0.20
  0
VERTEX
  8
CORSA_PLATE_FIX-EDGE_CUTS_GBR
 10
246.6406
 20
-87.2584
 30
0.00
  0
VERTEX
  8
CORSA_PLATE_FIX-EDGE_CUTS_GBR
 10
245.6406
 20
-88.2584
 30
0.00
  0
SEQEND
  0
POLYLINE
  8
CORSA_PLATE_FIX-EDGE_CUTS_GBR
 66
1
 10
0.00
 20
0.00
 30
0.00
 40
0.20
 41
0.20
  0
VERTEX
  8
CORSA_PLATE_FIX-EDGE_CUTS_GBR
 10
246.6406
 20
-75.1584
 30
0.00
  0
VERTEX
  8
CORSA_PLATE_FIX-EDGE_CUTS_GBR
 10
246.6406
 20
-87.2584
 30
0.00
  0
SEQEND
  0
POLYLINE
  8
CORSA_PLATE_FIX-EDGE_CUTS_GBR
 66
1
 10
0.00
 20
0.00
 30
0.00
 40
0.20
 41
0.20
  0
VERTEX
  8
CORSA_PLATE_FIX-EDGE_CUTS_GBR
 10
245.6406
 20
-74.1584
 30
0.00
  0
VERTEX
  8
CORSA_PLATE_FIX-EDGE_CUTS_GBR
 10
246.6406
 20
-75.1584
 30
0.00
  0
SEQEND
  0
POLYLINE
  8
CORSA_PLATE_FIX-EDGE_CUTS_GBR
 66
1
 10
0.00
 20
0.00
 30
0.00
 40
0.20
 41
0.20
  0
VERTEX
  8
CORSA_PLATE_FIX-EDGE_CUTS_GBR
 10
232.9406
 20
-74.1584
 30
0.00
  0
VERTEX
  8
CORSA_PLATE_FIX-EDGE_CUTS_GBR
 10
245.6406
 20
-74.1584
 30
0.00
  0
SEQEND
  0
POLYLINE
  8
CORSA_PLATE_FIX-EDGE_CUTS_GBR
 66
1
 10
0.00
 20
0.00
 30
0.00
 40
0.20
 41
0.20
  0
VERTEX
  8
CORSA_PLATE_FIX-EDGE_CUTS_GBR
 10
277.1706
 20
-151.3584
 30
0.00
  0
VERTEX
  8
CORSA_PLATE_FIX-EDGE_CUTS_GBR
 10
278.1706
 20
-150.3584
 30
0.00
  0
SEQEND
  0
POLYLINE
  8
CORSA_PLATE_FIX-EDGE_CUTS_GBR
 66
1
 10
0.00
 20
0.00
 30
0.00
 40
0.20
 41
0.20
  0
VERTEX
  8
CORSA_PLATE_FIX-EDGE_CUTS_GBR
 10
277.1706
 20
-163.4584
 30
0.00
  0
VERTEX
  8
CORSA_PLATE_FIX-EDGE_CUTS_GBR
 10
277.1706
 20
-151.3584
 30
0.00
  0
SEQEND
  0
POLYLINE
  8
CORSA_PLATE_FIX-EDGE_CUTS_GBR
 66
1
 10
0.00
 20
0.00
 30
0.00
 40
0.20
 41
0.20
  0
VERTEX
  8
CORSA_PLATE_FIX-EDGE_CUTS_GBR
 10
278.1706
 20
-164.4584
 30
0.00
  0
VERTEX
  8
CORSA_PLATE_FIX-EDGE_CUTS_GBR
 10
277.1706
 20
-163.4584
 30
0.00
  0
SEQEND
  0
POLYLINE
  8
CORSA_PLATE_FIX-EDGE_CUTS_GBR
 66
1
 10
0.00
 20
0.00
 30
0.00
 40
0.20
 41
0.20
  0
VERTEX
  8
CORSA_PLATE_FIX-EDGE_CUTS_GBR
 10
290.8706
 20
-164.4584
 30
0.00
  0
VERTEX
  8
CORSA_PLATE_FIX-EDGE_CUTS_GBR
 10
278.1706
 20
-164.4584
 30
0.00
  0
SEQEND
  0
POLYLINE
  8
CORSA_PLATE_FIX-EDGE_CUTS_GBR
 66
1
 10
0.00
 20
0.00
 30
0.00
 40
0.20
 41
0.20
  0
VERTEX
  8
CORSA_PLATE_FIX-EDGE_CUTS_GBR
 10
291.8706
 20
-163.4584
 30
0.00
  0
VERTEX
  8
CORSA_PLATE_FIX-EDGE_CUTS_GBR
 10
290.8706
 20
-164.4584
 30
0.00
  0
SEQEND
  0
POLYLINE
  8
CORSA_PLATE_FIX-EDGE_CUTS_GBR
 66
1
 10
0.00
 20
0.00
 30
0.00
 40
0.20
 41
0.20
  0
VERTEX
  8
CORSA_PLATE_FIX-EDGE_CUTS_GBR
 10
291.8706
 20
-151.3584
 30
0.00
  0
VERTEX
  8
CORSA_PLATE_FIX-EDGE_CUTS_GBR
 10
291.8706
 20
-163.4584
 30
0.00
  0
SEQEND
  0
POLYLINE
  8
CORSA_PLATE_FIX-EDGE_CUTS_GBR
 66
1
 10
0.00
 20
0.00
 30
0.00
 40
0.20
 41
0.20
  0
VERTEX
  8
CORSA_PLATE_FIX-EDGE_CUTS_GBR
 10
290.8706
 20
-150.3584
 30
0.00
  0
VERTEX
  8
CORSA_PLATE_FIX-EDGE_CUTS_GBR
 10
291.8706
 20
-151.3584
 30
0.00
  0
SEQEND
  0
POLYLINE
  8
CORSA_PLATE_FIX-EDGE_CUTS_GBR
 66
1
 10
0.00
 20
0.00
 30
0.00
 40
0.20
 41
0.20
  0
VERTEX
  8
CORSA_PLATE_FIX-EDGE_CUTS_GBR
 10
278.1706
 20
-150.3584
 30
0.00
  0
VERTEX
  8
CORSA_PLATE_FIX-EDGE_CUTS_GBR
 10
290.8706
 20
-150.3584
 30
0.00
  0
SEQEND
  0
POLYLINE
  8
CORSA_PLATE_FIX-EDGE_CUTS_GBR
 66
1
 10
0.00
 20
0.00
 30
0.00
 40
0.20
 41
0.20
  0
VERTEX
  8
CORSA_PLATE_FIX-EDGE_CUTS_GBR
 10
253.3606
 20
-151.3584
 30
0.00
  0
VERTEX
  8
CORSA_PLATE_FIX-EDGE_CUTS_GBR
 10
254.3606
 20
-150.3584
 30
0.00
  0
SEQEND
  0
POLYLINE
  8
CORSA_PLATE_FIX-EDGE_CUTS_GBR
 66
1
 10
0.00
 20
0.00
 30
0.00
 40
0.20
 41
0.20
  0
VERTEX
  8
CORSA_PLATE_FIX-EDGE_CUTS_GBR
 10
253.3606
 20
-163.4584
 30
0.00
  0
VERTEX
  8
CORSA_PLATE_FIX-EDGE_CUTS_GBR
 10
253.3606
 20
-151.3584
 30
0.00
  0
SEQEND
  0
POLYLINE
  8
CORSA_PLATE_FIX-EDGE_CUTS_GBR
 66
1
 10
0.00
 20
0.00
 30
0.00
 40
0.20
 41
0.20
  0
VERTEX
  8
CORSA_PLATE_FIX-EDGE_CUTS_GBR
 10
254.3606
 20
-164.4584
 30
0.00
  0
VERTEX
  8
CORSA_PLATE_FIX-EDGE_CUTS_GBR
 10
253.3606
 20
-163.4584
 30
0.00
  0
SEQEND
  0
POLYLINE
  8
CORSA_PLATE_FIX-EDGE_CUTS_GBR
 66
1
 10
0.00
 20
0.00
 30
0.00
 40
0.20
 41
0.20
  0
VERTEX
  8
CORSA_PLATE_FIX-EDGE_CUTS_GBR
 10
267.0606
 20
-164.4584
 30
0.00
  0
VERTEX
  8
CORSA_PLATE_FIX-EDGE_CUTS_GBR
 10
254.3606
 20
-164.4584
 30
0.00
  0
SEQEND
  0
POLYLINE
  8
CORSA_PLATE_FIX-EDGE_CUTS_GBR
 66
1
 10
0.00
 20
0.00
 30
0.00
 40
0.20
 41
0.20
  0
VERTEX
  8
CORSA_PLATE_FIX-EDGE_CUTS_GBR
 10
268.0606
 20
-163.4584
 30
0.00
  0
VERTEX
  8
CORSA_PLATE_FIX-EDGE_CUTS_GBR
 10
267.0606
 20
-164.4584
 30
0.00
  0
SEQEND
  0
POLYLINE
  8
CORSA_PLATE_FIX-EDGE_CUTS_GBR
 66
1
 10
0.00
 20
0.00
 30
0.00
 40
0.20
 41
0.20
  0
VERTEX
  8
CORSA_PLATE_FIX-EDGE_CUTS_GBR
 10
268.0606
 20
-151.3584
 30
0.00
  0
VERTEX
  8
CORSA_PLATE_FIX-EDGE_CUTS_GBR
 10
268.0606
 20
-163.4584
 30
0.00
  0
SEQEND
  0
POLYLINE
  8
CORSA_PLATE_FIX-EDGE_CUTS_GBR
 66
1
 10
0.00
 20
0.00
 30
0.00
 40
0.20
 41
0.20
  0
VERTEX
  8
CORSA_PLATE_FIX-EDGE_CUTS_GBR
 10
267.0606
 20
-150.3584
 30
0.00
  0
VERTEX
  8
CORSA_PLATE_FIX-EDGE_CUTS_GBR
 10
268.0606
 20
-151.3584
 30
0.00
  0
SEQEND
  0
POLYLINE
  8
CORSA_PLATE_FIX-EDGE_CUTS_GBR
 66
1
 10
0.00
 20
0.00
 30
0.00
 40
0.20
 41
0.20
  0
VERTEX
  8
CORSA_PLATE_FIX-EDGE_CUTS_GBR
 10
254.3606
 20
-150.3584
 30
0.00
  0
VERTEX
  8
CORSA_PLATE_FIX-EDGE_CUTS_GBR
 10
267.0606
 20
-150.3584
 30
0.00
  0
SEQEND
  0
POLYLINE
  8
CORSA_PLATE_FIX-EDGE_CUTS_GBR
 66
1
 10
0.00
 20
0.00
 30
0.00
 40
0.20
 41
0.20
  0
VERTEX
  8
CORSA_PLATE_FIX-EDGE_CUTS_GBR
 10
110.4906
 20
-151.3584
 30
0.00
  0
VERTEX
  8
CORSA_PLATE_FIX-EDGE_CUTS_GBR
 10
111.4906
 20
-150.3584
 30
0.00
  0
SEQEND
  0
POLYLINE
  8
CORSA_PLATE_FIX-EDGE_CUTS_GBR
 66
1
 10
0.00
 20
0.00
 30
0.00
 40
0.20
 41
0.20
  0
VERTEX
  8
CORSA_PLATE_FIX-EDGE_CUTS_GBR
 10
110.4906
 20
-163.4584
 30
0.00
  0
VERTEX
  8
CORSA_PLATE_FIX-EDGE_CUTS_GBR
 10
110.4906
 20
-151.3584
 30
0.00
  0
SEQEND
  0
POLYLINE
  8
CORSA_PLATE_FIX-EDGE_CUTS_GBR
 66
1
 10
0.00
 20
0.00
 30
0.00
 40
0.20
 41
0.20
  0
VERTEX
  8
CORSA_PLATE_FIX-EDGE_CUTS_GBR
 10
111.4906
 20
-164.4584
 30
0.00
  0
VERTEX
  8
CORSA_PLATE_FIX-EDGE_CUTS_GBR
 10
110.4906
 20
-163.4584
 30
0.00
  0
SEQEND
  0
POLYLINE
  8
CORSA_PLATE_FIX-EDGE_CUTS_GBR
 66
1
 10
0.00
 20
0.00
 30
0.00
 40
0.20
 41
0.20
  0
VERTEX
  8
CORSA_PLATE_FIX-EDGE_CUTS_GBR
 10
124.1906
 20
-164.4584
 30
0.00
  0
VERTEX
  8
CORSA_PLATE_FIX-EDGE_CUTS_GBR
 10
111.4906
 20
-164.4584
 30
0.00
  0
SEQEND
  0
POLYLINE
  8
CORSA_PLATE_FIX-EDGE_CUTS_GBR
 66
1
 10
0.00
 20
0.00
 30
0.00
 40
0.20
 41
0.20
  0
VERTEX
  8
CORSA_PLATE_FIX-EDGE_CUTS_GBR
 10
125.1906
 20
-163.4584
 30
0.00
  0
VERTEX
  8
CORSA_PLATE_FIX-EDGE_CUTS_GBR
 10
124.1906
 20
-164.4584
 30
0.00
  0
SEQEND
  0
POLYLINE
  8
CORSA_PLATE_FIX-EDGE_CUTS_GBR
 66
1
 10
0.00
 20
0.00
 30
0.00
 40
0.20
 41
0.20
  0
VERTEX
  8
CORSA_PLATE_FIX-EDGE_CUTS_GBR
 10
125.1906
 20
-151.3584
 30
0.00
  0
VERTEX
  8
CORSA_PLATE_FIX-EDGE_CUTS_GBR
 10
125.1906
 20
-163.4584
 30
0.00
  0
SEQEND
  0
POLYLINE
  8
CORSA_PLATE_FIX-EDGE_CUTS_GBR
 66
1
 10
0.00
 20
0.00
 30
0.00
 40
0.20
 41
0.20
  0
VERTEX
  8
CORSA_PLATE_FIX-EDGE_CUTS_GBR
 10
124.1906
 20
-150.3584
 30
0.00
  0
VERTEX
  8
CORSA_PLATE_FIX-EDGE_CUTS_GBR
 10
125.1906
 20
-151.3584
 30
0.00
  0
SEQEND
  0
POLYLINE
  8
CORSA_PLATE_FIX-EDGE_CUTS_GBR
 66
1
 10
0.00
 20
0.00
 30
0.00
 40
0.20
 41
0.20
  0
VERTEX
  8
CORSA_PLATE_FIX-EDGE_CUTS_GBR
 10
111.4906
 20
-150.3584
 30
0.00
  0
VERTEX
  8
CORSA_PLATE_FIX-EDGE_CUTS_GBR
 10
124.1906
 20
-150.3584
 30
0.00
  0
SEQEND
  0
POLYLINE
  8
CORSA_PLATE_FIX-EDGE_CUTS_GBR
 66
1
 10
0.00
 20
0.00
 30
0.00
 40
0.20
 41
0.20
  0
VERTEX
  8
CORSA_PLATE_FIX-EDGE_CUTS_GBR
 10
86.6806
 20
-151.3584
 30
0.00
  0
VERTEX
  8
CORSA_PLATE_FIX-EDGE_CUTS_GBR
 10
87.6806
 20
-150.3584
 30
0.00
  0
SEQEND
  0
POLYLINE
  8
CORSA_PLATE_FIX-EDGE_CUTS_GBR
 66
1
 10
0.00
 20
0.00
 30
0.00
 40
0.20
 41
0.20
  0
VERTEX
  8
CORSA_PLATE_FIX-EDGE_CUTS_GBR
 10
86.6806
 20
-163.4584
 30
0.00
  0
VERTEX
  8
CORSA_PLATE_FIX-EDGE_CUTS_GBR
 10
86.6806
 20
-151.3584
 30
0.00
  0
SEQEND
  0
POLYLINE
  8
CORSA_PLATE_FIX-EDGE_CUTS_GBR
 66
1
 10
0.00
 20
0.00
 30
0.00
 40
0.20
 41
0.20
  0
VERTEX
  8
CORSA_PLATE_FIX-EDGE_CUTS_GBR
 10
87.6806
 20
-164.4584
 30
0.00
  0
VERTEX
  8
CORSA_PLATE_FIX-EDGE_CUTS_GBR
 10
86.6806
 20
-163.4584
 30
0.00
  0
SEQEND
  0
POLYLINE
  8
CORSA_PLATE_FIX-EDGE_CUTS_GBR
 66
1
 10
0.00
 20
0.00
 30
0.00
 40
0.20
 41
0.20
  0
VERTEX
  8
CORSA_PLATE_FIX-EDGE_CUTS_GBR
 10
100.3806
 20
-164.4584
 30
0.00
  0
VERTEX
  8
CORSA_PLATE_FIX-EDGE_CUTS_GBR
 10
87.6806
 20
-164.4584
 30
0.00
  0
SEQEND
  0
POLYLINE
  8
CORSA_PLATE_FIX-EDGE_CUTS_GBR
 66
1
 10
0.00
 20
0.00
 30
0.00
 40
0.20
 41
0.20
  0
VERTEX
  8
CORSA_PLATE_FIX-EDGE_CUTS_GBR
 10
101.3806
 20
-163.4584
 30
0.00
  0
VERTEX
  8
CORSA_PLATE_FIX-EDGE_CUTS_GBR
 10
100.3806
 20
-164.4584
 30
0.00
  0
SEQEND
  0
POLYLINE
  8
CORSA_PLATE_FIX-EDGE_CUTS_GBR
 66
1
 10
0.00
 20
0.00
 30
0.00
 40
0.20
 41
0.20
  0
VERTEX
  8
CORSA_PLATE_FIX-EDGE_CUTS_GBR
 10
101.3806
 20
-151.3584
 30
0.00
  0
VERTEX
  8
CORSA_PLATE_FIX-EDGE_CUTS_GBR
 10
101.3806
 20
-163.4584
 30
0.00
  0
SEQEND
  0
POLYLINE
  8
CORSA_PLATE_FIX-EDGE_CUTS_GBR
 66
1
 10
0.00
 20
0.00
 30
0.00
 40
0.20
 41
0.20
  0
VERTEX
  8
CORSA_PLATE_FIX-EDGE_CUTS_GBR
 10
100.3806
 20
-150.3584
 30
0.00
  0
VERTEX
  8
CORSA_PLATE_FIX-EDGE_CUTS_GBR
 10
101.3806
 20
-151.3584
 30
0.00
  0
SEQEND
  0
POLYLINE
  8
CORSA_PLATE_FIX-EDGE_CUTS_GBR
 66
1
 10
0.00
 20
0.00
 30
0.00
 40
0.20
 41
0.20
  0
VERTEX
  8
CORSA_PLATE_FIX-EDGE_CUTS_GBR
 10
87.6806
 20
-150.3584
 30
0.00
  0
VERTEX
  8
CORSA_PLATE_FIX-EDGE_CUTS_GBR
 10
100.3806
 20
-150.3584
 30
0.00
  0
SEQEND
  0
POLYLINE
  8
CORSA_PLATE_FIX-EDGE_CUTS_GBR
 66
1
 10
0.00
 20
0.00
 30
0.00
 40
0.20
 41
0.20
  0
VERTEX
  8
CORSA_PLATE_FIX-EDGE_CUTS_GBR
 10
62.8706
 20
-151.3584
 30
0.00
  0
VERTEX
  8
CORSA_PLATE_FIX-EDGE_CUTS_GBR
 10
63.8706
 20
-150.3584
 30
0.00
  0
SEQEND
  0
POLYLINE
  8
CORSA_PLATE_FIX-EDGE_CUTS_GBR
 66
1
 10
0.00
 20
0.00
 30
0.00
 40
0.20
 41
0.20
  0
VERTEX
  8
CORSA_PLATE_FIX-EDGE_CUTS_GBR
 10
62.8706
 20
-163.4584
 30
0.00
  0
VERTEX
  8
CORSA_PLATE_FIX-EDGE_CUTS_GBR
 10
62.8706
 20
-151.3584
 30
0.00
  0
SEQEND
  0
POLYLINE
  8
CORSA_PLATE_FIX-EDGE_CUTS_GBR
 66
1
 10
0.00
 20
0.00
 30
0.00
 40
0.20
 41
0.20
  0
VERTEX
  8
CORSA_PLATE_FIX-EDGE_CUTS_GBR
 10
63.8706
 20
-164.4584
 30
0.00
  0
VERTEX
  8
CORSA_PLATE_FIX-EDGE_CUTS_GBR
 10
62.8706
 20
-163.4584
 30
0.00
  0
SEQEND
  0
POLYLINE
  8
CORSA_PLATE_FIX-EDGE_CUTS_GBR
 66
1
 10
0.00
 20
0.00
 30
0.00
 40
0.20
 41
0.20
  0
VERTEX
  8
CORSA_PLATE_FIX-EDGE_CUTS_GBR
 10
76.5706
 20
-164.4584
 30
0.00
  0
VERTEX
  8
CORSA_PLATE_FIX-EDGE_CUTS_GBR
 10
63.8706
 20
-164.4584
 30
0.00
  0
SEQEND
  0
POLYLINE
  8
CORSA_PLATE_FIX-EDGE_CUTS_GBR
 66
1
 10
0.00
 20
0.00
 30
0.00
 40
0.20
 41
0.20
  0
VERTEX
  8
CORSA_PLATE_FIX-EDGE_CUTS_GBR
 10
77.5706
 20
-163.4584
 30
0.00
  0
VERTEX
  8
CORSA_PLATE_FIX-EDGE_CUTS_GBR
 10
76.5706
 20
-164.4584
 30
0.00
  0
SEQEND
  0
POLYLINE
  8
CORSA_PLATE_FIX-EDGE_CUTS_GBR
 66
1
 10
0.00
 20
0.00
 30
0.00
 40
0.20
 41
0.20
  0
VERTEX
  8
CORSA_PLATE_FIX-EDGE_CUTS_GBR
 10
77.5706
 20
-151.3584
 30
0.00
  0
VERTEX
  8
CORSA_PLATE_FIX-EDGE_CUTS_GBR
 10
77.5706
 20
-163.4584
 30
0.00
  0
SEQEND
  0
POLYLINE
  8
CORSA_PLATE_FIX-EDGE_CUTS_GBR
 66
1
 10
0.00
 20
0.00
 30
0.00
 40
0.20
 41
0.20
  0
VERTEX
  8
CORSA_PLATE_FIX-EDGE_CUTS_GBR
 10
76.5706
 20
-150.3584
 30
0.00
  0
VERTEX
  8
CORSA_PLATE_FIX-EDGE_CUTS_GBR
 10
77.5706
 20
-151.3584
 30
0.00
  0
SEQEND
  0
POLYLINE
  8
CORSA_PLATE_FIX-EDGE_CUTS_GBR
 66
1
 10
0.00
 20
0.00
 30
0.00
 40
0.20
 41
0.20
  0
VERTEX
  8
CORSA_PLATE_FIX-EDGE_CUTS_GBR
 10
63.8706
 20
-150.3584
 30
0.00
  0
VERTEX
  8
CORSA_PLATE_FIX-EDGE_CUTS_GBR
 10
76.5706
 20
-150.3584
 30
0.00
  0
SEQEND
  0
POLYLINE
  8
CORSA_PLATE_FIX-EDGE_CUTS_GBR
 66
1
 10
0.00
 20
0.00
 30
0.00
 40
0.20
 41
0.20
  0
VERTEX
  8
CORSA_PLATE_FIX-EDGE_CUTS_GBR
 10
236.7031
 20
-132.3084
 30
0.00
  0
VERTEX
  8
CORSA_PLATE_FIX-EDGE_CUTS_GBR
 10
237.7031
 20
-131.3084
 30
0.00
  0
SEQEND
  0
POLYLINE
  8
CORSA_PLATE_FIX-EDGE_CUTS_GBR
 66
1
 10
0.00
 20
0.00
 30
0.00
 40
0.20
 41
0.20
  0
VERTEX
  8
CORSA_PLATE_FIX-EDGE_CUTS_GBR
 10
236.7031
 20
-144.4084
 30
0.00
  0
VERTEX
  8
CORSA_PLATE_FIX-EDGE_CUTS_GBR
 10
236.7031
 20
-132.3084
 30
0.00
  0
SEQEND
  0
POLYLINE
  8
CORSA_PLATE_FIX-EDGE_CUTS_GBR
 66
1
 10
0.00
 20
0.00
 30
0.00
 40
0.20
 41
0.20
  0
VERTEX
  8
CORSA_PLATE_FIX-EDGE_CUTS_GBR
 10
237.7031
 20
-145.4084
 30
0.00
  0
VERTEX
  8
CORSA_PLATE_FIX-EDGE_CUTS_GBR
 10
236.7031
 20
-144.4084
 30
0.00
  0
SEQEND
  0
POLYLINE
  8
CORSA_PLATE_FIX-EDGE_CUTS_GBR
 66
1
 10
0.00
 20
0.00
 30
0.00
 40
0.20
 41
0.20
  0
VERTEX
  8
CORSA_PLATE_FIX-EDGE_CUTS_GBR
 10
250.4031
 20
-145.4084
 30
0.00
  0
VERTEX
  8
CORSA_PLATE_FIX-EDGE_CUTS_GBR
 10
237.7031
 20
-145.4084
 30
0.00
  0
SEQEND
  0
POLYLINE
  8
CORSA_PLATE_FIX-EDGE_CUTS_GBR
 66
1
 10
0.00
 20
0.00
 30
0.00
 40
0.20
 41
0.20
  0
VERTEX
  8
CORSA_PLATE_FIX-EDGE_CUTS_GBR
 10
251.4031
 20
-144.4084
 30
0.00
  0
VERTEX
  8
CORSA_PLATE_FIX-EDGE_CUTS_GBR
 10
250.4031
 20
-145.4084
 30
0.00
  0
SEQEND
  0
POLYLINE
  8
CORSA_PLATE_FIX-EDGE_CUTS_GBR
 66
1
 10
0.00
 20
0.00
 30
0.00
 40
0.20
 41
0.20
  0
VERTEX
  8
CORSA_PLATE_FIX-EDGE_CUTS_GBR
 10
251.4031
 20
-132.3084
 30
0.00
  0
VERTEX
  8
CORSA_PLATE_FIX-EDGE_CUTS_GBR
 10
251.4031
 20
-144.4084
 30
0.00
  0
SEQEND
  0
POLYLINE
  8
CORSA_PLATE_FIX-EDGE_CUTS_GBR
 66
1
 10
0.00
 20
0.00
 30
0.00
 40
0.20
 41
0.20
  0
VERTEX
  8
CORSA_PLATE_FIX-EDGE_CUTS_GBR
 10
250.4031
 20
-131.3084
 30
0.00
  0
VERTEX
  8
CORSA_PLATE_FIX-EDGE_CUTS_GBR
 10
251.4031
 20
-132.3084
 30
0.00
  0
SEQEND
  0
POLYLINE
  8
CORSA_PLATE_FIX-EDGE_CUTS_GBR
 66
1
 10
0.00
 20
0.00
 30
0.00
 40
0.20
 41
0.20
  0
VERTEX
  8
CORSA_PLATE_FIX-EDGE_CUTS_GBR
 10
237.7031
 20
-131.3084
 30
0.00
  0
VERTEX
  8
CORSA_PLATE_FIX-EDGE_CUTS_GBR
 10
250.4031
 20
-131.3084
 30
0.00
  0
SEQEND
  0
POLYLINE
  8
CORSA_PLATE_FIX-EDGE_CUTS_GBR
 66
1
 10
0.00
 20
0.00
 30
0.00
 40
0.20
 41
0.20
  0
VERTEX
  8
CORSA_PLATE_FIX-EDGE_CUTS_GBR
 10
217.6531
 20
-132.3084
 30
0.00
  0
VERTEX
  8
CORSA_PLATE_FIX-EDGE_CUTS_GBR
 10
218.6531
 20
-131.3084
 30
0.00
  0
SEQEND
  0
POLYLINE
  8
CORSA_PLATE_FIX-EDGE_CUTS_GBR
 66
1
 10
0.00
 20
0.00
 30
0.00
 40
0.20
 41
0.20
  0
VERTEX
  8
CORSA_PLATE_FIX-EDGE_CUTS_GBR
 10
217.6531
 20
-144.4084
 30
0.00
  0
VERTEX
  8
CORSA_PLATE_FIX-EDGE_CUTS_GBR
 10
217.6531
 20
-132.3084
 30
0.00
  0
SEQEND
  0
POLYLINE
  8
CORSA_PLATE_FIX-EDGE_CUTS_GBR
 66
1
 10
0.00
 20
0.00
 30
0.00
 40
0.20
 41
0.20
  0
VERTEX
  8
CORSA_PLATE_FIX-EDGE_CUTS_GBR
 10
218.6531
 20
-145.4084
 30
0.00
  0
VERTEX
  8
CORSA_PLATE_FIX-EDGE_CUTS_GBR
 10
217.6531
 20
-144.4084
 30
0.00
  0
SEQEND
  0
POLYLINE
  8
CORSA_PLATE_FIX-EDGE_CUTS_GBR
 66
1
 10
0.00
 20
0.00
 30
0.00
 40
0.20
 41
0.20
  0
VERTEX
  8
CORSA_PLATE_FIX-EDGE_CUTS_GBR
 10
231.3531
 20
-145.4084
 30
0.00
  0
VERTEX
  8
CORSA_PLATE_FIX-EDGE_CUTS_GBR
 10
218.6531
 20
-145.4084
 30
0.00
  0
SEQEND
  0
POLYLINE
  8
CORSA_PLATE_FIX-EDGE_CUTS_GBR
 66
1
 10
0.00
 20
0.00
 30
0.00
 40
0.20
 41
0.20
  0
VERTEX
  8
CORSA_PLATE_FIX-EDGE_CUTS_GBR
 10
232.3531
 20
-144.4084
 30
0.00
  0
VERTEX
  8
CORSA_PLATE_FIX-EDGE_CUTS_GBR
 10
231.3531
 20
-145.4084
 30
0.00
  0
SEQEND
  0
POLYLINE
  8
CORSA_PLATE_FIX-EDGE_CUTS_GBR
 66
1
 10
0.00
 20
0.00
 30
0.00
 40
0.20
 41
0.20
  0
VERTEX
  8
CORSA_PLATE_FIX-EDGE_CUTS_GBR
 10
232.3531
 20
-132.3084
 30
0.00
  0
VERTEX
  8
CORSA_PLATE_FIX-EDGE_CUTS_GBR
 10
232.3531
 20
-144.4084
 30
0.00
  0
SEQEND
  0
POLYLINE
  8
CORSA_PLATE_FIX-EDGE_CUTS_GBR
 66
1
 10
0.00
 20
0.00
 30
0.00
 40
0.20
 41
0.20
  0
VERTEX
  8
CORSA_PLATE_FIX-EDGE_CUTS_GBR
 10
231.3531
 20
-131.3084
 30
0.00
  0
VERTEX
  8
CORSA_PLATE_FIX-EDGE_CUTS_GBR
 10
232.3531
 20
-132.3084
 30
0.00
  0
SEQEND
  0
POLYLINE
  8
CORSA_PLATE_FIX-EDGE_CUTS_GBR
 66
1
 10
0.00
 20
0.00
 30
0.00
 40
0.20
 41
0.20
  0
VERTEX
  8
CORSA_PLATE_FIX-EDGE_CUTS_GBR
 10
218.6531
 20
-131.3084
 30
0.00
  0
VERTEX
  8
CORSA_PLATE_FIX-EDGE_CUTS_GBR
 10
231.3531
 20
-131.3084
 30
0.00
  0
SEQEND
  0
POLYLINE
  8
CORSA_PLATE_FIX-EDGE_CUTS_GBR
 66
1
 10
0.00
 20
0.00
 30
0.00
 40
0.20
 41
0.20
  0
VERTEX
  8
CORSA_PLATE_FIX-EDGE_CUTS_GBR
 10
198.6031
 20
-132.3084
 30
0.00
  0
VERTEX
  8
CORSA_PLATE_FIX-EDGE_CUTS_GBR
 10
199.6031
 20
-131.3084
 30
0.00
  0
SEQEND
  0
POLYLINE
  8
CORSA_PLATE_FIX-EDGE_CUTS_GBR
 66
1
 10
0.00
 20
0.00
 30
0.00
 40
0.20
 41
0.20
  0
VERTEX
  8
CORSA_PLATE_FIX-EDGE_CUTS_GBR
 10
198.6031
 20
-144.4084
 30
0.00
  0
VERTEX
  8
CORSA_PLATE_FIX-EDGE_CUTS_GBR
 10
198.6031
 20
-132.3084
 30
0.00
  0
SEQEND
  0
POLYLINE
  8
CORSA_PLATE_FIX-EDGE_CUTS_GBR
 66
1
 10
0.00
 20
0.00
 30
0.00
 40
0.20
 41
0.20
  0
VERTEX
  8
CORSA_PLATE_FIX-EDGE_CUTS_GBR
 10
199.6031
 20
-145.4084
 30
0.00
  0
VERTEX
  8
CORSA_PLATE_FIX-EDGE_CUTS_GBR
 10
198.6031
 20
-144.4084
 30
0.00
  0
SEQEND
  0
POLYLINE
  8
CORSA_PLATE_FIX-EDGE_CUTS_GBR
 66
1
 10
0.00
 20
0.00
 30
0.00
 40
0.20
 41
0.20
  0
VERTEX
  8
CORSA_PLATE_FIX-EDGE_CUTS_GBR
 10
212.3031
 20
-145.4084
 30
0.00
  0
VERTEX
  8
CORSA_PLATE_FIX-EDGE_CUTS_GBR
 10
199.6031
 20
-145.4084
 30
0.00
  0
SEQEND
  0
POLYLINE
  8
CORSA_PLATE_FIX-EDGE_CUTS_GBR
 66
1
 10
0.00
 20
0.00
 30
0.00
 40
0.20
 41
0.20
  0
VERTEX
  8
CORSA_PLATE_FIX-EDGE_CUTS_GBR
 10
213.3031
 20
-144.4084
 30
0.00
  0
VERTEX
  8
CORSA_PLATE_FIX-EDGE_CUTS_GBR
 10
212.3031
 20
-145.4084
 30
0.00
  0
SEQEND
  0
POLYLINE
  8
CORSA_PLATE_FIX-EDGE_CUTS_GBR
 66
1
 10
0.00
 20
0.00
 30
0.00
 40
0.20
 41
0.20
  0
VERTEX
  8
CORSA_PLATE_FIX-EDGE_CUTS_GBR
 10
213.3031
 20
-132.3084
 30
0.00
  0
VERTEX
  8
CORSA_PLATE_FIX-EDGE_CUTS_GBR
 10
213.3031
 20
-144.4084
 30
0.00
  0
SEQEND
  0
POLYLINE
  8
CORSA_PLATE_FIX-EDGE_CUTS_GBR
 66
1
 10
0.00
 20
0.00
 30
0.00
 40
0.20
 41
0.20
  0
VERTEX
  8
CORSA_PLATE_FIX-EDGE_CUTS_GBR
 10
212.3031
 20
-131.3084
 30
0.00
  0
VERTEX
  8
CORSA_PLATE_FIX-EDGE_CUTS_GBR
 10
213.3031
 20
-132.3084
 30
0.00
  0
SEQEND
  0
POLYLINE
  8
CORSA_PLATE_FIX-EDGE_CUTS_GBR
 66
1
 10
0.00
 20
0.00
 30
0.00
 40
0.20
 41
0.20
  0
VERTEX
  8
CORSA_PLATE_FIX-EDGE_CUTS_GBR
 10
199.6031
 20
-131.3084
 30
0.00
  0
VERTEX
  8
CORSA_PLATE_FIX-EDGE_CUTS_GBR
 10
212.3031
 20
-131.3084
 30
0.00
  0
SEQEND
  0
POLYLINE
  8
CORSA_PLATE_FIX-EDGE_CUTS_GBR
 66
1
 10
0.00
 20
0.00
 30
0.00
 40
0.20
 41
0.20
  0
VERTEX
  8
CORSA_PLATE_FIX-EDGE_CUTS_GBR
 10
179.5531
 20
-132.3084
 30
0.00
  0
VERTEX
  8
CORSA_PLATE_FIX-EDGE_CUTS_GBR
 10
180.5531
 20
-131.3084
 30
0.00
  0
SEQEND
  0
POLYLINE
  8
CORSA_PLATE_FIX-EDGE_CUTS_GBR
 66
1
 10
0.00
 20
0.00
 30
0.00
 40
0.20
 41
0.20
  0
VERTEX
  8
CORSA_PLATE_FIX-EDGE_CUTS_GBR
 10
179.5531
 20
-144.4084
 30
0.00
  0
VERTEX
  8
CORSA_PLATE_FIX-EDGE_CUTS_GBR
 10
179.5531
 20
-132.3084
 30
0.00
  0
SEQEND
  0
POLYLINE
  8
CORSA_PLATE_FIX-EDGE_CUTS_GBR
 66
1
 10
0.00
 20
0.00
 30
0.00
 40
0.20
 41
0.20
  0
VERTEX
  8
CORSA_PLATE_FIX-EDGE_CUTS_GBR
 10
180.5531
 20
-145.4084
 30
0.00
  0
VERTEX
  8
CORSA_PLATE_FIX-EDGE_CUTS_GBR
 10
179.5531
 20
-144.4084
 30
0.00
  0
SEQEND
  0
POLYLINE
  8
CORSA_PLATE_FIX-EDGE_CUTS_GBR
 66
1
 10
0.00
 20
0.00
 30
0.00
 40
0.20
 41
0.20
  0
VERTEX
  8
CORSA_PLATE_FIX-EDGE_CUTS_GBR
 10
193.2531
 20
-145.4084
 30
0.00
  0
VERTEX
  8
CORSA_PLATE_FIX-EDGE_CUTS_GBR
 10
180.5531
 20
-145.4084
 30
0.00
  0
SEQEND
  0
POLYLINE
  8
CORSA_PLATE_FIX-EDGE_CUTS_GBR
 66
1
 10
0.00
 20
0.00
 30
0.00
 40
0.20
 41
0.20
  0
VERTEX
  8
CORSA_PLATE_FIX-EDGE_CUTS_GBR
 10
194.2531
 20
-144.4084
 30
0.00
  0
VERTEX
  8
CORSA_PLATE_FIX-EDGE_CUTS_GBR
 10
193.2531
 20
-145.4084
 30
0.00
  0
SEQEND
  0
POLYLINE
  8
CORSA_PLATE_FIX-EDGE_CUTS_GBR
 66
1
 10
0.00
 20
0.00
 30
0.00
 40
0.20
 41
0.20
  0
VERTEX
  8
CORSA_PLATE_FIX-EDGE_CUTS_GBR
 10
194.2531
 20
-132.3084
 30
0.00
  0
VERTEX
  8
CORSA_PLATE_FIX-EDGE_CUTS_GBR
 10
194.2531
 20
-144.4084
 30
0.00
  0
SEQEND
  0
POLYLINE
  8
CORSA_PLATE_FIX-EDGE_CUTS_GBR
 66
1
 10
0.00
 20
0.00
 30
0.00
 40
0.20
 41
0.20
  0
VERTEX
  8
CORSA_PLATE_FIX-EDGE_CUTS_GBR
 10
193.2531
 20
-131.3084
 30
0.00
  0
VERTEX
  8
CORSA_PLATE_FIX-EDGE_CUTS_GBR
 10
194.2531
 20
-132.3084
 30
0.00
  0
SEQEND
  0
POLYLINE
  8
CORSA_PLATE_FIX-EDGE_CUTS_GBR
 66
1
 10
0.00
 20
0.00
 30
0.00
 40
0.20
 41
0.20
  0
VERTEX
  8
CORSA_PLATE_FIX-EDGE_CUTS_GBR
 10
180.5531
 20
-131.3084
 30
0.00
  0
VERTEX
  8
CORSA_PLATE_FIX-EDGE_CUTS_GBR
 10
193.2531
 20
-131.3084
 30
0.00
  0
SEQEND
  0
POLYLINE
  8
CORSA_PLATE_FIX-EDGE_CUTS_GBR
 66
1
 10
0.00
 20
0.00
 30
0.00
 40
0.20
 41
0.20
  0
VERTEX
  8
CORSA_PLATE_FIX-EDGE_CUTS_GBR
 10
160.5031
 20
-132.3084
 30
0.00
  0
VERTEX
  8
CORSA_PLATE_FIX-EDGE_CUTS_GBR
 10
161.5031
 20
-131.3084
 30
0.00
  0
SEQEND
  0
POLYLINE
  8
CORSA_PLATE_FIX-EDGE_CUTS_GBR
 66
1
 10
0.00
 20
0.00
 30
0.00
 40
0.20
 41
0.20
  0
VERTEX
  8
CORSA_PLATE_FIX-EDGE_CUTS_GBR
 10
160.5031
 20
-144.4084
 30
0.00
  0
VERTEX
  8
CORSA_PLATE_FIX-EDGE_CUTS_GBR
 10
160.5031
 20
-132.3084
 30
0.00
  0
SEQEND
  0
POLYLINE
  8
CORSA_PLATE_FIX-EDGE_CUTS_GBR
 66
1
 10
0.00
 20
0.00
 30
0.00
 40
0.20
 41
0.20
  0
VERTEX
  8
CORSA_PLATE_FIX-EDGE_CUTS_GBR
 10
161.5031
 20
-145.4084
 30
0.00
  0
VERTEX
  8
CORSA_PLATE_FIX-EDGE_CUTS_GBR
 10
160.5031
 20
-144.4084
 30
0.00
  0
SEQEND
  0
POLYLINE
  8
CORSA_PLATE_FIX-EDGE_CUTS_GBR
 66
1
 10
0.00
 20
0.00
 30
0.00
 40
0.20
 41
0.20
  0
VERTEX
  8
CORSA_PLATE_FIX-EDGE_CUTS_GBR
 10
174.2031
 20
-145.4084
 30
0.00
  0
VERTEX
  8
CORSA_PLATE_FIX-EDGE_CUTS_GBR
 10
161.5031
 20
-145.4084
 30
0.00
  0
SEQEND
  0
POLYLINE
  8
CORSA_PLATE_FIX-EDGE_CUTS_GBR
 66
1
 10
0.00
 20
0.00
 30
0.00
 40
0.20
 41
0.20
  0
VERTEX
  8
CORSA_PLATE_FIX-EDGE_CUTS_GBR
 10
175.2031
 20
-144.4084
 30
0.00
  0
VERTEX
  8
CORSA_PLATE_FIX-EDGE_CUTS_GBR
 10
174.2031
 20
-145.4084
 30
0.00
  0
SEQEND
  0
POLYLINE
  8
CORSA_PLATE_FIX-EDGE_CUTS_GBR
 66
1
 10
0.00
 20
0.00
 30
0.00
 40
0.20
 41
0.20
  0
VERTEX
  8
CORSA_PLATE_FIX-EDGE_CUTS_GBR
 10
175.2031
 20
-132.3084
 30
0.00
  0
VERTEX
  8
CORSA_PLATE_FIX-EDGE_CUTS_GBR
 10
175.2031
 20
-144.4084
 30
0.00
  0
SEQEND
  0
POLYLINE
  8
CORSA_PLATE_FIX-EDGE_CUTS_GBR
 66
1
 10
0.00
 20
0.00
 30
0.00
 40
0.20
 41
0.20
  0
VERTEX
  8
CORSA_PLATE_FIX-EDGE_CUTS_GBR
 10
174.2031
 20
-131.3084
 30
0.00
  0
VERTEX
  8
CORSA_PLATE_FIX-EDGE_CUTS_GBR
 10
175.2031
 20
-132.3084
 30
0.00
  0
SEQEND
  0
POLYLINE
  8
CORSA_PLATE_FIX-EDGE_CUTS_GBR
 66
1
 10
0.00
 20
0.00
 30
0.00
 40
0.20
 41
0.20
  0
VERTEX
  8
CORSA_PLATE_FIX-EDGE_CUTS_GBR
 10
161.5031
 20
-131.3084
 30
0.00
  0
VERTEX
  8
CORSA_PLATE_FIX-EDGE_CUTS_GBR
 10
174.2031
 20
-131.3084
 30
0.00
  0
SEQEND
  0
POLYLINE
  8
CORSA_PLATE_FIX-EDGE_CUTS_GBR
 66
1
 10
0.00
 20
0.00
 30
0.00
 40
0.20
 41
0.20
  0
VERTEX
  8
CORSA_PLATE_FIX-EDGE_CUTS_GBR
 10
141.4531
 20
-132.3084
 30
0.00
  0
VERTEX
  8
CORSA_PLATE_FIX-EDGE_CUTS_GBR
 10
142.4531
 20
-131.3084
 30
0.00
  0
SEQEND
  0
POLYLINE
  8
CORSA_PLATE_FIX-EDGE_CUTS_GBR
 66
1
 10
0.00
 20
0.00
 30
0.00
 40
0.20
 41
0.20
  0
VERTEX
  8
CORSA_PLATE_FIX-EDGE_CUTS_GBR
 10
141.4531
 20
-144.4084
 30
0.00
  0
VERTEX
  8
CORSA_PLATE_FIX-EDGE_CUTS_GBR
 10
141.4531
 20
-132.3084
 30
0.00
  0
SEQEND
  0
POLYLINE
  8
CORSA_PLATE_FIX-EDGE_CUTS_GBR
 66
1
 10
0.00
 20
0.00
 30
0.00
 40
0.20
 41
0.20
  0
VERTEX
  8
CORSA_PLATE_FIX-EDGE_CUTS_GBR
 10
142.4531
 20
-145.4084
 30
0.00
  0
VERTEX
  8
CORSA_PLATE_FIX-EDGE_CUTS_GBR
 10
141.4531
 20
-144.4084
 30
0.00
  0
SEQEND
  0
POLYLINE
  8
CORSA_PLATE_FIX-EDGE_CUTS_GBR
 66
1
 10
0.00
 20
0.00
 30
0.00
 40
0.20
 41
0.20
  0
VERTEX
  8
CORSA_PLATE_FIX-EDGE_CUTS_GBR
 10
155.1531
 20
-145.4084
 30
0.00
  0
VERTEX
  8
CORSA_PLATE_FIX-EDGE_CUTS_GBR
 10
142.4531
 20
-145.4084
 30
0.00
  0
SEQEND
  0
POLYLINE
  8
CORSA_PLATE_FIX-EDGE_CUTS_GBR
 66
1
 10
0.00
 20
0.00
 30
0.00
 40
0.20
 41
0.20
  0
VERTEX
  8
CORSA_PLATE_FIX-EDGE_CUTS_GBR
 10
156.1531
 20
-144.4084
 30
0.00
  0
VERTEX
  8
CORSA_PLATE_FIX-EDGE_CUTS_GBR
 10
155.1531
 20
-145.4084
 30
0.00
  0
SEQEND
  0
POLYLINE
  8
CORSA_PLATE_FIX-EDGE_CUTS_GBR
 66
1
 10
0.00
 20
0.00
 30
0.00
 40
0.20
 41
0.20
  0
VERTEX
  8
CORSA_PLATE_FIX-EDGE_CUTS_GBR
 10
156.1531
 20
-132.3084
 30
0.00
  0
VERTEX
  8
CORSA_PLATE_FIX-EDGE_CUTS_GBR
 10
156.1531
 20
-144.4084
 30
0.00
  0
SEQEND
  0
POLYLINE
  8
CORSA_PLATE_FIX-EDGE_CUTS_GBR
 66
1
 10
0.00
 20
0.00
 30
0.00
 40
0.20
 41
0.20
  0
VERTEX
  8
CORSA_PLATE_FIX-EDGE_CUTS_GBR
 10
155.1531
 20
-131.3084
 30
0.00
  0
VERTEX
  8
CORSA_PLATE_FIX-EDGE_CUTS_GBR
 10
156.1531
 20
-132.3084
 30
0.00
  0
SEQEND
  0
POLYLINE
  8
CORSA_PLATE_FIX-EDGE_CUTS_GBR
 66
1
 10
0.00
 20
0.00
 30
0.00
 40
0.20
 41
0.20
  0
VERTEX
  8
CORSA_PLATE_FIX-EDGE_CUTS_GBR
 10
142.4531
 20
-131.3084
 30
0.00
  0
VERTEX
  8
CORSA_PLATE_FIX-EDGE_CUTS_GBR
 10
155.1531
 20
-131.3084
 30
0.00
  0
SEQEND
  0
POLYLINE
  8
CORSA_PLATE_FIX-EDGE_CUTS_GBR
 66
1
 10
0.00
 20
0.00
 30
0.00
 40
0.20
 41
0.20
  0
VERTEX
  8
CORSA_PLATE_FIX-EDGE_CUTS_GBR
 10
122.4031
 20
-132.3084
 30
0.00
  0
VERTEX
  8
CORSA_PLATE_FIX-EDGE_CUTS_GBR
 10
123.4031
 20
-131.3084
 30
0.00
  0
SEQEND
  0
POLYLINE
  8
CORSA_PLATE_FIX-EDGE_CUTS_GBR
 66
1
 10
0.00
 20
0.00
 30
0.00
 40
0.20
 41
0.20
  0
VERTEX
  8
CORSA_PLATE_FIX-EDGE_CUTS_GBR
 10
122.4031
 20
-144.4084
 30
0.00
  0
VERTEX
  8
CORSA_PLATE_FIX-EDGE_CUTS_GBR
 10
122.4031
 20
-132.3084
 30
0.00
  0
SEQEND
  0
POLYLINE
  8
CORSA_PLATE_FIX-EDGE_CUTS_GBR
 66
1
 10
0.00
 20
0.00
 30
0.00
 40
0.20
 41
0.20
  0
VERTEX
  8
CORSA_PLATE_FIX-EDGE_CUTS_GBR
 10
123.4031
 20
-145.4084
 30
0.00
  0
VERTEX
  8
CORSA_PLATE_FIX-EDGE_CUTS_GBR
 10
122.4031
 20
-144.4084
 30
0.00
  0
SEQEND
  0
POLYLINE
  8
CORSA_PLATE_FIX-EDGE_CUTS_GBR
 66
1
 10
0.00
 20
0.00
 30
0.00
 40
0.20
 41
0.20
  0
VERTEX
  8
CORSA_PLATE_FIX-EDGE_CUTS_GBR
 10
136.1031
 20
-145.4084
 30
0.00
  0
VERTEX
  8
CORSA_PLATE_FIX-EDGE_CUTS_GBR
 10
123.4031
 20
-145.4084
 30
0.00
  0
SEQEND
  0
POLYLINE
  8
CORSA_PLATE_FIX-EDGE_CUTS_GBR
 66
1
 10
0.00
 20
0.00
 30
0.00
 40
0.20
 41
0.20
  0
VERTEX
  8
CORSA_PLATE_FIX-EDGE_CUTS_GBR
 10
137.1031
 20
-144.4084
 30
0.00
  0
VERTEX
  8
CORSA_PLATE_FIX-EDGE_CUTS_GBR
 10
136.1031
 20
-145.4084
 30
0.00
  0
SEQEND
  0
POLYLINE
  8
CORSA_PLATE_FIX-EDGE_CUTS_GBR
 66
1
 10
0.00
 20
0.00
 30
0.00
 40
0.20
 41
0.20
  0
VERTEX
  8
CORSA_PLATE_FIX-EDGE_CUTS_GBR
 10
137.1031
 20
-132.3084
 30
0.00
  0
VERTEX
  8
CORSA_PLATE_FIX-EDGE_CUTS_GBR
 10
137.1031
 20
-144.4084
 30
0.00
  0
SEQEND
  0
POLYLINE
  8
CORSA_PLATE_FIX-EDGE_CUTS_GBR
 66
1
 10
0.00
 20
0.00
 30
0.00
 40
0.20
 41
0.20
  0
VERTEX
  8
CORSA_PLATE_FIX-EDGE_CUTS_GBR
 10
136.1031
 20
-131.3084
 30
0.00
  0
VERTEX
  8
CORSA_PLATE_FIX-EDGE_CUTS_GBR
 10
137.1031
 20
-132.3084
 30
0.00
  0
SEQEND
  0
POLYLINE
  8
CORSA_PLATE_FIX-EDGE_CUTS_GBR
 66
1
 10
0.00
 20
0.00
 30
0.00
 40
0.20
 41
0.20
  0
VERTEX
  8
CORSA_PLATE_FIX-EDGE_CUTS_GBR
 10
123.4031
 20
-131.3084
 30
0.00
  0
VERTEX
  8
CORSA_PLATE_FIX-EDGE_CUTS_GBR
 10
136.1031
 20
-131.3084
 30
0.00
  0
SEQEND
  0
POLYLINE
  8
CORSA_PLATE_FIX-EDGE_CUTS_GBR
 66
1
 10
0.00
 20
0.00
 30
0.00
 40
0.20
 41
0.20
  0
VERTEX
  8
CORSA_PLATE_FIX-EDGE_CUTS_GBR
 10
103.3531
 20
-132.3084
 30
0.00
  0
VERTEX
  8
CORSA_PLATE_FIX-EDGE_CUTS_GBR
 10
104.3531
 20
-131.3084
 30
0.00
  0
SEQEND
  0
POLYLINE
  8
CORSA_PLATE_FIX-EDGE_CUTS_GBR
 66
1
 10
0.00
 20
0.00
 30
0.00
 40
0.20
 41
0.20
  0
VERTEX
  8
CORSA_PLATE_FIX-EDGE_CUTS_GBR
 10
103.3531
 20
-144.4084
 30
0.00
  0
VERTEX
  8
CORSA_PLATE_FIX-EDGE_CUTS_GBR
 10
103.3531
 20
-132.3084
 30
0.00
  0
SEQEND
  0
POLYLINE
  8
CORSA_PLATE_FIX-EDGE_CUTS_GBR
 66
1
 10
0.00
 20
0.00
 30
0.00
 40
0.20
 41
0.20
  0
VERTEX
  8
CORSA_PLATE_FIX-EDGE_CUTS_GBR
 10
104.3531
 20
-145.4084
 30
0.00
  0
VERTEX
  8
CORSA_PLATE_FIX-EDGE_CUTS_GBR
 10
103.3531
 20
-144.4084
 30
0.00
  0
SEQEND
  0
POLYLINE
  8
CORSA_PLATE_FIX-EDGE_CUTS_GBR
 66
1
 10
0.00
 20
0.00
 30
0.00
 40
0.20
 41
0.20
  0
VERTEX
  8
CORSA_PLATE_FIX-EDGE_CUTS_GBR
 10
117.0531
 20
-145.4084
 30
0.00
  0
VERTEX
  8
CORSA_PLATE_FIX-EDGE_CUTS_GBR
 10
104.3531
 20
-145.4084
 30
0.00
  0
SEQEND
  0
POLYLINE
  8
CORSA_PLATE_FIX-EDGE_CUTS_GBR
 66
1
 10
0.00
 20
0.00
 30
0.00
 40
0.20
 41
0.20
  0
VERTEX
  8
CORSA_PLATE_FIX-EDGE_CUTS_GBR
 10
118.0531
 20
-144.4084
 30
0.00
  0
VERTEX
  8
CORSA_PLATE_FIX-EDGE_CUTS_GBR
 10
117.0531
 20
-145.4084
 30
0.00
  0
SEQEND
  0
POLYLINE
  8
CORSA_PLATE_FIX-EDGE_CUTS_GBR
 66
1
 10
0.00
 20
0.00
 30
0.00
 40
0.20
 41
0.20
  0
VERTEX
  8
CORSA_PLATE_FIX-EDGE_CUTS_GBR
 10
118.0531
 20
-132.3084
 30
0.00
  0
VERTEX
  8
CORSA_PLATE_FIX-EDGE_CUTS_GBR
 10
118.0531
 20
-144.4084
 30
0.00
  0
SEQEND
  0
POLYLINE
  8
CORSA_PLATE_FIX-EDGE_CUTS_GBR
 66
1
 10
0.00
 20
0.00
 30
0.00
 40
0.20
 41
0.20
  0
VERTEX
  8
CORSA_PLATE_FIX-EDGE_CUTS_GBR
 10
117.0531
 20
-131.3084
 30
0.00
  0
VERTEX
  8
CORSA_PLATE_FIX-EDGE_CUTS_GBR
 10
118.0531
 20
-132.3084
 30
0.00
  0
SEQEND
  0
POLYLINE
  8
CORSA_PLATE_FIX-EDGE_CUTS_GBR
 66
1
 10
0.00
 20
0.00
 30
0.00
 40
0.20
 41
0.20
  0
VERTEX
  8
CORSA_PLATE_FIX-EDGE_CUTS_GBR
 10
104.3531
 20
-131.3084
 30
0.00
  0
VERTEX
  8
CORSA_PLATE_FIX-EDGE_CUTS_GBR
 10
117.0531
 20
-131.3084
 30
0.00
  0
SEQEND
  0
POLYLINE
  8
CORSA_PLATE_FIX-EDGE_CUTS_GBR
 66
1
 10
0.00
 20
0.00
 30
0.00
 40
0.20
 41
0.20
  0
VERTEX
  8
CORSA_PLATE_FIX-EDGE_CUTS_GBR
 10
63.64685
 20
-132.3084
 30
0.00
  0
VERTEX
  8
CORSA_PLATE_FIX-EDGE_CUTS_GBR
 10
64.64685
 20
-131.3084
 30
0.00
  0
SEQEND
  0
POLYLINE
  8
CORSA_PLATE_FIX-EDGE_CUTS_GBR
 66
1
 10
0.00
 20
0.00
 30
0.00
 40
0.20
 41
0.20
  0
VERTEX
  8
CORSA_PLATE_FIX-EDGE_CUTS_GBR
 10
63.64685
 20
-143.6784
 30
0.00
  0
VERTEX
  8
CORSA_PLATE_FIX-EDGE_CUTS_GBR
 10
63.64685
 20
-132.3084
 30
0.00
  0
SEQEND
  0
POLYLINE
  8
CORSA_PLATE_FIX-EDGE_CUTS_GBR
 66
1
 10
0.00
 20
0.00
 30
0.00
 40
0.20
 41
0.20
  0
VERTEX
  8
CORSA_PLATE_FIX-EDGE_CUTS_GBR
 10
66.64685
 20
-145.4084
 30
0.00
  0
VERTEX
  8
CORSA_PLATE_FIX-EDGE_CUTS_GBR
 10
63.64685
 20
-143.6784
 30
0.00
  0
SEQEND
  0
POLYLINE
  8
CORSA_PLATE_FIX-EDGE_CUTS_GBR
 66
1
 10
0.00
 20
0.00
 30
0.00
 40
0.20
 41
0.20
  0
VERTEX
  8
CORSA_PLATE_FIX-EDGE_CUTS_GBR
 10
92.84685
 20
-145.4084
 30
0.00
  0
VERTEX
  8
CORSA_PLATE_FIX-EDGE_CUTS_GBR
 10
66.64685
 20
-145.4084
 30
0.00
  0
SEQEND
  0
POLYLINE
  8
CORSA_PLATE_FIX-EDGE_CUTS_GBR
 66
1
 10
0.00
 20
0.00
 30
0.00
 40
0.20
 41
0.20
  0
VERTEX
  8
CORSA_PLATE_FIX-EDGE_CUTS_GBR
 10
95.84685
 20
-143.6784
 30
0.00
  0
VERTEX
  8
CORSA_PLATE_FIX-EDGE_CUTS_GBR
 10
92.84685
 20
-145.4084
 30
0.00
  0
SEQEND
  0
POLYLINE
  8
CORSA_PLATE_FIX-EDGE_CUTS_GBR
 66
1
 10
0.00
 20
0.00
 30
0.00
 40
0.20
 41
0.20
  0
VERTEX
  8
CORSA_PLATE_FIX-EDGE_CUTS_GBR
 10
95.84685
 20
-132.3084
 30
0.00
  0
VERTEX
  8
CORSA_PLATE_FIX-EDGE_CUTS_GBR
 10
95.84685
 20
-143.6784
 30
0.00
  0
SEQEND
  0
POLYLINE
  8
CORSA_PLATE_FIX-EDGE_CUTS_GBR
 66
1
 10
0.00
 20
0.00
 30
0.00
 40
0.20
 41
0.20
  0
VERTEX
  8
CORSA_PLATE_FIX-EDGE_CUTS_GBR
 10
94.84685
 20
-131.3084
 30
0.00
  0
VERTEX
  8
CORSA_PLATE_FIX-EDGE_CUTS_GBR
 10
95.84685
 20
-132.3084
 30
0.00
  0
SEQEND
  0
POLYLINE
  8
CORSA_PLATE_FIX-EDGE_CUTS_GBR
 66
1
 10
0.00
 20
0.00
 30
0.00
 40
0.20
 41
0.20
  0
VERTEX
  8
CORSA_PLATE_FIX-EDGE_CUTS_GBR
 10
64.64685
 20
-131.3084
 30
0.00
  0
VERTEX
  8
CORSA_PLATE_FIX-EDGE_CUTS_GBR
 10
94.84685
 20
-131.3084
 30
0.00
  0
SEQEND
  0
POLYLINE
  8
CORSA_PLATE_FIX-EDGE_CUTS_GBR
 66
1
 10
0.00
 20
0.00
 30
0.00
 40
0.20
 41
0.20
  0
VERTEX
  8
CORSA_PLATE_FIX-EDGE_CUTS_GBR
 10
227.1781
 20
-113.2584
 30
0.00
  0
VERTEX
  8
CORSA_PLATE_FIX-EDGE_CUTS_GBR
 10
228.1781
 20
-112.2584
 30
0.00
  0
SEQEND
  0
POLYLINE
  8
CORSA_PLATE_FIX-EDGE_CUTS_GBR
 66
1
 10
0.00
 20
0.00
 30
0.00
 40
0.20
 41
0.20
  0
VERTEX
  8
CORSA_PLATE_FIX-EDGE_CUTS_GBR
 10
227.1781
 20
-125.3584
 30
0.00
  0
VERTEX
  8
CORSA_PLATE_FIX-EDGE_CUTS_GBR
 10
227.1781
 20
-113.2584
 30
0.00
  0
SEQEND
  0
POLYLINE
  8
CORSA_PLATE_FIX-EDGE_CUTS_GBR
 66
1
 10
0.00
 20
0.00
 30
0.00
 40
0.20
 41
0.20
  0
VERTEX
  8
CORSA_PLATE_FIX-EDGE_CUTS_GBR
 10
228.1781
 20
-126.3584
 30
0.00
  0
VERTEX
  8
CORSA_PLATE_FIX-EDGE_CUTS_GBR
 10
227.1781
 20
-125.3584
 30
0.00
  0
SEQEND
  0
POLYLINE
  8
CORSA_PLATE_FIX-EDGE_CUTS_GBR
 66
1
 10
0.00
 20
0.00
 30
0.00
 40
0.20
 41
0.20
  0
VERTEX
  8
CORSA_PLATE_FIX-EDGE_CUTS_GBR
 10
240.8781
 20
-126.3584
 30
0.00
  0
VERTEX
  8
CORSA_PLATE_FIX-EDGE_CUTS_GBR
 10
228.1781
 20
-126.3584
 30
0.00
  0
SEQEND
  0
POLYLINE
  8
CORSA_PLATE_FIX-EDGE_CUTS_GBR
 66
1
 10
0.00
 20
0.00
 30
0.00
 40
0.20
 41
0.20
  0
VERTEX
  8
CORSA_PLATE_FIX-EDGE_CUTS_GBR
 10
241.8781
 20
-125.3584
 30
0.00
  0
VERTEX
  8
CORSA_PLATE_FIX-EDGE_CUTS_GBR
 10
240.8781
 20
-126.3584
 30
0.00
  0
SEQEND
  0
POLYLINE
  8
CORSA_PLATE_FIX-EDGE_CUTS_GBR
 66
1
 10
0.00
 20
0.00
 30
0.00
 40
0.20
 41
0.20
  0
VERTEX
  8
CORSA_PLATE_FIX-EDGE_CUTS_GBR
 10
241.8781
 20
-113.2584
 30
0.00
  0
VERTEX
  8
CORSA_PLATE_FIX-EDGE_CUTS_GBR
 10
241.8781
 20
-125.3584
 30
0.00
  0
SEQEND
  0
POLYLINE
  8
CORSA_PLATE_FIX-EDGE_CUTS_GBR
 66
1
 10
0.00
 20
0.00
 30
0.00
 40
0.20
 41
0.20
  0
VERTEX
  8
CORSA_PLATE_FIX-EDGE_CUTS_GBR
 10
240.8781
 20
-112.2584
 30
0.00
  0
VERTEX
  8
CORSA_PLATE_FIX-EDGE_CUTS_GBR
 10
241.8781
 20
-113.2584
 30
0.00
  0
SEQEND
  0
POLYLINE
  8
CORSA_PLATE_FIX-EDGE_CUTS_GBR
 66
1
 10
0.00
 20
0.00
 30
0.00
 40
0.20
 41
0.20
  0
VERTEX
  8
CORSA_PLATE_FIX-EDGE_CUTS_GBR
 10
228.1781
 20
-112.2584
 30
0.00
  0
VERTEX
  8
CORSA_PLATE_FIX-EDGE_CUTS_GBR
 10
240.8781
 20
-112.2584
 30
0.00
  0
SEQEND
  0
POLYLINE
  8
CORSA_PLATE_FIX-EDGE_CUTS_GBR
 66
1
 10
0.00
 20
0.00
 30
0.00
 40
0.20
 41
0.20
  0
VERTEX
  8
CORSA_PLATE_FIX-EDGE_CUTS_GBR
 10
208.1281
 20
-113.2584
 30
0.00
  0
VERTEX
  8
CORSA_PLATE_FIX-EDGE_CUTS_GBR
 10
209.1281
 20
-112.2584
 30
0.00
  0
SEQEND
  0
POLYLINE
  8
CORSA_PLATE_FIX-EDGE_CUTS_GBR
 66
1
 10
0.00
 20
0.00
 30
0.00
 40
0.20
 41
0.20
  0
VERTEX
  8
CORSA_PLATE_FIX-EDGE_CUTS_GBR
 10
208.1281
 20
-125.3584
 30
0.00
  0
VERTEX
  8
CORSA_PLATE_FIX-EDGE_CUTS_GBR
 10
208.1281
 20
-113.2584
 30
0.00
  0
SEQEND
  0
POLYLINE
  8
CORSA_PLATE_FIX-EDGE_CUTS_GBR
 66
1
 10
0.00
 20
0.00
 30
0.00
 40
0.20
 41
0.20
  0
VERTEX
  8
CORSA_PLATE_FIX-EDGE_CUTS_GBR
 10
209.1281
 20
-126.3584
 30
0.00
  0
VERTEX
  8
CORSA_PLATE_FIX-EDGE_CUTS_GBR
 10
208.1281
 20
-125.3584
 30
0.00
  0
SEQEND
  0
POLYLINE
  8
CORSA_PLATE_FIX-EDGE_CUTS_GBR
 66
1
 10
0.00
 20
0.00
 30
0.00
 40
0.20
 41
0.20
  0
VERTEX
  8
CORSA_PLATE_FIX-EDGE_CUTS_GBR
 10
221.8281
 20
-126.3584
 30
0.00
  0
VERTEX
  8
CORSA_PLATE_FIX-EDGE_CUTS_GBR
 10
209.1281
 20
-126.3584
 30
0.00
  0
SEQEND
  0
POLYLINE
  8
CORSA_PLATE_FIX-EDGE_CUTS_GBR
 66
1
 10
0.00
 20
0.00
 30
0.00
 40
0.20
 41
0.20
  0
VERTEX
  8
CORSA_PLATE_FIX-EDGE_CUTS_GBR
 10
222.8281
 20
-125.3584
 30
0.00
  0
VERTEX
  8
CORSA_PLATE_FIX-EDGE_CUTS_GBR
 10
221.8281
 20
-126.3584
 30
0.00
  0
SEQEND
  0
POLYLINE
  8
CORSA_PLATE_FIX-EDGE_CUTS_GBR
 66
1
 10
0.00
 20
0.00
 30
0.00
 40
0.20
 41
0.20
  0
VERTEX
  8
CORSA_PLATE_FIX-EDGE_CUTS_GBR
 10
222.8281
 20
-113.2584
 30
0.00
  0
VERTEX
  8
CORSA_PLATE_FIX-EDGE_CUTS_GBR
 10
222.8281
 20
-125.3584
 30
0.00
  0
SEQEND
  0
POLYLINE
  8
CORSA_PLATE_FIX-EDGE_CUTS_GBR
 66
1
 10
0.00
 20
0.00
 30
0.00
 40
0.20
 41
0.20
  0
VERTEX
  8
CORSA_PLATE_FIX-EDGE_CUTS_GBR
 10
221.8281
 20
-112.2584
 30
0.00
  0
VERTEX
  8
CORSA_PLATE_FIX-EDGE_CUTS_GBR
 10
222.8281
 20
-113.2584
 30
0.00
  0
SEQEND
  0
POLYLINE
  8
CORSA_PLATE_FIX-EDGE_CUTS_GBR
 66
1
 10
0.00
 20
0.00
 30
0.00
 40
0.20
 41
0.20
  0
VERTEX
  8
CORSA_PLATE_FIX-EDGE_CUTS_GBR
 10
209.1281
 20
-112.2584
 30
0.00
  0
VERTEX
  8
CORSA_PLATE_FIX-EDGE_CUTS_GBR
 10
221.8281
 20
-112.2584
 30
0.00
  0
SEQEND
  0
POLYLINE
  8
CORSA_PLATE_FIX-EDGE_CUTS_GBR
 66
1
 10
0.00
 20
0.00
 30
0.00
 40
0.20
 41
0.20
  0
VERTEX
  8
CORSA_PLATE_FIX-EDGE_CUTS_GBR
 10
189.0781
 20
-113.2584
 30
0.00
  0
VERTEX
  8
CORSA_PLATE_FIX-EDGE_CUTS_GBR
 10
190.0781
 20
-112.2584
 30
0.00
  0
SEQEND
  0
POLYLINE
  8
CORSA_PLATE_FIX-EDGE_CUTS_GBR
 66
1
 10
0.00
 20
0.00
 30
0.00
 40
0.20
 41
0.20
  0
VERTEX
  8
CORSA_PLATE_FIX-EDGE_CUTS_GBR
 10
189.0781
 20
-125.3584
 30
0.00
  0
VERTEX
  8
CORSA_PLATE_FIX-EDGE_CUTS_GBR
 10
189.0781
 20
-113.2584
 30
0.00
  0
SEQEND
  0
POLYLINE
  8
CORSA_PLATE_FIX-EDGE_CUTS_GBR
 66
1
 10
0.00
 20
0.00
 30
0.00
 40
0.20
 41
0.20
  0
VERTEX
  8
CORSA_PLATE_FIX-EDGE_CUTS_GBR
 10
190.0781
 20
-126.3584
 30
0.00
  0
VERTEX
  8
CORSA_PLATE_FIX-EDGE_CUTS_GBR
 10
189.0781
 20
-125.3584
 30
0.00
  0
SEQEND
  0
POLYLINE
  8
CORSA_PLATE_FIX-EDGE_CUTS_GBR
 66
1
 10
0.00
 20
0.00
 30
0.00
 40
0.20
 41
0.20
  0
VERTEX
  8
CORSA_PLATE_FIX-EDGE_CUTS_GBR
 10
202.7781
 20
-126.3584
 30
0.00
  0
VERTEX
  8
CORSA_PLATE_FIX-EDGE_CUTS_GBR
 10
190.0781
 20
-126.3584
 30
0.00
  0
SEQEND
  0
POLYLINE
  8
CORSA_PLATE_FIX-EDGE_CUTS_GBR
 66
1
 10
0.00
 20
0.00
 30
0.00
 40
0.20
 41
0.20
  0
VERTEX
  8
CORSA_PLATE_FIX-EDGE_CUTS_GBR
 10
203.7781
 20
-125.3584
 30
0.00
  0
VERTEX
  8
CORSA_PLATE_FIX-EDGE_CUTS_GBR
 10
202.7781
 20
-126.3584
 30
0.00
  0
SEQEND
  0
POLYLINE
  8
CORSA_PLATE_FIX-EDGE_CUTS_GBR
 66
1
 10
0.00
 20
0.00
 30
0.00
 40
0.20
 41
0.20
  0
VERTEX
  8
CORSA_PLATE_FIX-EDGE_CUTS_GBR
 10
203.7781
 20
-113.2584
 30
0.00
  0
VERTEX
  8
CORSA_PLATE_FIX-EDGE_CUTS_GBR
 10
203.7781
 20
-125.3584
 30
0.00
  0
SEQEND
  0
POLYLINE
  8
CORSA_PLATE_FIX-EDGE_CUTS_GBR
 66
1
 10
0.00
 20
0.00
 30
0.00
 40
0.20
 41
0.20
  0
VERTEX
  8
CORSA_PLATE_FIX-EDGE_CUTS_GBR
 10
202.7781
 20
-112.2584
 30
0.00
  0
VERTEX
  8
CORSA_PLATE_FIX-EDGE_CUTS_GBR
 10
203.7781
 20
-113.2584
 30
0.00
  0
SEQEND
  0
POLYLINE
  8
CORSA_PLATE_FIX-EDGE_CUTS_GBR
 66
1
 10
0.00
 20
0.00
 30
0.00
 40
0.20
 41
0.20
  0
VERTEX
  8
CORSA_PLATE_FIX-EDGE_CUTS_GBR
 10
190.0781
 20
-112.2584
 30
0.00
  0
VERTEX
  8
CORSA_PLATE_FIX-EDGE_CUTS_GBR
 10
202.7781
 20
-112.2584
 30
0.00
  0
SEQEND
  0
POLYLINE
  8
CORSA_PLATE_FIX-EDGE_CUTS_GBR
 66
1
 10
0.00
 20
0.00
 30
0.00
 40
0.20
 41
0.20
  0
VERTEX
  8
CORSA_PLATE_FIX-EDGE_CUTS_GBR
 10
170.0281
 20
-113.2584
 30
0.00
  0
VERTEX
  8
CORSA_PLATE_FIX-EDGE_CUTS_GBR
 10
171.0281
 20
-112.2584
 30
0.00
  0
SEQEND
  0
POLYLINE
  8
CORSA_PLATE_FIX-EDGE_CUTS_GBR
 66
1
 10
0.00
 20
0.00
 30
0.00
 40
0.20
 41
0.20
  0
VERTEX
  8
CORSA_PLATE_FIX-EDGE_CUTS_GBR
 10
170.0281
 20
-125.3584
 30
0.00
  0
VERTEX
  8
CORSA_PLATE_FIX-EDGE_CUTS_GBR
 10
170.0281
 20
-113.2584
 30
0.00
  0
SEQEND
  0
POLYLINE
  8
CORSA_PLATE_FIX-EDGE_CUTS_GBR
 66
1
 10
0.00
 20
0.00
 30
0.00
 40
0.20
 41
0.20
  0
VERTEX
  8
CORSA_PLATE_FIX-EDGE_CUTS_GBR
 10
171.0281
 20
-126.3584
 30
0.00
  0
VERTEX
  8
CORSA_PLATE_FIX-EDGE_CUTS_GBR
 10
170.0281
 20
-125.3584
 30
0.00
  0
SEQEND
  0
POLYLINE
  8
CORSA_PLATE_FIX-EDGE_CUTS_GBR
 66
1
 10
0.00
 20
0.00
 30
0.00
 40
0.20
 41
0.20
  0
VERTEX
  8
CORSA_PLATE_FIX-EDGE_CUTS_GBR
 10
183.7281
 20
-126.3584
 30
0.00
  0
VERTEX
  8
CORSA_PLATE_FIX-EDGE_CUTS_GBR
 10
171.0281
 20
-126.3584
 30
0.00
  0
SEQEND
  0
POLYLINE
  8
CORSA_PLATE_FIX-EDGE_CUTS_GBR
 66
1
 10
0.00
 20
0.00
 30
0.00
 40
0.20
 41
0.20
  0
VERTEX
  8
CORSA_PLATE_FIX-EDGE_CUTS_GBR
 10
184.7281
 20
-125.3584
 30
0.00
  0
VERTEX
  8
CORSA_PLATE_FIX-EDGE_CUTS_GBR
 10
183.7281
 20
-126.3584
 30
0.00
  0
SEQEND
  0
POLYLINE
  8
CORSA_PLATE_FIX-EDGE_CUTS_GBR
 66
1
 10
0.00
 20
0.00
 30
0.00
 40
0.20
 41
0.20
  0
VERTEX
  8
CORSA_PLATE_FIX-EDGE_CUTS_GBR
 10
184.7281
 20
-113.2584
 30
0.00
  0
VERTEX
  8
CORSA_PLATE_FIX-EDGE_CUTS_GBR
 10
184.7281
 20
-125.3584
 30
0.00
  0
SEQEND
  0
POLYLINE
  8
CORSA_PLATE_FIX-EDGE_CUTS_GBR
 66
1
 10
0.00
 20
0.00
 30
0.00
 40
0.20
 41
0.20
  0
VERTEX
  8
CORSA_PLATE_FIX-EDGE_CUTS_GBR
 10
183.7281
 20
-112.2584
 30
0.00
  0
VERTEX
  8
CORSA_PLATE_FIX-EDGE_CUTS_GBR
 10
184.7281
 20
-113.2584
 30
0.00
  0
SEQEND
  0
POLYLINE
  8
CORSA_PLATE_FIX-EDGE_CUTS_GBR
 66
1
 10
0.00
 20
0.00
 30
0.00
 40
0.20
 41
0.20
  0
VERTEX
  8
CORSA_PLATE_FIX-EDGE_CUTS_GBR
 10
171.0281
 20
-112.2584
 30
0.00
  0
VERTEX
  8
CORSA_PLATE_FIX-EDGE_CUTS_GBR
 10
183.7281
 20
-112.2584
 30
0.00
  0
SEQEND
  0
POLYLINE
  8
CORSA_PLATE_FIX-EDGE_CUTS_GBR
 66
1
 10
0.00
 20
0.00
 30
0.00
 40
0.20
 41
0.20
  0
VERTEX
  8
CORSA_PLATE_FIX-EDGE_CUTS_GBR
 10
150.9781
 20
-113.2584
 30
0.00
  0
VERTEX
  8
CORSA_PLATE_FIX-EDGE_CUTS_GBR
 10
151.9781
 20
-112.2584
 30
0.00
  0
SEQEND
  0
POLYLINE
  8
CORSA_PLATE_FIX-EDGE_CUTS_GBR
 66
1
 10
0.00
 20
0.00
 30
0.00
 40
0.20
 41
0.20
  0
VERTEX
  8
CORSA_PLATE_FIX-EDGE_CUTS_GBR
 10
150.9781
 20
-125.3584
 30
0.00
  0
VERTEX
  8
CORSA_PLATE_FIX-EDGE_CUTS_GBR
 10
150.9781
 20
-113.2584
 30
0.00
  0
SEQEND
  0
POLYLINE
  8
CORSA_PLATE_FIX-EDGE_CUTS_GBR
 66
1
 10
0.00
 20
0.00
 30
0.00
 40
0.20
 41
0.20
  0
VERTEX
  8
CORSA_PLATE_FIX-EDGE_CUTS_GBR
 10
151.9781
 20
-126.3584
 30
0.00
  0
VERTEX
  8
CORSA_PLATE_FIX-EDGE_CUTS_GBR
 10
150.9781
 20
-125.3584
 30
0.00
  0
SEQEND
  0
POLYLINE
  8
CORSA_PLATE_FIX-EDGE_CUTS_GBR
 66
1
 10
0.00
 20
0.00
 30
0.00
 40
0.20
 41
0.20
  0
VERTEX
  8
CORSA_PLATE_FIX-EDGE_CUTS_GBR
 10
164.6781
 20
-126.3584
 30
0.00
  0
VERTEX
  8
CORSA_PLATE_FIX-EDGE_CUTS_GBR
 10
151.9781
 20
-126.3584
 30
0.00
  0
SEQEND
  0
POLYLINE
  8
CORSA_PLATE_FIX-EDGE_CUTS_GBR
 66
1
 10
0.00
 20
0.00
 30
0.00
 40
0.20
 41
0.20
  0
VERTEX
  8
CORSA_PLATE_FIX-EDGE_CUTS_GBR
 10
165.6781
 20
-125.3584
 30
0.00
  0
VERTEX
  8
CORSA_PLATE_FIX-EDGE_CUTS_GBR
 10
164.6781
 20
-126.3584
 30
0.00
  0
SEQEND
  0
POLYLINE
  8
CORSA_PLATE_FIX-EDGE_CUTS_GBR
 66
1
 10
0.00
 20
0.00
 30
0.00
 40
0.20
 41
0.20
  0
VERTEX
  8
CORSA_PLATE_FIX-EDGE_CUTS_GBR
 10
165.6781
 20
-113.2584
 30
0.00
  0
VERTEX
  8
CORSA_PLATE_FIX-EDGE_CUTS_GBR
 10
165.6781
 20
-125.3584
 30
0.00
  0
SEQEND
  0
POLYLINE
  8
CORSA_PLATE_FIX-EDGE_CUTS_GBR
 66
1
 10
0.00
 20
0.00
 30
0.00
 40
0.20
 41
0.20
  0
VERTEX
  8
CORSA_PLATE_FIX-EDGE_CUTS_GBR
 10
164.6781
 20
-112.2584
 30
0.00
  0
VERTEX
  8
CORSA_PLATE_FIX-EDGE_CUTS_GBR
 10
165.6781
 20
-113.2584
 30
0.00
  0
SEQEND
  0
POLYLINE
  8
CORSA_PLATE_FIX-EDGE_CUTS_GBR
 66
1
 10
0.00
 20
0.00
 30
0.00
 40
0.20
 41
0.20
  0
VERTEX
  8
CORSA_PLATE_FIX-EDGE_CUTS_GBR
 10
151.9781
 20
-112.2584
 30
0.00
  0
VERTEX
  8
CORSA_PLATE_FIX-EDGE_CUTS_GBR
 10
164.6781
 20
-112.2584
 30
0.00
  0
SEQEND
  0
POLYLINE
  8
CORSA_PLATE_FIX-EDGE_CUTS_GBR
 66
1
 10
0.00
 20
0.00
 30
0.00
 40
0.20
 41
0.20
  0
VERTEX
  8
CORSA_PLATE_FIX-EDGE_CUTS_GBR
 10
131.9281
 20
-113.2584
 30
0.00
  0
VERTEX
  8
CORSA_PLATE_FIX-EDGE_CUTS_GBR
 10
132.9281
 20
-112.2584
 30
0.00
  0
SEQEND
  0
POLYLINE
  8
CORSA_PLATE_FIX-EDGE_CUTS_GBR
 66
1
 10
0.00
 20
0.00
 30
0.00
 40
0.20
 41
0.20
  0
VERTEX
  8
CORSA_PLATE_FIX-EDGE_CUTS_GBR
 10
131.9281
 20
-125.3584
 30
0.00
  0
VERTEX
  8
CORSA_PLATE_FIX-EDGE_CUTS_GBR
 10
131.9281
 20
-113.2584
 30
0.00
  0
SEQEND
  0
POLYLINE
  8
CORSA_PLATE_FIX-EDGE_CUTS_GBR
 66
1
 10
0.00
 20
0.00
 30
0.00
 40
0.20
 41
0.20
  0
VERTEX
  8
CORSA_PLATE_FIX-EDGE_CUTS_GBR
 10
132.9281
 20
-126.3584
 30
0.00
  0
VERTEX
  8
CORSA_PLATE_FIX-EDGE_CUTS_GBR
 10
131.9281
 20
-125.3584
 30
0.00
  0
SEQEND
  0
POLYLINE
  8
CORSA_PLATE_FIX-EDGE_CUTS_GBR
 66
1
 10
0.00
 20
0.00
 30
0.00
 40
0.20
 41
0.20
  0
VERTEX
  8
CORSA_PLATE_FIX-EDGE_CUTS_GBR
 10
145.6281
 20
-126.3584
 30
0.00
  0
VERTEX
  8
CORSA_PLATE_FIX-EDGE_CUTS_GBR
 10
132.9281
 20
-126.3584
 30
0.00
  0
SEQEND
  0
POLYLINE
  8
CORSA_PLATE_FIX-EDGE_CUTS_GBR
 66
1
 10
0.00
 20
0.00
 30
0.00
 40
0.20
 41
0.20
  0
VERTEX
  8
CORSA_PLATE_FIX-EDGE_CUTS_GBR
 10
146.6281
 20
-125.3584
 30
0.00
  0
VERTEX
  8
CORSA_PLATE_FIX-EDGE_CUTS_GBR
 10
145.6281
 20
-126.3584
 30
0.00
  0
SEQEND
  0
POLYLINE
  8
CORSA_PLATE_FIX-EDGE_CUTS_GBR
 66
1
 10
0.00
 20
0.00
 30
0.00
 40
0.20
 41
0.20
  0
VERTEX
  8
CORSA_PLATE_FIX-EDGE_CUTS_GBR
 10
146.6281
 20
-113.2584
 30
0.00
  0
VERTEX
  8
CORSA_PLATE_FIX-EDGE_CUTS_GBR
 10
146.6281
 20
-125.3584
 30
0.00
  0
SEQEND
  0
POLYLINE
  8
CORSA_PLATE_FIX-EDGE_CUTS_GBR
 66
1
 10
0.00
 20
0.00
 30
0.00
 40
0.20
 41
0.20
  0
VERTEX
  8
CORSA_PLATE_FIX-EDGE_CUTS_GBR
 10
145.6281
 20
-112.2584
 30
0.00
  0
VERTEX
  8
CORSA_PLATE_FIX-EDGE_CUTS_GBR
 10
146.6281
 20
-113.2584
 30
0.00
  0
SEQEND
  0
POLYLINE
  8
CORSA_PLATE_FIX-EDGE_CUTS_GBR
 66
1
 10
0.00
 20
0.00
 30
0.00
 40
0.20
 41
0.20
  0
VERTEX
  8
CORSA_PLATE_FIX-EDGE_CUTS_GBR
 10
132.9281
 20
-112.2584
 30
0.00
  0
VERTEX
  8
CORSA_PLATE_FIX-EDGE_CUTS_GBR
 10
145.6281
 20
-112.2584
 30
0.00
  0
SEQEND
  0
POLYLINE
  8
CORSA_PLATE_FIX-EDGE_CUTS_GBR
 66
1
 10
0.00
 20
0.00
 30
0.00
 40
0.20
 41
0.20
  0
VERTEX
  8
CORSA_PLATE_FIX-EDGE_CUTS_GBR
 10
112.8781
 20
-113.2584
 30
0.00
  0
VERTEX
  8
CORSA_PLATE_FIX-EDGE_CUTS_GBR
 10
113.8781
 20
-112.2584
 30
0.00
  0
SEQEND
  0
POLYLINE
  8
CORSA_PLATE_FIX-EDGE_CUTS_GBR
 66
1
 10
0.00
 20
0.00
 30
0.00
 40
0.20
 41
0.20
  0
VERTEX
  8
CORSA_PLATE_FIX-EDGE_CUTS_GBR
 10
112.8781
 20
-125.3584
 30
0.00
  0
VERTEX
  8
CORSA_PLATE_FIX-EDGE_CUTS_GBR
 10
112.8781
 20
-113.2584
 30
0.00
  0
SEQEND
  0
POLYLINE
  8
CORSA_PLATE_FIX-EDGE_CUTS_GBR
 66
1
 10
0.00
 20
0.00
 30
0.00
 40
0.20
 41
0.20
  0
VERTEX
  8
CORSA_PLATE_FIX-EDGE_CUTS_GBR
 10
113.8781
 20
-126.3584
 30
0.00
  0
VERTEX
  8
CORSA_PLATE_FIX-EDGE_CUTS_GBR
 10
112.8781
 20
-125.3584
 30
0.00
  0
SEQEND
  0
POLYLINE
  8
CORSA_PLATE_FIX-EDGE_CUTS_GBR
 66
1
 10
0.00
 20
0.00
 30
0.00
 40
0.20
 41
0.20
  0
VERTEX
  8
CORSA_PLATE_FIX-EDGE_CUTS_GBR
 10
126.5781
 20
-126.3584
 30
0.00
  0
VERTEX
  8
CORSA_PLATE_FIX-EDGE_CUTS_GBR
 10
113.8781
 20
-126.3584
 30
0.00
  0
SEQEND
  0
POLYLINE
  8
CORSA_PLATE_FIX-EDGE_CUTS_GBR
 66
1
 10
0.00
 20
0.00
 30
0.00
 40
0.20
 41
0.20
  0
VERTEX
  8
CORSA_PLATE_FIX-EDGE_CUTS_GBR
 10
127.5781
 20
-125.3584
 30
0.00
  0
VERTEX
  8
CORSA_PLATE_FIX-EDGE_CUTS_GBR
 10
126.5781
 20
-126.3584
 30
0.00
  0
SEQEND
  0
POLYLINE
  8
CORSA_PLATE_FIX-EDGE_CUTS_GBR
 66
1
 10
0.00
 20
0.00
 30
0.00
 40
0.20
 41
0.20
  0
VERTEX
  8
CORSA_PLATE_FIX-EDGE_CUTS_GBR
 10
127.5781
 20
-113.2584
 30
0.00
  0
VERTEX
  8
CORSA_PLATE_FIX-EDGE_CUTS_GBR
 10
127.5781
 20
-125.3584
 30
0.00
  0
SEQEND
  0
POLYLINE
  8
CORSA_PLATE_FIX-EDGE_CUTS_GBR
 66
1
 10
0.00
 20
0.00
 30
0.00
 40
0.20
 41
0.20
  0
VERTEX
  8
CORSA_PLATE_FIX-EDGE_CUTS_GBR
 10
126.5781
 20
-112.2584
 30
0.00
  0
VERTEX
  8
CORSA_PLATE_FIX-EDGE_CUTS_GBR
 10
127.5781
 20
-113.2584
 30
0.00
  0
SEQEND
  0
POLYLINE
  8
CORSA_PLATE_FIX-EDGE_CUTS_GBR
 66
1
 10
0.00
 20
0.00
 30
0.00
 40
0.20
 41
0.20
  0
VERTEX
  8
CORSA_PLATE_FIX-EDGE_CUTS_GBR
 10
113.8781
 20
-112.2584
 30
0.00
  0
VERTEX
  8
CORSA_PLATE_FIX-EDGE_CUTS_GBR
 10
126.5781
 20
-112.2584
 30
0.00
  0
SEQEND
  0
POLYLINE
  8
CORSA_PLATE_FIX-EDGE_CUTS_GBR
 66
1
 10
0.00
 20
0.00
 30
0.00
 40
0.20
 41
0.20
  0
VERTEX
  8
CORSA_PLATE_FIX-EDGE_CUTS_GBR
 10
93.8281
 20
-113.2584
 30
0.00
  0
VERTEX
  8
CORSA_PLATE_FIX-EDGE_CUTS_GBR
 10
94.8281
 20
-112.2584
 30
0.00
  0
SEQEND
  0
POLYLINE
  8
CORSA_PLATE_FIX-EDGE_CUTS_GBR
 66
1
 10
0.00
 20
0.00
 30
0.00
 40
0.20
 41
0.20
  0
VERTEX
  8
CORSA_PLATE_FIX-EDGE_CUTS_GBR
 10
93.8281
 20
-125.3584
 30
0.00
  0
VERTEX
  8
CORSA_PLATE_FIX-EDGE_CUTS_GBR
 10
93.8281
 20
-113.2584
 30
0.00
  0
SEQEND
  0
POLYLINE
  8
CORSA_PLATE_FIX-EDGE_CUTS_GBR
 66
1
 10
0.00
 20
0.00
 30
0.00
 40
0.20
 41
0.20
  0
VERTEX
  8
CORSA_PLATE_FIX-EDGE_CUTS_GBR
 10
94.8281
 20
-126.3584
 30
0.00
  0
VERTEX
  8
CORSA_PLATE_FIX-EDGE_CUTS_GBR
 10
93.8281
 20
-125.3584
 30
0.00
  0
SEQEND
  0
POLYLINE
  8
CORSA_PLATE_FIX-EDGE_CUTS_GBR
 66
1
 10
0.00
 20
0.00
 30
0.00
 40
0.20
 41
0.20
  0
VERTEX
  8
CORSA_PLATE_FIX-EDGE_CUTS_GBR
 10
107.5281
 20
-126.3584
 30
0.00
  0
VERTEX
  8
CORSA_PLATE_FIX-EDGE_CUTS_GBR
 10
94.8281
 20
-126.3584
 30
0.00
  0
SEQEND
  0
POLYLINE
  8
CORSA_PLATE_FIX-EDGE_CUTS_GBR
 66
1
 10
0.00
 20
0.00
 30
0.00
 40
0.20
 41
0.20
  0
VERTEX
  8
CORSA_PLATE_FIX-EDGE_CUTS_GBR
 10
108.5281
 20
-125.3584
 30
0.00
  0
VERTEX
  8
CORSA_PLATE_FIX-EDGE_CUTS_GBR
 10
107.5281
 20
-126.3584
 30
0.00
  0
SEQEND
  0
POLYLINE
  8
CORSA_PLATE_FIX-EDGE_CUTS_GBR
 66
1
 10
0.00
 20
0.00
 30
0.00
 40
0.20
 41
0.20
  0
VERTEX
  8
CORSA_PLATE_FIX-EDGE_CUTS_GBR
 10
108.5281
 20
-113.2584
 30
0.00
  0
VERTEX
  8
CORSA_PLATE_FIX-EDGE_CUTS_GBR
 10
108.5281
 20
-125.3584
 30
0.00
  0
SEQEND
  0
POLYLINE
  8
CORSA_PLATE_FIX-EDGE_CUTS_GBR
 66
1
 10
0.00
 20
0.00
 30
0.00
 40
0.20
 41
0.20
  0
VERTEX
  8
CORSA_PLATE_FIX-EDGE_CUTS_GBR
 10
107.5281
 20
-112.2584
 30
0.00
  0
VERTEX
  8
CORSA_PLATE_FIX-EDGE_CUTS_GBR
 10
108.5281
 20
-113.2584
 30
0.00
  0
SEQEND
  0
POLYLINE
  8
CORSA_PLATE_FIX-EDGE_CUTS_GBR
 66
1
 10
0.00
 20
0.00
 30
0.00
 40
0.20
 41
0.20
  0
VERTEX
  8
CORSA_PLATE_FIX-EDGE_CUTS_GBR
 10
94.8281
 20
-112.2584
 30
0.00
  0
VERTEX
  8
CORSA_PLATE_FIX-EDGE_CUTS_GBR
 10
107.5281
 20
-112.2584
 30
0.00
  0
SEQEND
  0
POLYLINE
  8
CORSA_PLATE_FIX-EDGE_CUTS_GBR
 66
1
 10
0.00
 20
0.00
 30
0.00
 40
0.20
 41
0.20
  0
VERTEX
  8
CORSA_PLATE_FIX-EDGE_CUTS_GBR
 10
67.63435
 20
-113.2584
 30
0.00
  0
VERTEX
  8
CORSA_PLATE_FIX-EDGE_CUTS_GBR
 10
68.63435
 20
-112.2584
 30
0.00
  0
SEQEND
  0
POLYLINE
  8
CORSA_PLATE_FIX-EDGE_CUTS_GBR
 66
1
 10
0.00
 20
0.00
 30
0.00
 40
0.20
 41
0.20
  0
VERTEX
  8
CORSA_PLATE_FIX-EDGE_CUTS_GBR
 10
67.63435
 20
-125.3584
 30
0.00
  0
VERTEX
  8
CORSA_PLATE_FIX-EDGE_CUTS_GBR
 10
67.63435
 20
-113.2584
 30
0.00
  0
SEQEND
  0
POLYLINE
  8
CORSA_PLATE_FIX-EDGE_CUTS_GBR
 66
1
 10
0.00
 20
0.00
 30
0.00
 40
0.20
 41
0.20
  0
VERTEX
  8
CORSA_PLATE_FIX-EDGE_CUTS_GBR
 10
68.63435
 20
-126.3584
 30
0.00
  0
VERTEX
  8
CORSA_PLATE_FIX-EDGE_CUTS_GBR
 10
67.63435
 20
-125.3584
 30
0.00
  0
SEQEND
  0
POLYLINE
  8
CORSA_PLATE_FIX-EDGE_CUTS_GBR
 66
1
 10
0.00
 20
0.00
 30
0.00
 40
0.20
 41
0.20
  0
VERTEX
  8
CORSA_PLATE_FIX-EDGE_CUTS_GBR
 10
81.33435
 20
-126.3584
 30
0.00
  0
VERTEX
  8
CORSA_PLATE_FIX-EDGE_CUTS_GBR
 10
68.63435
 20
-126.3584
 30
0.00
  0
SEQEND
  0
POLYLINE
  8
CORSA_PLATE_FIX-EDGE_CUTS_GBR
 66
1
 10
0.00
 20
0.00
 30
0.00
 40
0.20
 41
0.20
  0
VERTEX
  8
CORSA_PLATE_FIX-EDGE_CUTS_GBR
 10
82.33435
 20
-125.3584
 30
0.00
  0
VERTEX
  8
CORSA_PLATE_FIX-EDGE_CUTS_GBR
 10
81.33435
 20
-126.3584
 30
0.00
  0
SEQEND
  0
POLYLINE
  8
CORSA_PLATE_FIX-EDGE_CUTS_GBR
 66
1
 10
0.00
 20
0.00
 30
0.00
 40
0.20
 41
0.20
  0
VERTEX
  8
CORSA_PLATE_FIX-EDGE_CUTS_GBR
 10
82.33435
 20
-113.2584
 30
0.00
  0
VERTEX
  8
CORSA_PLATE_FIX-EDGE_CUTS_GBR
 10
82.33435
 20
-125.3584
 30
0.00
  0
SEQEND
  0
POLYLINE
  8
CORSA_PLATE_FIX-EDGE_CUTS_GBR
 66
1
 10
0.00
 20
0.00
 30
0.00
 40
0.20
 41
0.20
  0
VERTEX
  8
CORSA_PLATE_FIX-EDGE_CUTS_GBR
 10
81.33435
 20
-112.2584
 30
0.00
  0
VERTEX
  8
CORSA_PLATE_FIX-EDGE_CUTS_GBR
 10
82.33435
 20
-113.2584
 30
0.00
  0
SEQEND
  0
POLYLINE
  8
CORSA_PLATE_FIX-EDGE_CUTS_GBR
 66
1
 10
0.00
 20
0.00
 30
0.00
 40
0.20
 41
0.20
  0
VERTEX
  8
CORSA_PLATE_FIX-EDGE_CUTS_GBR
 10
68.63435
 20
-112.2584
 30
0.00
  0
VERTEX
  8
CORSA_PLATE_FIX-EDGE_CUTS_GBR
 10
81.33435
 20
-112.2584
 30
0.00
  0
SEQEND
  0
POLYLINE
  8
CORSA_PLATE_FIX-EDGE_CUTS_GBR
 66
1
 10
0.00
 20
0.00
 30
0.00
 40
0.20
 41
0.20
  0
VERTEX
  8
CORSA_PLATE_FIX-EDGE_CUTS_GBR
 10
222.4156
 20
-94.2084
 30
0.00
  0
VERTEX
  8
CORSA_PLATE_FIX-EDGE_CUTS_GBR
 10
223.4156
 20
-93.2084
 30
0.00
  0
SEQEND
  0
POLYLINE
  8
CORSA_PLATE_FIX-EDGE_CUTS_GBR
 66
1
 10
0.00
 20
0.00
 30
0.00
 40
0.20
 41
0.20
  0
VERTEX
  8
CORSA_PLATE_FIX-EDGE_CUTS_GBR
 10
222.4156
 20
-106.3084
 30
0.00
  0
VERTEX
  8
CORSA_PLATE_FIX-EDGE_CUTS_GBR
 10
222.4156
 20
-94.2084
 30
0.00
  0
SEQEND
  0
POLYLINE
  8
CORSA_PLATE_FIX-EDGE_CUTS_GBR
 66
1
 10
0.00
 20
0.00
 30
0.00
 40
0.20
 41
0.20
  0
VERTEX
  8
CORSA_PLATE_FIX-EDGE_CUTS_GBR
 10
223.4156
 20
-107.3084
 30
0.00
  0
VERTEX
  8
CORSA_PLATE_FIX-EDGE_CUTS_GBR
 10
222.4156
 20
-106.3084
 30
0.00
  0
SEQEND
  0
POLYLINE
  8
CORSA_PLATE_FIX-EDGE_CUTS_GBR
 66
1
 10
0.00
 20
0.00
 30
0.00
 40
0.20
 41
0.20
  0
VERTEX
  8
CORSA_PLATE_FIX-EDGE_CUTS_GBR
 10
236.1156
 20
-107.3084
 30
0.00
  0
VERTEX
  8
CORSA_PLATE_FIX-EDGE_CUTS_GBR
 10
223.4156
 20
-107.3084
 30
0.00
  0
SEQEND
  0
POLYLINE
  8
CORSA_PLATE_FIX-EDGE_CUTS_GBR
 66
1
 10
0.00
 20
0.00
 30
0.00
 40
0.20
 41
0.20
  0
VERTEX
  8
CORSA_PLATE_FIX-EDGE_CUTS_GBR
 10
237.1156
 20
-106.3084
 30
0.00
  0
VERTEX
  8
CORSA_PLATE_FIX-EDGE_CUTS_GBR
 10
236.1156
 20
-107.3084
 30
0.00
  0
SEQEND
  0
POLYLINE
  8
CORSA_PLATE_FIX-EDGE_CUTS_GBR
 66
1
 10
0.00
 20
0.00
 30
0.00
 40
0.20
 41
0.20
  0
VERTEX
  8
CORSA_PLATE_FIX-EDGE_CUTS_GBR
 10
237.1156
 20
-94.2084
 30
0.00
  0
VERTEX
  8
CORSA_PLATE_FIX-EDGE_CUTS_GBR
 10
237.1156
 20
-106.3084
 30
0.00
  0
SEQEND
  0
POLYLINE
  8
CORSA_PLATE_FIX-EDGE_CUTS_GBR
 66
1
 10
0.00
 20
0.00
 30
0.00
 40
0.20
 41
0.20
  0
VERTEX
  8
CORSA_PLATE_FIX-EDGE_CUTS_GBR
 10
236.1156
 20
-93.2084
 30
0.00
  0
VERTEX
  8
CORSA_PLATE_FIX-EDGE_CUTS_GBR
 10
237.1156
 20
-94.2084
 30
0.00
  0
SEQEND
  0
POLYLINE
  8
CORSA_PLATE_FIX-EDGE_CUTS_GBR
 66
1
 10
0.00
 20
0.00
 30
0.00
 40
0.20
 41
0.20
  0
VERTEX
  8
CORSA_PLATE_FIX-EDGE_CUTS_GBR
 10
223.4156
 20
-93.2084
 30
0.00
  0
VERTEX
  8
CORSA_PLATE_FIX-EDGE_CUTS_GBR
 10
236.1156
 20
-93.2084
 30
0.00
  0
SEQEND
  0
POLYLINE
  8
CORSA_PLATE_FIX-EDGE_CUTS_GBR
 66
1
 10
0.00
 20
0.00
 30
0.00
 40
0.20
 41
0.20
  0
VERTEX
  8
CORSA_PLATE_FIX-EDGE_CUTS_GBR
 10
203.3656
 20
-94.2084
 30
0.00
  0
VERTEX
  8
CORSA_PLATE_FIX-EDGE_CUTS_GBR
 10
204.3656
 20
-93.2084
 30
0.00
  0
SEQEND
  0
POLYLINE
  8
CORSA_PLATE_FIX-EDGE_CUTS_GBR
 66
1
 10
0.00
 20
0.00
 30
0.00
 40
0.20
 41
0.20
  0
VERTEX
  8
CORSA_PLATE_FIX-EDGE_CUTS_GBR
 10
203.3656
 20
-106.3084
 30
0.00
  0
VERTEX
  8
CORSA_PLATE_FIX-EDGE_CUTS_GBR
 10
203.3656
 20
-94.2084
 30
0.00
  0
SEQEND
  0
POLYLINE
  8
CORSA_PLATE_FIX-EDGE_CUTS_GBR
 66
1
 10
0.00
 20
0.00
 30
0.00
 40
0.20
 41
0.20
  0
VERTEX
  8
CORSA_PLATE_FIX-EDGE_CUTS_GBR
 10
204.3656
 20
-107.3084
 30
0.00
  0
VERTEX
  8
CORSA_PLATE_FIX-EDGE_CUTS_GBR
 10
203.3656
 20
-106.3084
 30
0.00
  0
SEQEND
  0
POLYLINE
  8
CORSA_PLATE_FIX-EDGE_CUTS_GBR
 66
1
 10
0.00
 20
0.00
 30
0.00
 40
0.20
 41
0.20
  0
VERTEX
  8
CORSA_PLATE_FIX-EDGE_CUTS_GBR
 10
217.0656
 20
-107.3084
 30
0.00
  0
VERTEX
  8
CORSA_PLATE_FIX-EDGE_CUTS_GBR
 10
204.3656
 20
-107.3084
 30
0.00
  0
SEQEND
  0
POLYLINE
  8
CORSA_PLATE_FIX-EDGE_CUTS_GBR
 66
1
 10
0.00
 20
0.00
 30
0.00
 40
0.20
 41
0.20
  0
VERTEX
  8
CORSA_PLATE_FIX-EDGE_CUTS_GBR
 10
218.0656
 20
-106.3084
 30
0.00
  0
VERTEX
  8
CORSA_PLATE_FIX-EDGE_CUTS_GBR
 10
217.0656
 20
-107.3084
 30
0.00
  0
SEQEND
  0
POLYLINE
  8
CORSA_PLATE_FIX-EDGE_CUTS_GBR
 66
1
 10
0.00
 20
0.00
 30
0.00
 40
0.20
 41
0.20
  0
VERTEX
  8
CORSA_PLATE_FIX-EDGE_CUTS_GBR
 10
218.0656
 20
-94.2084
 30
0.00
  0
VERTEX
  8
CORSA_PLATE_FIX-EDGE_CUTS_GBR
 10
218.0656
 20
-106.3084
 30
0.00
  0
SEQEND
  0
POLYLINE
  8
CORSA_PLATE_FIX-EDGE_CUTS_GBR
 66
1
 10
0.00
 20
0.00
 30
0.00
 40
0.20
 41
0.20
  0
VERTEX
  8
CORSA_PLATE_FIX-EDGE_CUTS_GBR
 10
217.0656
 20
-93.2084
 30
0.00
  0
VERTEX
  8
CORSA_PLATE_FIX-EDGE_CUTS_GBR
 10
218.0656
 20
-94.2084
 30
0.00
  0
SEQEND
  0
POLYLINE
  8
CORSA_PLATE_FIX-EDGE_CUTS_GBR
 66
1
 10
0.00
 20
0.00
 30
0.00
 40
0.20
 41
0.20
  0
VERTEX
  8
CORSA_PLATE_FIX-EDGE_CUTS_GBR
 10
204.3656
 20
-93.2084
 30
0.00
  0
VERTEX
  8
CORSA_PLATE_FIX-EDGE_CUTS_GBR
 10
217.0656
 20
-93.2084
 30
0.00
  0
SEQEND
  0
POLYLINE
  8
CORSA_PLATE_FIX-EDGE_CUTS_GBR
 66
1
 10
0.00
 20
0.00
 30
0.00
 40
0.20
 41
0.20
  0
VERTEX
  8
CORSA_PLATE_FIX-EDGE_CUTS_GBR
 10
184.3156
 20
-94.2084
 30
0.00
  0
VERTEX
  8
CORSA_PLATE_FIX-EDGE_CUTS_GBR
 10
185.3156
 20
-93.2084
 30
0.00
  0
SEQEND
  0
POLYLINE
  8
CORSA_PLATE_FIX-EDGE_CUTS_GBR
 66
1
 10
0.00
 20
0.00
 30
0.00
 40
0.20
 41
0.20
  0
VERTEX
  8
CORSA_PLATE_FIX-EDGE_CUTS_GBR
 10
184.3156
 20
-106.3084
 30
0.00
  0
VERTEX
  8
CORSA_PLATE_FIX-EDGE_CUTS_GBR
 10
184.3156
 20
-94.2084
 30
0.00
  0
SEQEND
  0
POLYLINE
  8
CORSA_PLATE_FIX-EDGE_CUTS_GBR
 66
1
 10
0.00
 20
0.00
 30
0.00
 40
0.20
 41
0.20
  0
VERTEX
  8
CORSA_PLATE_FIX-EDGE_CUTS_GBR
 10
185.3156
 20
-107.3084
 30
0.00
  0
VERTEX
  8
CORSA_PLATE_FIX-EDGE_CUTS_GBR
 10
184.3156
 20
-106.3084
 30
0.00
  0
SEQEND
  0
POLYLINE
  8
CORSA_PLATE_FIX-EDGE_CUTS_GBR
 66
1
 10
0.00
 20
0.00
 30
0.00
 40
0.20
 41
0.20
  0
VERTEX
  8
CORSA_PLATE_FIX-EDGE_CUTS_GBR
 10
198.0156
 20
-107.3084
 30
0.00
  0
VERTEX
  8
CORSA_PLATE_FIX-EDGE_CUTS_GBR
 10
185.3156
 20
-107.3084
 30
0.00
  0
SEQEND
  0
POLYLINE
  8
CORSA_PLATE_FIX-EDGE_CUTS_GBR
 66
1
 10
0.00
 20
0.00
 30
0.00
 40
0.20
 41
0.20
  0
VERTEX
  8
CORSA_PLATE_FIX-EDGE_CUTS_GBR
 10
199.0156
 20
-106.3084
 30
0.00
  0
VERTEX
  8
CORSA_PLATE_FIX-EDGE_CUTS_GBR
 10
198.0156
 20
-107.3084
 30
0.00
  0
SEQEND
  0
POLYLINE
  8
CORSA_PLATE_FIX-EDGE_CUTS_GBR
 66
1
 10
0.00
 20
0.00
 30
0.00
 40
0.20
 41
0.20
  0
VERTEX
  8
CORSA_PLATE_FIX-EDGE_CUTS_GBR
 10
199.0156
 20
-94.2084
 30
0.00
  0
VERTEX
  8
CORSA_PLATE_FIX-EDGE_CUTS_GBR
 10
199.0156
 20
-106.3084
 30
0.00
  0
SEQEND
  0
POLYLINE
  8
CORSA_PLATE_FIX-EDGE_CUTS_GBR
 66
1
 10
0.00
 20
0.00
 30
0.00
 40
0.20
 41
0.20
  0
VERTEX
  8
CORSA_PLATE_FIX-EDGE_CUTS_GBR
 10
198.0156
 20
-93.2084
 30
0.00
  0
VERTEX
  8
CORSA_PLATE_FIX-EDGE_CUTS_GBR
 10
199.0156
 20
-94.2084
 30
0.00
  0
SEQEND
  0
POLYLINE
  8
CORSA_PLATE_FIX-EDGE_CUTS_GBR
 66
1
 10
0.00
 20
0.00
 30
0.00
 40
0.20
 41
0.20
  0
VERTEX
  8
CORSA_PLATE_FIX-EDGE_CUTS_GBR
 10
185.3156
 20
-93.2084
 30
0.00
  0
VERTEX
  8
CORSA_PLATE_FIX-EDGE_CUTS_GBR
 10
198.0156
 20
-93.2084
 30
0.00
  0
SEQEND
  0
POLYLINE
  8
CORSA_PLATE_FIX-EDGE_CUTS_GBR
 66
1
 10
0.00
 20
0.00
 30
0.00
 40
0.20
 41
0.20
  0
VERTEX
  8
CORSA_PLATE_FIX-EDGE_CUTS_GBR
 10
165.2656
 20
-94.2084
 30
0.00
  0
VERTEX
  8
CORSA_PLATE_FIX-EDGE_CUTS_GBR
 10
166.2656
 20
-93.2084
 30
0.00
  0
SEQEND
  0
POLYLINE
  8
CORSA_PLATE_FIX-EDGE_CUTS_GBR
 66
1
 10
0.00
 20
0.00
 30
0.00
 40
0.20
 41
0.20
  0
VERTEX
  8
CORSA_PLATE_FIX-EDGE_CUTS_GBR
 10
165.2656
 20
-106.3084
 30
0.00
  0
VERTEX
  8
CORSA_PLATE_FIX-EDGE_CUTS_GBR
 10
165.2656
 20
-94.2084
 30
0.00
  0
SEQEND
  0
POLYLINE
  8
CORSA_PLATE_FIX-EDGE_CUTS_GBR
 66
1
 10
0.00
 20
0.00
 30
0.00
 40
0.20
 41
0.20
  0
VERTEX
  8
CORSA_PLATE_FIX-EDGE_CUTS_GBR
 10
166.2656
 20
-107.3084
 30
0.00
  0
VERTEX
  8
CORSA_PLATE_FIX-EDGE_CUTS_GBR
 10
165.2656
 20
-106.3084
 30
0.00
  0
SEQEND
  0
POLYLINE
  8
CORSA_PLATE_FIX-EDGE_CUTS_GBR
 66
1
 10
0.00
 20
0.00
 30
0.00
 40
0.20
 41
0.20
  0
VERTEX
  8
CORSA_PLATE_FIX-EDGE_CUTS_GBR
 10
178.9656
 20
-107.3084
 30
0.00
  0
VERTEX
  8
CORSA_PLATE_FIX-EDGE_CUTS_GBR
 10
166.2656
 20
-107.3084
 30
0.00
  0
SEQEND
  0
POLYLINE
  8
CORSA_PLATE_FIX-EDGE_CUTS_GBR
 66
1
 10
0.00
 20
0.00
 30
0.00
 40
0.20
 41
0.20
  0
VERTEX
  8
CORSA_PLATE_FIX-EDGE_CUTS_GBR
 10
179.9656
 20
-106.3084
 30
0.00
  0
VERTEX
  8
CORSA_PLATE_FIX-EDGE_CUTS_GBR
 10
178.9656
 20
-107.3084
 30
0.00
  0
SEQEND
  0
POLYLINE
  8
CORSA_PLATE_FIX-EDGE_CUTS_GBR
 66
1
 10
0.00
 20
0.00
 30
0.00
 40
0.20
 41
0.20
  0
VERTEX
  8
CORSA_PLATE_FIX-EDGE_CUTS_GBR
 10
179.9656
 20
-94.2084
 30
0.00
  0
VERTEX
  8
CORSA_PLATE_FIX-EDGE_CUTS_GBR
 10
179.9656
 20
-106.3084
 30
0.00
  0
SEQEND
  0
POLYLINE
  8
CORSA_PLATE_FIX-EDGE_CUTS_GBR
 66
1
 10
0.00
 20
0.00
 30
0.00
 40
0.20
 41
0.20
  0
VERTEX
  8
CORSA_PLATE_FIX-EDGE_CUTS_GBR
 10
178.9656
 20
-93.2084
 30
0.00
  0
VERTEX
  8
CORSA_PLATE_FIX-EDGE_CUTS_GBR
 10
179.9656
 20
-94.2084
 30
0.00
  0
SEQEND
  0
POLYLINE
  8
CORSA_PLATE_FIX-EDGE_CUTS_GBR
 66
1
 10
0.00
 20
0.00
 30
0.00
 40
0.20
 41
0.20
  0
VERTEX
  8
CORSA_PLATE_FIX-EDGE_CUTS_GBR
 10
166.2656
 20
-93.2084
 30
0.00
  0
VERTEX
  8
CORSA_PLATE_FIX-EDGE_CUTS_GBR
 10
178.9656
 20
-93.2084
 30
0.00
  0
SEQEND
  0
POLYLINE
  8
CORSA_PLATE_FIX-EDGE_CUTS_GBR
 66
1
 10
0.00
 20
0.00
 30
0.00
 40
0.20
 41
0.20
  0
VERTEX
  8
CORSA_PLATE_FIX-EDGE_CUTS_GBR
 10
146.2156
 20
-94.2084
 30
0.00
  0
VERTEX
  8
CORSA_PLATE_FIX-EDGE_CUTS_GBR
 10
147.2156
 20
-93.2084
 30
0.00
  0
SEQEND
  0
POLYLINE
  8
CORSA_PLATE_FIX-EDGE_CUTS_GBR
 66
1
 10
0.00
 20
0.00
 30
0.00
 40
0.20
 41
0.20
  0
VERTEX
  8
CORSA_PLATE_FIX-EDGE_CUTS_GBR
 10
146.2156
 20
-106.3084
 30
0.00
  0
VERTEX
  8
CORSA_PLATE_FIX-EDGE_CUTS_GBR
 10
146.2156
 20
-94.2084
 30
0.00
  0
SEQEND
  0
POLYLINE
  8
CORSA_PLATE_FIX-EDGE_CUTS_GBR
 66
1
 10
0.00
 20
0.00
 30
0.00
 40
0.20
 41
0.20
  0
VERTEX
  8
CORSA_PLATE_FIX-EDGE_CUTS_GBR
 10
147.2156
 20
-107.3084
 30
0.00
  0
VERTEX
  8
CORSA_PLATE_FIX-EDGE_CUTS_GBR
 10
146.2156
 20
-106.3084
 30
0.00
  0
SEQEND
  0
POLYLINE
  8
CORSA_PLATE_FIX-EDGE_CUTS_GBR
 66
1
 10
0.00
 20
0.00
 30
0.00
 40
0.20
 41
0.20
  0
VERTEX
  8
CORSA_PLATE_FIX-EDGE_CUTS_GBR
 10
159.9156
 20
-107.3084
 30
0.00
  0
VERTEX
  8
CORSA_PLATE_FIX-EDGE_CUTS_GBR
 10
147.2156
 20
-107.3084
 30
0.00
  0
SEQEND
  0
POLYLINE
  8
CORSA_PLATE_FIX-EDGE_CUTS_GBR
 66
1
 10
0.00
 20
0.00
 30
0.00
 40
0.20
 41
0.20
  0
VERTEX
  8
CORSA_PLATE_FIX-EDGE_CUTS_GBR
 10
160.9156
 20
-106.3084
 30
0.00
  0
VERTEX
  8
CORSA_PLATE_FIX-EDGE_CUTS_GBR
 10
159.9156
 20
-107.3084
 30
0.00
  0
SEQEND
  0
POLYLINE
  8
CORSA_PLATE_FIX-EDGE_CUTS_GBR
 66
1
 10
0.00
 20
0.00
 30
0.00
 40
0.20
 41
0.20
  0
VERTEX
  8
CORSA_PLATE_FIX-EDGE_CUTS_GBR
 10
160.9156
 20
-94.2084
 30
0.00
  0
VERTEX
  8
CORSA_PLATE_FIX-EDGE_CUTS_GBR
 10
160.9156
 20
-106.3084
 30
0.00
  0
SEQEND
  0
POLYLINE
  8
CORSA_PLATE_FIX-EDGE_CUTS_GBR
 66
1
 10
0.00
 20
0.00
 30
0.00
 40
0.20
 41
0.20
  0
VERTEX
  8
CORSA_PLATE_FIX-EDGE_CUTS_GBR
 10
159.9156
 20
-93.2084
 30
0.00
  0
VERTEX
  8
CORSA_PLATE_FIX-EDGE_CUTS_GBR
 10
160.9156
 20
-94.2084
 30
0.00
  0
SEQEND
  0
POLYLINE
  8
CORSA_PLATE_FIX-EDGE_CUTS_GBR
 66
1
 10
0.00
 20
0.00
 30
0.00
 40
0.20
 41
0.20
  0
VERTEX
  8
CORSA_PLATE_FIX-EDGE_CUTS_GBR
 10
147.2156
 20
-93.2084
 30
0.00
  0
VERTEX
  8
CORSA_PLATE_FIX-EDGE_CUTS_GBR
 10
159.9156
 20
-93.2084
 30
0.00
  0
SEQEND
  0
POLYLINE
  8
CORSA_PLATE_FIX-EDGE_CUTS_GBR
 66
1
 10
0.00
 20
0.00
 30
0.00
 40
0.20
 41
0.20
  0
VERTEX
  8
CORSA_PLATE_FIX-EDGE_CUTS_GBR
 10
127.1656
 20
-94.2084
 30
0.00
  0
VERTEX
  8
CORSA_PLATE_FIX-EDGE_CUTS_GBR
 10
128.1656
 20
-93.2084
 30
0.00
  0
SEQEND
  0
POLYLINE
  8
CORSA_PLATE_FIX-EDGE_CUTS_GBR
 66
1
 10
0.00
 20
0.00
 30
0.00
 40
0.20
 41
0.20
  0
VERTEX
  8
CORSA_PLATE_FIX-EDGE_CUTS_GBR
 10
127.1656
 20
-106.3084
 30
0.00
  0
VERTEX
  8
CORSA_PLATE_FIX-EDGE_CUTS_GBR
 10
127.1656
 20
-94.2084
 30
0.00
  0
SEQEND
  0
POLYLINE
  8
CORSA_PLATE_FIX-EDGE_CUTS_GBR
 66
1
 10
0.00
 20
0.00
 30
0.00
 40
0.20
 41
0.20
  0
VERTEX
  8
CORSA_PLATE_FIX-EDGE_CUTS_GBR
 10
128.1656
 20
-107.3084
 30
0.00
  0
VERTEX
  8
CORSA_PLATE_FIX-EDGE_CUTS_GBR
 10
127.1656
 20
-106.3084
 30
0.00
  0
SEQEND
  0
POLYLINE
  8
CORSA_PLATE_FIX-EDGE_CUTS_GBR
 66
1
 10
0.00
 20
0.00
 30
0.00
 40
0.20
 41
0.20
  0
VERTEX
  8
CORSA_PLATE_FIX-EDGE_CUTS_GBR
 10
140.8656
 20
-107.3084
 30
0.00
  0
VERTEX
  8
CORSA_PLATE_FIX-EDGE_CUTS_GBR
 10
128.1656
 20
-107.3084
 30
0.00
  0
SEQEND
  0
POLYLINE
  8
CORSA_PLATE_FIX-EDGE_CUTS_GBR
 66
1
 10
0.00
 20
0.00
 30
0.00
 40
0.20
 41
0.20
  0
VERTEX
  8
CORSA_PLATE_FIX-EDGE_CUTS_GBR
 10
141.8656
 20
-106.3084
 30
0.00
  0
VERTEX
  8
CORSA_PLATE_FIX-EDGE_CUTS_GBR
 10
140.8656
 20
-107.3084
 30
0.00
  0
SEQEND
  0
POLYLINE
  8
CORSA_PLATE_FIX-EDGE_CUTS_GBR
 66
1
 10
0.00
 20
0.00
 30
0.00
 40
0.20
 41
0.20
  0
VERTEX
  8
CORSA_PLATE_FIX-EDGE_CUTS_GBR
 10
141.8656
 20
-94.2084
 30
0.00
  0
VERTEX
  8
CORSA_PLATE_FIX-EDGE_CUTS_GBR
 10
141.8656
 20
-106.3084
 30
0.00
  0
SEQEND
  0
POLYLINE
  8
CORSA_PLATE_FIX-EDGE_CUTS_GBR
 66
1
 10
0.00
 20
0.00
 30
0.00
 40
0.20
 41
0.20
  0
VERTEX
  8
CORSA_PLATE_FIX-EDGE_CUTS_GBR
 10
140.8656
 20
-93.2084
 30
0.00
  0
VERTEX
  8
CORSA_PLATE_FIX-EDGE_CUTS_GBR
 10
141.8656
 20
-94.2084
 30
0.00
  0
SEQEND
  0
POLYLINE
  8
CORSA_PLATE_FIX-EDGE_CUTS_GBR
 66
1
 10
0.00
 20
0.00
 30
0.00
 40
0.20
 41
0.20
  0
VERTEX
  8
CORSA_PLATE_FIX-EDGE_CUTS_GBR
 10
128.1656
 20
-93.2084
 30
0.00
  0
VERTEX
  8
CORSA_PLATE_FIX-EDGE_CUTS_GBR
 10
140.8656
 20
-93.2084
 30
0.00
  0
SEQEND
  0
POLYLINE
  8
CORSA_PLATE_FIX-EDGE_CUTS_GBR
 66
1
 10
0.00
 20
0.00
 30
0.00
 40
0.20
 41
0.20
  0
VERTEX
  8
CORSA_PLATE_FIX-EDGE_CUTS_GBR
 10
108.1156
 20
-94.2084
 30
0.00
  0
VERTEX
  8
CORSA_PLATE_FIX-EDGE_CUTS_GBR
 10
109.1156
 20
-93.2084
 30
0.00
  0
SEQEND
  0
POLYLINE
  8
CORSA_PLATE_FIX-EDGE_CUTS_GBR
 66
1
 10
0.00
 20
0.00
 30
0.00
 40
0.20
 41
0.20
  0
VERTEX
  8
CORSA_PLATE_FIX-EDGE_CUTS_GBR
 10
108.1156
 20
-106.3084
 30
0.00
  0
VERTEX
  8
CORSA_PLATE_FIX-EDGE_CUTS_GBR
 10
108.1156
 20
-94.2084
 30
0.00
  0
SEQEND
  0
POLYLINE
  8
CORSA_PLATE_FIX-EDGE_CUTS_GBR
 66
1
 10
0.00
 20
0.00
 30
0.00
 40
0.20
 41
0.20
  0
VERTEX
  8
CORSA_PLATE_FIX-EDGE_CUTS_GBR
 10
109.1156
 20
-107.3084
 30
0.00
  0
VERTEX
  8
CORSA_PLATE_FIX-EDGE_CUTS_GBR
 10
108.1156
 20
-106.3084
 30
0.00
  0
SEQEND
  0
POLYLINE
  8
CORSA_PLATE_FIX-EDGE_CUTS_GBR
 66
1
 10
0.00
 20
0.00
 30
0.00
 40
0.20
 41
0.20
  0
VERTEX
  8
CORSA_PLATE_FIX-EDGE_CUTS_GBR
 10
121.8156
 20
-107.3084
 30
0.00
  0
VERTEX
  8
CORSA_PLATE_FIX-EDGE_CUTS_GBR
 10
109.1156
 20
-107.3084
 30
0.00
  0
SEQEND
  0
POLYLINE
  8
CORSA_PLATE_FIX-EDGE_CUTS_GBR
 66
1
 10
0.00
 20
0.00
 30
0.00
 40
0.20
 41
0.20
  0
VERTEX
  8
CORSA_PLATE_FIX-EDGE_CUTS_GBR
 10
122.8156
 20
-106.3084
 30
0.00
  0
VERTEX
  8
CORSA_PLATE_FIX-EDGE_CUTS_GBR
 10
121.8156
 20
-107.3084
 30
0.00
  0
SEQEND
  0
POLYLINE
  8
CORSA_PLATE_FIX-EDGE_CUTS_GBR
 66
1
 10
0.00
 20
0.00
 30
0.00
 40
0.20
 41
0.20
  0
VERTEX
  8
CORSA_PLATE_FIX-EDGE_CUTS_GBR
 10
122.8156
 20
-94.2084
 30
0.00
  0
VERTEX
  8
CORSA_PLATE_FIX-EDGE_CUTS_GBR
 10
122.8156
 20
-106.3084
 30
0.00
  0
SEQEND
  0
POLYLINE
  8
CORSA_PLATE_FIX-EDGE_CUTS_GBR
 66
1
 10
0.00
 20
0.00
 30
0.00
 40
0.20
 41
0.20
  0
VERTEX
  8
CORSA_PLATE_FIX-EDGE_CUTS_GBR
 10
121.8156
 20
-93.2084
 30
0.00
  0
VERTEX
  8
CORSA_PLATE_FIX-EDGE_CUTS_GBR
 10
122.8156
 20
-94.2084
 30
0.00
  0
SEQEND
  0
POLYLINE
  8
CORSA_PLATE_FIX-EDGE_CUTS_GBR
 66
1
 10
0.00
 20
0.00
 30
0.00
 40
0.20
 41
0.20
  0
VERTEX
  8
CORSA_PLATE_FIX-EDGE_CUTS_GBR
 10
109.1156
 20
-93.2084
 30
0.00
  0
VERTEX
  8
CORSA_PLATE_FIX-EDGE_CUTS_GBR
 10
121.8156
 20
-93.2084
 30
0.00
  0
SEQEND
  0
POLYLINE
  8
CORSA_PLATE_FIX-EDGE_CUTS_GBR
 66
1
 10
0.00
 20
0.00
 30
0.00
 40
0.20
 41
0.20
  0
VERTEX
  8
CORSA_PLATE_FIX-EDGE_CUTS_GBR
 10
89.0656
 20
-94.2084
 30
0.00
  0
VERTEX
  8
CORSA_PLATE_FIX-EDGE_CUTS_GBR
 10
90.0656
 20
-93.2084
 30
0.00
  0
SEQEND
  0
POLYLINE
  8
CORSA_PLATE_FIX-EDGE_CUTS_GBR
 66
1
 10
0.00
 20
0.00
 30
0.00
 40
0.20
 41
0.20
  0
VERTEX
  8
CORSA_PLATE_FIX-EDGE_CUTS_GBR
 10
89.0656
 20
-106.3084
 30
0.00
  0
VERTEX
  8
CORSA_PLATE_FIX-EDGE_CUTS_GBR
 10
89.0656
 20
-94.2084
 30
0.00
  0
SEQEND
  0
POLYLINE
  8
CORSA_PLATE_FIX-EDGE_CUTS_GBR
 66
1
 10
0.00
 20
0.00
 30
0.00
 40
0.20
 41
0.20
  0
VERTEX
  8
CORSA_PLATE_FIX-EDGE_CUTS_GBR
 10
90.0656
 20
-107.3084
 30
0.00
  0
VERTEX
  8
CORSA_PLATE_FIX-EDGE_CUTS_GBR
 10
89.0656
 20
-106.3084
 30
0.00
  0
SEQEND
  0
POLYLINE
  8
CORSA_PLATE_FIX-EDGE_CUTS_GBR
 66
1
 10
0.00
 20
0.00
 30
0.00
 40
0.20
 41
0.20
  0
VERTEX
  8
CORSA_PLATE_FIX-EDGE_CUTS_GBR
 10
102.7656
 20
-107.3084
 30
0.00
  0
VERTEX
  8
CORSA_PLATE_FIX-EDGE_CUTS_GBR
 10
90.0656
 20
-107.3084
 30
0.00
  0
SEQEND
  0
POLYLINE
  8
CORSA_PLATE_FIX-EDGE_CUTS_GBR
 66
1
 10
0.00
 20
0.00
 30
0.00
 40
0.20
 41
0.20
  0
VERTEX
  8
CORSA_PLATE_FIX-EDGE_CUTS_GBR
 10
103.7656
 20
-106.3084
 30
0.00
  0
VERTEX
  8
CORSA_PLATE_FIX-EDGE_CUTS_GBR
 10
102.7656
 20
-107.3084
 30
0.00
  0
SEQEND
  0
POLYLINE
  8
CORSA_PLATE_FIX-EDGE_CUTS_GBR
 66
1
 10
0.00
 20
0.00
 30
0.00
 40
0.20
 41
0.20
  0
VERTEX
  8
CORSA_PLATE_FIX-EDGE_CUTS_GBR
 10
103.7656
 20
-94.2084
 30
0.00
  0
VERTEX
  8
CORSA_PLATE_FIX-EDGE_CUTS_GBR
 10
103.7656
 20
-106.3084
 30
0.00
  0
SEQEND
  0
POLYLINE
  8
CORSA_PLATE_FIX-EDGE_CUTS_GBR
 66
1
 10
0.00
 20
0.00
 30
0.00
 40
0.20
 41
0.20
  0
VERTEX
  8
CORSA_PLATE_FIX-EDGE_CUTS_GBR
 10
102.7656
 20
-93.2084
 30
0.00
  0
VERTEX
  8
CORSA_PLATE_FIX-EDGE_CUTS_GBR
 10
103.7656
 20
-94.2084
 30
0.00
  0
SEQEND
  0
POLYLINE
  8
CORSA_PLATE_FIX-EDGE_CUTS_GBR
 66
1
 10
0.00
 20
0.00
 30
0.00
 40
0.20
 41
0.20
  0
VERTEX
  8
CORSA_PLATE_FIX-EDGE_CUTS_GBR
 10
90.0656
 20
-93.2084
 30
0.00
  0
VERTEX
  8
CORSA_PLATE_FIX-EDGE_CUTS_GBR
 10
102.7656
 20
-93.2084
 30
0.00
  0
SEQEND
  0
POLYLINE
  8
CORSA_PLATE_FIX-EDGE_CUTS_GBR
 66
1
 10
0.00
 20
0.00
 30
0.00
 40
0.20
 41
0.20
  0
VERTEX
  8
CORSA_PLATE_FIX-EDGE_CUTS_GBR
 10
65.2531
 20
-94.2084
 30
0.00
  0
VERTEX
  8
CORSA_PLATE_FIX-EDGE_CUTS_GBR
 10
66.2531
 20
-93.2084
 30
0.00
  0
SEQEND
  0
POLYLINE
  8
CORSA_PLATE_FIX-EDGE_CUTS_GBR
 66
1
 10
0.00
 20
0.00
 30
0.00
 40
0.20
 41
0.20
  0
VERTEX
  8
CORSA_PLATE_FIX-EDGE_CUTS_GBR
 10
65.2531
 20
-106.3084
 30
0.00
  0
VERTEX
  8
CORSA_PLATE_FIX-EDGE_CUTS_GBR
 10
65.2531
 20
-94.2084
 30
0.00
  0
SEQEND
  0
POLYLINE
  8
CORSA_PLATE_FIX-EDGE_CUTS_GBR
 66
1
 10
0.00
 20
0.00
 30
0.00
 40
0.20
 41
0.20
  0
VERTEX
  8
CORSA_PLATE_FIX-EDGE_CUTS_GBR
 10
66.2531
 20
-107.3084
 30
0.00
  0
VERTEX
  8
CORSA_PLATE_FIX-EDGE_CUTS_GBR
 10
65.2531
 20
-106.3084
 30
0.00
  0
SEQEND
  0
POLYLINE
  8
CORSA_PLATE_FIX-EDGE_CUTS_GBR
 66
1
 10
0.00
 20
0.00
 30
0.00
 40
0.20
 41
0.20
  0
VERTEX
  8
CORSA_PLATE_FIX-EDGE_CUTS_GBR
 10
78.9531
 20
-107.3084
 30
0.00
  0
VERTEX
  8
CORSA_PLATE_FIX-EDGE_CUTS_GBR
 10
66.2531
 20
-107.3084
 30
0.00
  0
SEQEND
  0
POLYLINE
  8
CORSA_PLATE_FIX-EDGE_CUTS_GBR
 66
1
 10
0.00
 20
0.00
 30
0.00
 40
0.20
 41
0.20
  0
VERTEX
  8
CORSA_PLATE_FIX-EDGE_CUTS_GBR
 10
79.9531
 20
-106.3084
 30
0.00
  0
VERTEX
  8
CORSA_PLATE_FIX-EDGE_CUTS_GBR
 10
78.9531
 20
-107.3084
 30
0.00
  0
SEQEND
  0
POLYLINE
  8
CORSA_PLATE_FIX-EDGE_CUTS_GBR
 66
1
 10
0.00
 20
0.00
 30
0.00
 40
0.20
 41
0.20
  0
VERTEX
  8
CORSA_PLATE_FIX-EDGE_CUTS_GBR
 10
79.9531
 20
-94.2084
 30
0.00
  0
VERTEX
  8
CORSA_PLATE_FIX-EDGE_CUTS_GBR
 10
79.9531
 20
-106.3084
 30
0.00
  0
SEQEND
  0
POLYLINE
  8
CORSA_PLATE_FIX-EDGE_CUTS_GBR
 66
1
 10
0.00
 20
0.00
 30
0.00
 40
0.20
 41
0.20
  0
VERTEX
  8
CORSA_PLATE_FIX-EDGE_CUTS_GBR
 10
78.9531
 20
-93.2084
 30
0.00
  0
VERTEX
  8
CORSA_PLATE_FIX-EDGE_CUTS_GBR
 10
79.9531
 20
-94.2084
 30
0.00
  0
SEQEND
  0
POLYLINE
  8
CORSA_PLATE_FIX-EDGE_CUTS_GBR
 66
1
 10
0.00
 20
0.00
 30
0.00
 40
0.20
 41
0.20
  0
VERTEX
  8
CORSA_PLATE_FIX-EDGE_CUTS_GBR
 10
66.2531
 20
-93.2084
 30
0.00
  0
VERTEX
  8
CORSA_PLATE_FIX-EDGE_CUTS_GBR
 10
78.9531
 20
-93.2084
 30
0.00
  0
SEQEND
  0
POLYLINE
  8
CORSA_PLATE_FIX-EDGE_CUTS_GBR
 66
1
 10
0.00
 20
0.00
 30
0.00
 40
0.20
 41
0.20
  0
VERTEX
  8
CORSA_PLATE_FIX-EDGE_CUTS_GBR
 10
212.8906
 20
-75.1584
 30
0.00
  0
VERTEX
  8
CORSA_PLATE_FIX-EDGE_CUTS_GBR
 10
213.8906
 20
-74.1584
 30
0.00
  0
SEQEND
  0
POLYLINE
  8
CORSA_PLATE_FIX-EDGE_CUTS_GBR
 66
1
 10
0.00
 20
0.00
 30
0.00
 40
0.20
 41
0.20
  0
VERTEX
  8
CORSA_PLATE_FIX-EDGE_CUTS_GBR
 10
212.8906
 20
-87.2584
 30
0.00
  0
VERTEX
  8
CORSA_PLATE_FIX-EDGE_CUTS_GBR
 10
212.8906
 20
-75.1584
 30
0.00
  0
SEQEND
  0
POLYLINE
  8
CORSA_PLATE_FIX-EDGE_CUTS_GBR
 66
1
 10
0.00
 20
0.00
 30
0.00
 40
0.20
 41
0.20
  0
VERTEX
  8
CORSA_PLATE_FIX-EDGE_CUTS_GBR
 10
213.8906
 20
-88.2584
 30
0.00
  0
VERTEX
  8
CORSA_PLATE_FIX-EDGE_CUTS_GBR
 10
212.8906
 20
-87.2584
 30
0.00
  0
SEQEND
  0
POLYLINE
  8
CORSA_PLATE_FIX-EDGE_CUTS_GBR
 66
1
 10
0.00
 20
0.00
 30
0.00
 40
0.20
 41
0.20
  0
VERTEX
  8
CORSA_PLATE_FIX-EDGE_CUTS_GBR
 10
226.5906
 20
-88.2584
 30
0.00
  0
VERTEX
  8
CORSA_PLATE_FIX-EDGE_CUTS_GBR
 10
213.8906
 20
-88.2584
 30
0.00
  0
SEQEND
  0
POLYLINE
  8
CORSA_PLATE_FIX-EDGE_CUTS_GBR
 66
1
 10
0.00
 20
0.00
 30
0.00
 40
0.20
 41
0.20
  0
VERTEX
  8
CORSA_PLATE_FIX-EDGE_CUTS_GBR
 10
227.5906
 20
-87.2584
 30
0.00
  0
VERTEX
  8
CORSA_PLATE_FIX-EDGE_CUTS_GBR
 10
226.5906
 20
-88.2584
 30
0.00
  0
SEQEND
  0
POLYLINE
  8
CORSA_PLATE_FIX-EDGE_CUTS_GBR
 66
1
 10
0.00
 20
0.00
 30
0.00
 40
0.20
 41
0.20
  0
VERTEX
  8
CORSA_PLATE_FIX-EDGE_CUTS_GBR
 10
227.5906
 20
-75.1584
 30
0.00
  0
VERTEX
  8
CORSA_PLATE_FIX-EDGE_CUTS_GBR
 10
227.5906
 20
-87.2584
 30
0.00
  0
SEQEND
  0
POLYLINE
  8
CORSA_PLATE_FIX-EDGE_CUTS_GBR
 66
1
 10
0.00
 20
0.00
 30
0.00
 40
0.20
 41
0.20
  0
VERTEX
  8
CORSA_PLATE_FIX-EDGE_CUTS_GBR
 10
226.5906
 20
-74.1584
 30
0.00
  0
VERTEX
  8
CORSA_PLATE_FIX-EDGE_CUTS_GBR
 10
227.5906
 20
-75.1584
 30
0.00
  0
SEQEND
  0
POLYLINE
  8
CORSA_PLATE_FIX-EDGE_CUTS_GBR
 66
1
 10
0.00
 20
0.00
 30
0.00
 40
0.20
 41
0.20
  0
VERTEX
  8
CORSA_PLATE_FIX-EDGE_CUTS_GBR
 10
213.8906
 20
-74.1584
 30
0.00
  0
VERTEX
  8
CORSA_PLATE_FIX-EDGE_CUTS_GBR
 10
226.5906
 20
-74.1584
 30
0.00
  0
SEQEND
  0
POLYLINE
  8
CORSA_PLATE_FIX-EDGE_CUTS_GBR
 66
1
 10
0.00
 20
0.00
 30
0.00
 40
0.20
 41
0.20
  0
VERTEX
  8
CORSA_PLATE_FIX-EDGE_CUTS_GBR
 10
193.8406
 20
-75.1584
 30
0.00
  0
VERTEX
  8
CORSA_PLATE_FIX-EDGE_CUTS_GBR
 10
194.8406
 20
-74.1584
 30
0.00
  0
SEQEND
  0
POLYLINE
  8
CORSA_PLATE_FIX-EDGE_CUTS_GBR
 66
1
 10
0.00
 20
0.00
 30
0.00
 40
0.20
 41
0.20
  0
VERTEX
  8
CORSA_PLATE_FIX-EDGE_CUTS_GBR
 10
193.8406
 20
-87.2584
 30
0.00
  0
VERTEX
  8
CORSA_PLATE_FIX-EDGE_CUTS_GBR
 10
193.8406
 20
-75.1584
 30
0.00
  0
SEQEND
  0
POLYLINE
  8
CORSA_PLATE_FIX-EDGE_CUTS_GBR
 66
1
 10
0.00
 20
0.00
 30
0.00
 40
0.20
 41
0.20
  0
VERTEX
  8
CORSA_PLATE_FIX-EDGE_CUTS_GBR
 10
194.8406
 20
-88.2584
 30
0.00
  0
VERTEX
  8
CORSA_PLATE_FIX-EDGE_CUTS_GBR
 10
193.8406
 20
-87.2584
 30
0.00
  0
SEQEND
  0
POLYLINE
  8
CORSA_PLATE_FIX-EDGE_CUTS_GBR
 66
1
 10
0.00
 20
0.00
 30
0.00
 40
0.20
 41
0.20
  0
VERTEX
  8
CORSA_PLATE_FIX-EDGE_CUTS_GBR
 10
207.5406
 20
-88.2584
 30
0.00
  0
VERTEX
  8
CORSA_PLATE_FIX-EDGE_CUTS_GBR
 10
194.8406
 20
-88.2584
 30
0.00
  0
SEQEND
  0
POLYLINE
  8
CORSA_PLATE_FIX-EDGE_CUTS_GBR
 66
1
 10
0.00
 20
0.00
 30
0.00
 40
0.20
 41
0.20
  0
VERTEX
  8
CORSA_PLATE_FIX-EDGE_CUTS_GBR
 10
208.5406
 20
-87.2584
 30
0.00
  0
VERTEX
  8
CORSA_PLATE_FIX-EDGE_CUTS_GBR
 10
207.5406
 20
-88.2584
 30
0.00
  0
SEQEND
  0
POLYLINE
  8
CORSA_PLATE_FIX-EDGE_CUTS_GBR
 66
1
 10
0.00
 20
0.00
 30
0.00
 40
0.20
 41
0.20
  0
VERTEX
  8
CORSA_PLATE_FIX-EDGE_CUTS_GBR
 10
208.5406
 20
-75.1584
 30
0.00
  0
VERTEX
  8
CORSA_PLATE_FIX-EDGE_CUTS_GBR
 10
208.5406
 20
-87.2584
 30
0.00
  0
SEQEND
  0
POLYLINE
  8
CORSA_PLATE_FIX-EDGE_CUTS_GBR
 66
1
 10
0.00
 20
0.00
 30
0.00
 40
0.20
 41
0.20
  0
VERTEX
  8
CORSA_PLATE_FIX-EDGE_CUTS_GBR
 10
207.5406
 20
-74.1584
 30
0.00
  0
VERTEX
  8
CORSA_PLATE_FIX-EDGE_CUTS_GBR
 10
208.5406
 20
-75.1584
 30
0.00
  0
SEQEND
  0
POLYLINE
  8
CORSA_PLATE_FIX-EDGE_CUTS_GBR
 66
1
 10
0.00
 20
0.00
 30
0.00
 40
0.20
 41
0.20
  0
VERTEX
  8
CORSA_PLATE_FIX-EDGE_CUTS_GBR
 10
194.8406
 20
-74.1584
 30
0.00
  0
VERTEX
  8
CORSA_PLATE_FIX-EDGE_CUTS_GBR
 10
207.5406
 20
-74.1584
 30
0.00
  0
SEQEND
  0
POLYLINE
  8
CORSA_PLATE_FIX-EDGE_CUTS_GBR
 66
1
 10
0.00
 20
0.00
 30
0.00
 40
0.20
 41
0.20
  0
VERTEX
  8
CORSA_PLATE_FIX-EDGE_CUTS_GBR
 10
174.7906
 20
-75.1584
 30
0.00
  0
VERTEX
  8
CORSA_PLATE_FIX-EDGE_CUTS_GBR
 10
175.7906
 20
-74.1584
 30
0.00
  0
SEQEND
  0
POLYLINE
  8
CORSA_PLATE_FIX-EDGE_CUTS_GBR
 66
1
 10
0.00
 20
0.00
 30
0.00
 40
0.20
 41
0.20
  0
VERTEX
  8
CORSA_PLATE_FIX-EDGE_CUTS_GBR
 10
174.7906
 20
-87.2584
 30
0.00
  0
VERTEX
  8
CORSA_PLATE_FIX-EDGE_CUTS_GBR
 10
174.7906
 20
-75.1584
 30
0.00
  0
SEQEND
  0
POLYLINE
  8
CORSA_PLATE_FIX-EDGE_CUTS_GBR
 66
1
 10
0.00
 20
0.00
 30
0.00
 40
0.20
 41
0.20
  0
VERTEX
  8
CORSA_PLATE_FIX-EDGE_CUTS_GBR
 10
175.7906
 20
-88.2584
 30
0.00
  0
VERTEX
  8
CORSA_PLATE_FIX-EDGE_CUTS_GBR
 10
174.7906
 20
-87.2584
 30
0.00
  0
SEQEND
  0
POLYLINE
  8
CORSA_PLATE_FIX-EDGE_CUTS_GBR
 66
1
 10
0.00
 20
0.00
 30
0.00
 40
0.20
 41
0.20
  0
VERTEX
  8
CORSA_PLATE_FIX-EDGE_CUTS_GBR
 10
188.4906
 20
-88.2584
 30
0.00
  0
VERTEX
  8
CORSA_PLATE_FIX-EDGE_CUTS_GBR
 10
175.7906
 20
-88.2584
 30
0.00
  0
SEQEND
  0
POLYLINE
  8
CORSA_PLATE_FIX-EDGE_CUTS_GBR
 66
1
 10
0.00
 20
0.00
 30
0.00
 40
0.20
 41
0.20
  0
VERTEX
  8
CORSA_PLATE_FIX-EDGE_CUTS_GBR
 10
189.4906
 20
-87.2584
 30
0.00
  0
VERTEX
  8
CORSA_PLATE_FIX-EDGE_CUTS_GBR
 10
188.4906
 20
-88.2584
 30
0.00
  0
SEQEND
  0
POLYLINE
  8
CORSA_PLATE_FIX-EDGE_CUTS_GBR
 66
1
 10
0.00
 20
0.00
 30
0.00
 40
0.20
 41
0.20
  0
VERTEX
  8
CORSA_PLATE_FIX-EDGE_CUTS_GBR
 10
189.4906
 20
-75.1584
 30
0.00
  0
VERTEX
  8
CORSA_PLATE_FIX-EDGE_CUTS_GBR
 10
189.4906
 20
-87.2584
 30
0.00
  0
SEQEND
  0
POLYLINE
  8
CORSA_PLATE_FIX-EDGE_CUTS_GBR
 66
1
 10
0.00
 20
0.00
 30
0.00
 40
0.20
 41
0.20
  0
VERTEX
  8
CORSA_PLATE_FIX-EDGE_CUTS_GBR
 10
188.4906
 20
-74.1584
 30
0.00
  0
VERTEX
  8
CORSA_PLATE_FIX-EDGE_CUTS_GBR
 10
189.4906
 20
-75.1584
 30
0.00
  0
SEQEND
  0
POLYLINE
  8
CORSA_PLATE_FIX-EDGE_CUTS_GBR
 66
1
 10
0.00
 20
0.00
 30
0.00
 40
0.20
 41
0.20
  0
VERTEX
  8
CORSA_PLATE_FIX-EDGE_CUTS_GBR
 10
175.7906
 20
-74.1584
 30
0.00
  0
VERTEX
  8
CORSA_PLATE_FIX-EDGE_CUTS_GBR
 10
188.4906
 20
-74.1584
 30
0.00
  0
SEQEND
  0
POLYLINE
  8
CORSA_PLATE_FIX-EDGE_CUTS_GBR
 66
1
 10
0.00
 20
0.00
 30
0.00
 40
0.20
 41
0.20
  0
VERTEX
  8
CORSA_PLATE_FIX-EDGE_CUTS_GBR
 10
155.7406
 20
-75.1584
 30
0.00
  0
VERTEX
  8
CORSA_PLATE_FIX-EDGE_CUTS_GBR
 10
156.7406
 20
-74.1584
 30
0.00
  0
SEQEND
  0
POLYLINE
  8
CORSA_PLATE_FIX-EDGE_CUTS_GBR
 66
1
 10
0.00
 20
0.00
 30
0.00
 40
0.20
 41
0.20
  0
VERTEX
  8
CORSA_PLATE_FIX-EDGE_CUTS_GBR
 10
155.7406
 20
-87.2584
 30
0.00
  0
VERTEX
  8
CORSA_PLATE_FIX-EDGE_CUTS_GBR
 10
155.7406
 20
-75.1584
 30
0.00
  0
SEQEND
  0
POLYLINE
  8
CORSA_PLATE_FIX-EDGE_CUTS_GBR
 66
1
 10
0.00
 20
0.00
 30
0.00
 40
0.20
 41
0.20
  0
VERTEX
  8
CORSA_PLATE_FIX-EDGE_CUTS_GBR
 10
156.7406
 20
-88.2584
 30
0.00
  0
VERTEX
  8
CORSA_PLATE_FIX-EDGE_CUTS_GBR
 10
155.7406
 20
-87.2584
 30
0.00
  0
SEQEND
  0
POLYLINE
  8
CORSA_PLATE_FIX-EDGE_CUTS_GBR
 66
1
 10
0.00
 20
0.00
 30
0.00
 40
0.20
 41
0.20
  0
VERTEX
  8
CORSA_PLATE_FIX-EDGE_CUTS_GBR
 10
169.4406
 20
-88.2584
 30
0.00
  0
VERTEX
  8
CORSA_PLATE_FIX-EDGE_CUTS_GBR
 10
156.7406
 20
-88.2584
 30
0.00
  0
SEQEND
  0
POLYLINE
  8
CORSA_PLATE_FIX-EDGE_CUTS_GBR
 66
1
 10
0.00
 20
0.00
 30
0.00
 40
0.20
 41
0.20
  0
VERTEX
  8
CORSA_PLATE_FIX-EDGE_CUTS_GBR
 10
170.4406
 20
-87.2584
 30
0.00
  0
VERTEX
  8
CORSA_PLATE_FIX-EDGE_CUTS_GBR
 10
169.4406
 20
-88.2584
 30
0.00
  0
SEQEND
  0
POLYLINE
  8
CORSA_PLATE_FIX-EDGE_CUTS_GBR
 66
1
 10
0.00
 20
0.00
 30
0.00
 40
0.20
 41
0.20
  0
VERTEX
  8
CORSA_PLATE_FIX-EDGE_CUTS_GBR
 10
170.4406
 20
-75.1584
 30
0.00
  0
VERTEX
  8
CORSA_PLATE_FIX-EDGE_CUTS_GBR
 10
170.4406
 20
-87.2584
 30
0.00
  0
SEQEND
  0
POLYLINE
  8
CORSA_PLATE_FIX-EDGE_CUTS_GBR
 66
1
 10
0.00
 20
0.00
 30
0.00
 40
0.20
 41
0.20
  0
VERTEX
  8
CORSA_PLATE_FIX-EDGE_CUTS_GBR
 10
169.4406
 20
-74.1584
 30
0.00
  0
VERTEX
  8
CORSA_PLATE_FIX-EDGE_CUTS_GBR
 10
170.4406
 20
-75.1584
 30
0.00
  0
SEQEND
  0
POLYLINE
  8
CORSA_PLATE_FIX-EDGE_CUTS_GBR
 66
1
 10
0.00
 20
0.00
 30
0.00
 40
0.20
 41
0.20
  0
VERTEX
  8
CORSA_PLATE_FIX-EDGE_CUTS_GBR
 10
156.7406
 20
-74.1584
 30
0.00
  0
VERTEX
  8
CORSA_PLATE_FIX-EDGE_CUTS_GBR
 10
169.4406
 20
-74.1584
 30
0.00
  0
SEQEND
  0
POLYLINE
  8
CORSA_PLATE_FIX-EDGE_CUTS_GBR
 66
1
 10
0.00
 20
0.00
 30
0.00
 40
0.20
 41
0.20
  0
VERTEX
  8
CORSA_PLATE_FIX-EDGE_CUTS_GBR
 10
136.6906
 20
-75.1584
 30
0.00
  0
VERTEX
  8
CORSA_PLATE_FIX-EDGE_CUTS_GBR
 10
137.6906
 20
-74.1584
 30
0.00
  0
SEQEND
  0
POLYLINE
  8
CORSA_PLATE_FIX-EDGE_CUTS_GBR
 66
1
 10
0.00
 20
0.00
 30
0.00
 40
0.20
 41
0.20
  0
VERTEX
  8
CORSA_PLATE_FIX-EDGE_CUTS_GBR
 10
136.6906
 20
-87.2584
 30
0.00
  0
VERTEX
  8
CORSA_PLATE_FIX-EDGE_CUTS_GBR
 10
136.6906
 20
-75.1584
 30
0.00
  0
SEQEND
  0
POLYLINE
  8
CORSA_PLATE_FIX-EDGE_CUTS_GBR
 66
1
 10
0.00
 20
0.00
 30
0.00
 40
0.20
 41
0.20
  0
VERTEX
  8
CORSA_PLATE_FIX-EDGE_CUTS_GBR
 10
137.6906
 20
-88.2584
 30
0.00
  0
VERTEX
  8
CORSA_PLATE_FIX-EDGE_CUTS_GBR
 10
136.6906
 20
-87.2584
 30
0.00
  0
SEQEND
  0
POLYLINE
  8
CORSA_PLATE_FIX-EDGE_CUTS_GBR
 66
1
 10
0.00
 20
0.00
 30
0.00
 40
0.20
 41
0.20
  0
VERTEX
  8
CORSA_PLATE_FIX-EDGE_CUTS_GBR
 10
150.3906
 20
-88.2584
 30
0.00
  0
VERTEX
  8
CORSA_PLATE_FIX-EDGE_CUTS_GBR
 10
137.6906
 20
-88.2584
 30
0.00
  0
SEQEND
  0
POLYLINE
  8
CORSA_PLATE_FIX-EDGE_CUTS_GBR
 66
1
 10
0.00
 20
0.00
 30
0.00
 40
0.20
 41
0.20
  0
VERTEX
  8
CORSA_PLATE_FIX-EDGE_CUTS_GBR
 10
151.3906
 20
-87.2584
 30
0.00
  0
VERTEX
  8
CORSA_PLATE_FIX-EDGE_CUTS_GBR
 10
150.3906
 20
-88.2584
 30
0.00
  0
SEQEND
  0
POLYLINE
  8
CORSA_PLATE_FIX-EDGE_CUTS_GBR
 66
1
 10
0.00
 20
0.00
 30
0.00
 40
0.20
 41
0.20
  0
VERTEX
  8
CORSA_PLATE_FIX-EDGE_CUTS_GBR
 10
151.3906
 20
-75.1584
 30
0.00
  0
VERTEX
  8
CORSA_PLATE_FIX-EDGE_CUTS_GBR
 10
151.3906
 20
-87.2584
 30
0.00
  0
SEQEND
  0
POLYLINE
  8
CORSA_PLATE_FIX-EDGE_CUTS_GBR
 66
1
 10
0.00
 20
0.00
 30
0.00
 40
0.20
 41
0.20
  0
VERTEX
  8
CORSA_PLATE_FIX-EDGE_CUTS_GBR
 10
150.3906
 20
-74.1584
 30
0.00
  0
VERTEX
  8
CORSA_PLATE_FIX-EDGE_CUTS_GBR
 10
151.3906
 20
-75.1584
 30
0.00
  0
SEQEND
  0
POLYLINE
  8
CORSA_PLATE_FIX-EDGE_CUTS_GBR
 66
1
 10
0.00
 20
0.00
 30
0.00
 40
0.20
 41
0.20
  0
VERTEX
  8
CORSA_PLATE_FIX-EDGE_CUTS_GBR
 10
137.6906
 20
-74.1584
 30
0.00
  0
VERTEX
  8
CORSA_PLATE_FIX-EDGE_CUTS_GBR
 10
150.3906
 20
-74.1584
 30
0.00
  0
SEQEND
  0
POLYLINE
  8
CORSA_PLATE_FIX-EDGE_CUTS_GBR
 66
1
 10
0.00
 20
0.00
 30
0.00
 40
0.20
 41
0.20
  0
VERTEX
  8
CORSA_PLATE_FIX-EDGE_CUTS_GBR
 10
117.6406
 20
-75.1584
 30
0.00
  0
VERTEX
  8
CORSA_PLATE_FIX-EDGE_CUTS_GBR
 10
118.6406
 20
-74.1584
 30
0.00
  0
SEQEND
  0
POLYLINE
  8
CORSA_PLATE_FIX-EDGE_CUTS_GBR
 66
1
 10
0.00
 20
0.00
 30
0.00
 40
0.20
 41
0.20
  0
VERTEX
  8
CORSA_PLATE_FIX-EDGE_CUTS_GBR
 10
117.6406
 20
-87.2584
 30
0.00
  0
VERTEX
  8
CORSA_PLATE_FIX-EDGE_CUTS_GBR
 10
117.6406
 20
-75.1584
 30
0.00
  0
SEQEND
  0
POLYLINE
  8
CORSA_PLATE_FIX-EDGE_CUTS_GBR
 66
1
 10
0.00
 20
0.00
 30
0.00
 40
0.20
 41
0.20
  0
VERTEX
  8
CORSA_PLATE_FIX-EDGE_CUTS_GBR
 10
118.6406
 20
-88.2584
 30
0.00
  0
VERTEX
  8
CORSA_PLATE_FIX-EDGE_CUTS_GBR
 10
117.6406
 20
-87.2584
 30
0.00
  0
SEQEND
  0
POLYLINE
  8
CORSA_PLATE_FIX-EDGE_CUTS_GBR
 66
1
 10
0.00
 20
0.00
 30
0.00
 40
0.20
 41
0.20
  0
VERTEX
  8
CORSA_PLATE_FIX-EDGE_CUTS_GBR
 10
131.3406
 20
-88.2584
 30
0.00
  0
VERTEX
  8
CORSA_PLATE_FIX-EDGE_CUTS_GBR
 10
118.6406
 20
-88.2584
 30
0.00
  0
SEQEND
  0
POLYLINE
  8
CORSA_PLATE_FIX-EDGE_CUTS_GBR
 66
1
 10
0.00
 20
0.00
 30
0.00
 40
0.20
 41
0.20
  0
VERTEX
  8
CORSA_PLATE_FIX-EDGE_CUTS_GBR
 10
132.3406
 20
-87.2584
 30
0.00
  0
VERTEX
  8
CORSA_PLATE_FIX-EDGE_CUTS_GBR
 10
131.3406
 20
-88.2584
 30
0.00
  0
SEQEND
  0
POLYLINE
  8
CORSA_PLATE_FIX-EDGE_CUTS_GBR
 66
1
 10
0.00
 20
0.00
 30
0.00
 40
0.20
 41
0.20
  0
VERTEX
  8
CORSA_PLATE_FIX-EDGE_CUTS_GBR
 10
132.3406
 20
-75.1584
 30
0.00
  0
VERTEX
  8
CORSA_PLATE_FIX-EDGE_CUTS_GBR
 10
132.3406
 20
-87.2584
 30
0.00
  0
SEQEND
  0
POLYLINE
  8
CORSA_PLATE_FIX-EDGE_CUTS_GBR
 66
1
 10
0.00
 20
0.00
 30
0.00
 40
0.20
 41
0.20
  0
VERTEX
  8
CORSA_PLATE_FIX-EDGE_CUTS_GBR
 10
131.3406
 20
-74.1584
 30
0.00
  0
VERTEX
  8
CORSA_PLATE_FIX-EDGE_CUTS_GBR
 10
132.3406
 20
-75.1584
 30
0.00
  0
SEQEND
  0
POLYLINE
  8
CORSA_PLATE_FIX-EDGE_CUTS_GBR
 66
1
 10
0.00
 20
0.00
 30
0.00
 40
0.20
 41
0.20
  0
VERTEX
  8
CORSA_PLATE_FIX-EDGE_CUTS_GBR
 10
118.6406
 20
-74.1584
 30
0.00
  0
VERTEX
  8
CORSA_PLATE_FIX-EDGE_CUTS_GBR
 10
131.3406
 20
-74.1584
 30
0.00
  0
SEQEND
  0
POLYLINE
  8
CORSA_PLATE_FIX-EDGE_CUTS_GBR
 66
1
 10
0.00
 20
0.00
 30
0.00
 40
0.20
 41
0.20
  0
VERTEX
  8
CORSA_PLATE_FIX-EDGE_CUTS_GBR
 10
98.5906
 20
-75.1584
 30
0.00
  0
VERTEX
  8
CORSA_PLATE_FIX-EDGE_CUTS_GBR
 10
99.5906
 20
-74.1584
 30
0.00
  0
SEQEND
  0
POLYLINE
  8
CORSA_PLATE_FIX-EDGE_CUTS_GBR
 66
1
 10
0.00
 20
0.00
 30
0.00
 40
0.20
 41
0.20
  0
VERTEX
  8
CORSA_PLATE_FIX-EDGE_CUTS_GBR
 10
98.5906
 20
-87.2584
 30
0.00
  0
VERTEX
  8
CORSA_PLATE_FIX-EDGE_CUTS_GBR
 10
98.5906
 20
-75.1584
 30
0.00
  0
SEQEND
  0
POLYLINE
  8
CORSA_PLATE_FIX-EDGE_CUTS_GBR
 66
1
 10
0.00
 20
0.00
 30
0.00
 40
0.20
 41
0.20
  0
VERTEX
  8
CORSA_PLATE_FIX-EDGE_CUTS_GBR
 10
99.5906
 20
-88.2584
 30
0.00
  0
VERTEX
  8
CORSA_PLATE_FIX-EDGE_CUTS_GBR
 10
98.5906
 20
-87.2584
 30
0.00
  0
SEQEND
  0
POLYLINE
  8
CORSA_PLATE_FIX-EDGE_CUTS_GBR
 66
1
 10
0.00
 20
0.00
 30
0.00
 40
0.20
 41
0.20
  0
VERTEX
  8
CORSA_PLATE_FIX-EDGE_CUTS_GBR
 10
112.2906
 20
-88.2584
 30
0.00
  0
VERTEX
  8
CORSA_PLATE_FIX-EDGE_CUTS_GBR
 10
99.5906
 20
-88.2584
 30
0.00
  0
SEQEND
  0
POLYLINE
  8
CORSA_PLATE_FIX-EDGE_CUTS_GBR
 66
1
 10
0.00
 20
0.00
 30
0.00
 40
0.20
 41
0.20
  0
VERTEX
  8
CORSA_PLATE_FIX-EDGE_CUTS_GBR
 10
113.2906
 20
-87.2584
 30
0.00
  0
VERTEX
  8
CORSA_PLATE_FIX-EDGE_CUTS_GBR
 10
112.2906
 20
-88.2584
 30
0.00
  0
SEQEND
  0
POLYLINE
  8
CORSA_PLATE_FIX-EDGE_CUTS_GBR
 66
1
 10
0.00
 20
0.00
 30
0.00
 40
0.20
 41
0.20
  0
VERTEX
  8
CORSA_PLATE_FIX-EDGE_CUTS_GBR
 10
113.2906
 20
-75.1584
 30
0.00
  0
VERTEX
  8
CORSA_PLATE_FIX-EDGE_CUTS_GBR
 10
113.2906
 20
-87.2584
 30
0.00
  0
SEQEND
  0
POLYLINE
  8
CORSA_PLATE_FIX-EDGE_CUTS_GBR
 66
1
 10
0.00
 20
0.00
 30
0.00
 40
0.20
 41
0.20
  0
VERTEX
  8
CORSA_PLATE_FIX-EDGE_CUTS_GBR
 10
112.2906
 20
-74.1584
 30
0.00
  0
VERTEX
  8
CORSA_PLATE_FIX-EDGE_CUTS_GBR
 10
113.2906
 20
-75.1584
 30
0.00
  0
SEQEND
  0
POLYLINE
  8
CORSA_PLATE_FIX-EDGE_CUTS_GBR
 66
1
 10
0.00
 20
0.00
 30
0.00
 40
0.20
 41
0.20
  0
VERTEX
  8
CORSA_PLATE_FIX-EDGE_CUTS_GBR
 10
99.5906
 20
-74.1584
 30
0.00
  0
VERTEX
  8
CORSA_PLATE_FIX-EDGE_CUTS_GBR
 10
112.2906
 20
-74.1584
 30
0.00
  0
SEQEND
  0
POLYLINE
  8
CORSA_PLATE_FIX-EDGE_CUTS_GBR
 66
1
 10
0.00
 20
0.00
 30
0.00
 40
0.20
 41
0.20
  0
VERTEX
  8
CORSA_PLATE_FIX-EDGE_CUTS_GBR
 10
79.5406
 20
-75.1584
 30
0.00
  0
VERTEX
  8
CORSA_PLATE_FIX-EDGE_CUTS_GBR
 10
80.5406
 20
-74.1584
 30
0.00
  0
SEQEND
  0
POLYLINE
  8
CORSA_PLATE_FIX-EDGE_CUTS_GBR
 66
1
 10
0.00
 20
0.00
 30
0.00
 40
0.20
 41
0.20
  0
VERTEX
  8
CORSA_PLATE_FIX-EDGE_CUTS_GBR
 10
79.5406
 20
-87.2584
 30
0.00
  0
VERTEX
  8
CORSA_PLATE_FIX-EDGE_CUTS_GBR
 10
79.5406
 20
-75.1584
 30
0.00
  0
SEQEND
  0
POLYLINE
  8
CORSA_PLATE_FIX-EDGE_CUTS_GBR
 66
1
 10
0.00
 20
0.00
 30
0.00
 40
0.20
 41
0.20
  0
VERTEX
  8
CORSA_PLATE_FIX-EDGE_CUTS_GBR
 10
80.5406
 20
-88.2584
 30
0.00
  0
VERTEX
  8
CORSA_PLATE_FIX-EDGE_CUTS_GBR
 10
79.5406
 20
-87.2584
 30
0.00
  0
SEQEND
  0
POLYLINE
  8
CORSA_PLATE_FIX-EDGE_CUTS_GBR
 66
1
 10
0.00
 20
0.00
 30
0.00
 40
0.20
 41
0.20
  0
VERTEX
  8
CORSA_PLATE_FIX-EDGE_CUTS_GBR
 10
93.2406
 20
-88.2584
 30
0.00
  0
VERTEX
  8
CORSA_PLATE_FIX-EDGE_CUTS_GBR
 10
80.5406
 20
-88.2584
 30
0.00
  0
SEQEND
  0
POLYLINE
  8
CORSA_PLATE_FIX-EDGE_CUTS_GBR
 66
1
 10
0.00
 20
0.00
 30
0.00
 40
0.20
 41
0.20
  0
VERTEX
  8
CORSA_PLATE_FIX-EDGE_CUTS_GBR
 10
94.2406
 20
-87.2584
 30
0.00
  0
VERTEX
  8
CORSA_PLATE_FIX-EDGE_CUTS_GBR
 10
93.2406
 20
-88.2584
 30
0.00
  0
SEQEND
  0
POLYLINE
  8
CORSA_PLATE_FIX-EDGE_CUTS_GBR
 66
1
 10
0.00
 20
0.00
 30
0.00
 40
0.20
 41
0.20
  0
VERTEX
  8
CORSA_PLATE_FIX-EDGE_CUTS_GBR
 10
94.2406
 20
-75.1584
 30
0.00
  0
VERTEX
  8
CORSA_PLATE_FIX-EDGE_CUTS_GBR
 10
94.2406
 20
-87.2584
 30
0.00
  0
SEQEND
  0
POLYLINE
  8
CORSA_PLATE_FIX-EDGE_CUTS_GBR
 66
1
 10
0.00
 20
0.00
 30
0.00
 40
0.20
 41
0.20
  0
VERTEX
  8
CORSA_PLATE_FIX-EDGE_CUTS_GBR
 10
93.2406
 20
-74.1584
 30
0.00
  0
VERTEX
  8
CORSA_PLATE_FIX-EDGE_CUTS_GBR
 10
94.2406
 20
-75.1584
 30
0.00
  0
SEQEND
  0
POLYLINE
  8
CORSA_PLATE_FIX-EDGE_CUTS_GBR
 66
1
 10
0.00
 20
0.00
 30
0.00
 40
0.20
 41
0.20
  0
VERTEX
  8
CORSA_PLATE_FIX-EDGE_CUTS_GBR
 10
80.5406
 20
-74.1584
 30
0.00
  0
VERTEX
  8
CORSA_PLATE_FIX-EDGE_CUTS_GBR
 10
93.2406
 20
-74.1584
 30
0.00
  0
SEQEND
  0
POLYLINE
  8
CORSA_PLATE_FIX-EDGE_CUTS_GBR
 66
1
 10
0.00
 20
0.00
 30
0.00
 40
0.20
 41
0.20
  0
VERTEX
  8
CORSA_PLATE_FIX-EDGE_CUTS_GBR
 10
60.4906
 20
-75.1584
 30
0.00
  0
VERTEX
  8
CORSA_PLATE_FIX-EDGE_CUTS_GBR
 10
61.4906
 20
-74.1584
 30
0.00
  0
SEQEND
  0
POLYLINE
  8
CORSA_PLATE_FIX-EDGE_CUTS_GBR
 66
1
 10
0.00
 20
0.00
 30
0.00
 40
0.20
 41
0.20
  0
VERTEX
  8
CORSA_PLATE_FIX-EDGE_CUTS_GBR
 10
60.4906
 20
-87.2584
 30
0.00
  0
VERTEX
  8
CORSA_PLATE_FIX-EDGE_CUTS_GBR
 10
60.4906
 20
-75.1584
 30
0.00
  0
SEQEND
  0
POLYLINE
  8
CORSA_PLATE_FIX-EDGE_CUTS_GBR
 66
1
 10
0.00
 20
0.00
 30
0.00
 40
0.20
 41
0.20
  0
VERTEX
  8
CORSA_PLATE_FIX-EDGE_CUTS_GBR
 10
61.4906
 20
-88.2584
 30
0.00
  0
VERTEX
  8
CORSA_PLATE_FIX-EDGE_CUTS_GBR
 10
60.4906
 20
-87.2584
 30
0.00
  0
SEQEND
  0
POLYLINE
  8
CORSA_PLATE_FIX-EDGE_CUTS_GBR
 66
1
 10
0.00
 20
0.00
 30
0.00
 40
0.20
 41
0.20
  0
VERTEX
  8
CORSA_PLATE_FIX-EDGE_CUTS_GBR
 10
74.1906
 20
-88.2584
 30
0.00
  0
VERTEX
  8
CORSA_PLATE_FIX-EDGE_CUTS_GBR
 10
61.4906
 20
-88.2584
 30
0.00
  0
SEQEND
  0
POLYLINE
  8
CORSA_PLATE_FIX-EDGE_CUTS_GBR
 66
1
 10
0.00
 20
0.00
 30
0.00
 40
0.20
 41
0.20
  0
VERTEX
  8
CORSA_PLATE_FIX-EDGE_CUTS_GBR
 10
75.1906
 20
-87.2584
 30
0.00
  0
VERTEX
  8
CORSA_PLATE_FIX-EDGE_CUTS_GBR
 10
74.1906
 20
-88.2584
 30
0.00
  0
SEQEND
  0
POLYLINE
  8
CORSA_PLATE_FIX-EDGE_CUTS_GBR
 66
1
 10
0.00
 20
0.00
 30
0.00
 40
0.20
 41
0.20
  0
VERTEX
  8
CORSA_PLATE_FIX-EDGE_CUTS_GBR
 10
75.1906
 20
-75.1584
 30
0.00
  0
VERTEX
  8
CORSA_PLATE_FIX-EDGE_CUTS_GBR
 10
75.1906
 20
-87.2584
 30
0.00
  0
SEQEND
  0
POLYLINE
  8
CORSA_PLATE_FIX-EDGE_CUTS_GBR
 66
1
 10
0.00
 20
0.00
 30
0.00
 40
0.20
 41
0.20
  0
VERTEX
  8
CORSA_PLATE_FIX-EDGE_CUTS_GBR
 10
74.1906
 20
-74.1584
 30
0.00
  0
VERTEX
  8
CORSA_PLATE_FIX-EDGE_CUTS_GBR
 10
75.1906
 20
-75.1584
 30
0.00
  0
SEQEND
  0
POLYLINE
  8
CORSA_PLATE_FIX-EDGE_CUTS_GBR
 66
1
 10
0.00
 20
0.00
 30
0.00
 40
0.20
 41
0.20
  0
VERTEX
  8
CORSA_PLATE_FIX-EDGE_CUTS_GBR
 10
61.4906
 20
-74.1584
 30
0.00
  0
VERTEX
  8
CORSA_PLATE_FIX-EDGE_CUTS_GBR
 10
74.1906
 20
-74.1584
 30
0.00
  0
SEQEND
  0
POLYLINE
  8
CORSA_PLATE_FIX-EDGE_CUTS_GBR
 66
1
 10
0.00
 20
0.00
 30
0.00
 40
0.20
 41
0.20
  0
VERTEX
  8
CORSA_PLATE_FIX-EDGE_CUTS_GBR
 10
198.1906
 20
-69.7084
 30
0.00
  0
VERTEX
  8
CORSA_PLATE_FIX-EDGE_CUTS_GBR
 10
198.1906
 20
-67.2084
 30
0.00
  0
SEQEND
  0
POLYLINE
  8
CORSA_PLATE_FIX-EDGE_CUTS_GBR
 66
1
 10
0.00
 20
0.00
 30
0.00
 40
0.20
 41
0.20
  0
VERTEX
  8
CORSA_PLATE_FIX-EDGE_CUTS_GBR
 10
204.1906
 20
-67.2084
 30
0.00
  0
VERTEX
  8
CORSA_PLATE_FIX-EDGE_CUTS_GBR
 10
204.1906
 20
-69.7084
 30
0.00
  0
SEQEND
  0
POLYLINE
  8
CORSA_PLATE_FIX-EDGE_CUTS_GBR
 66
1
 10
0.00
 20
0.00
 30
0.00
 40
0.20
 41
0.20
  0
VERTEX
  8
CORSA_PLATE_FIX-EDGE_CUTS_GBR
 10
77.3406
 20
-67.2084
 30
0.00
  0
VERTEX
  8
CORSA_PLATE_FIX-EDGE_CUTS_GBR
 10
77.3406
 20
-69.7084
 30
0.00
  0
SEQEND
  0
POLYLINE
  8
CORSA_PLATE_FIX-EDGE_CUTS_GBR
 66
1
 10
0.00
 20
0.00
 30
0.00
 40
0.20
 41
0.20
  0
VERTEX
  8
CORSA_PLATE_FIX-EDGE_CUTS_GBR
 10
83.3406
 20
-69.7084
 30
0.00
  0
VERTEX
  8
CORSA_PLATE_FIX-EDGE_CUTS_GBR
 10
83.3406
 20
-67.2084
 30
0.00
  0
SEQEND
  0
POLYLINE
  8
CORSA_PLATE_FIX-EDGE_CUTS_GBR
 66
1
 10
0.00
 20
0.00
 30
0.00
 40
0.20
 41
0.20
  0
VERTEX
  8
CORSA_PLATE_FIX-EDGE_CUTS_GBR
 10
83.3406
 20
-170.9084
 30
0.00
  0
VERTEX
  8
CORSA_PLATE_FIX-EDGE_CUTS_GBR
 10
83.3406
 20
-168.9084
 30
0.00
  0
SEQEND
  0
POLYLINE
  8
CORSA_PLATE_FIX-EDGE_CUTS_GBR
 66
1
 10
0.00
 20
0.00
 30
0.00
 40
0.20
 41
0.20
  0
VERTEX
  8
CORSA_PLATE_FIX-EDGE_CUTS_GBR
 10
77.3406
 20
-168.9084
 30
0.00
  0
VERTEX
  8
CORSA_PLATE_FIX-EDGE_CUTS_GBR
 10
77.3406
 20
-170.9084
 30
0.00
  0
SEQEND
  0
POLYLINE
  8
CORSA_PLATE_FIX-EDGE_CUTS_GBR
 66
1
 10
0.00
 20
0.00
 30
0.00
 40
0.20
 41
0.20
  0
VERTEX
  8
CORSA_PLATE_FIX-EDGE_CUTS_GBR
 10
321.0406
 20
-65.2084
 30
0.00
 42
0.4142136
  0
VERTEX
  8
CORSA_PLATE_FIX-EDGE_CUTS_GBR
 10
319.0406
 20
-67.2084
 30
0.00
 42
0.00
  0
SEQEND
  0
POLYLINE
  8
CORSA_PLATE_FIX-EDGE_CUTS_GBR
 66
1
 10
0.00
 20
0.00
 30
0.00
 40
0.20
 41
0.20
  0
VERTEX
  8
CORSA_PLATE_FIX-EDGE_CUTS_GBR
 10
325.0406
 20
-67.2084
 30
0.00
 42
0.4142136
  0
VERTEX
  8
CORSA_PLATE_FIX-EDGE_CUTS_GBR
 10
323.0406
 20
-65.2084
 30
0.00
 42
0.00
  0
SEQEND
  0
POLYLINE
  8
CORSA_PLATE_FIX-EDGE_CUTS_GBR
 66
1
 10
0.00
 20
0.00
 30
0.00
 70
1
 40
0.20
 41
0.20
  0
VERTEX
  8
CORSA_PLATE_FIX-EDGE_CUTS_GBR
 10
339.5406
 20
-170.4084
 30
0.00
 42
1
  0
VERTEX
  8
CORSA_PLATE_FIX-EDGE_CUTS_GBR
 10
342.6406
 20
-170.4084
 30
0.00
 42
1
  0
SEQEND
  0
POLYLINE
  8
CORSA_PLATE_FIX-EDGE_CUTS_GBR
 66
1
 10
0.00
 20
0.00
 30
0.00
 40
0.20
 41
0.20
  0
VERTEX
  8
CORSA_PLATE_FIX-EDGE_CUTS_GBR
 10
317.0406
 20
-71.7084
 30
0.00
 42
0.4142136
  0
VERTEX
  8
CORSA_PLATE_FIX-EDGE_CUTS_GBR
 10
319.0406
 20
-69.7084
 30
0.00
 42
0.00
  0
SEQEND
  0
POLYLINE
  8
CORSA_PLATE_FIX-EDGE_CUTS_GBR
 66
1
 10
0.00
 20
0.00
 30
0.00
 70
1
 40
0.20
 41
0.20
  0
VERTEX
  8
CORSA_PLATE_FIX-EDGE_CUTS_GBR
 10
237.69755
 20
-170.4084
 30
0.00
 42
1
  0
VERTEX
  8
CORSA_PLATE_FIX-EDGE_CUTS_GBR
 10
240.79755
 20
-170.4084
 30
0.00
 42
1
  0
SEQEND
  0
POLYLINE
  8
CORSA_PLATE_FIX-EDGE_CUTS_GBR
 66
1
 10
0.00
 20
0.00
 30
0.00
 40
0.20
 41
0.20
  0
VERTEX
  8
CORSA_PLATE_FIX-EDGE_CUTS_GBR
 10
325.0406
 20
-69.7084
 30
0.00
 42
0.4142136
  0
VERTEX
  8
CORSA_PLATE_FIX-EDGE_CUTS_GBR
 10
327.0406
 20
-71.7084
 30
0.00
 42
0.00
  0
SEQEND
  0
POLYLINE
  8
CORSA_PLATE_FIX-EDGE_CUTS_GBR
 66
1
 10
0.00
 20
0.00
 30
0.00
 70
1
 40
0.20
 41
0.20
  0
VERTEX
  8
CORSA_PLATE_FIX-EDGE_CUTS_GBR
 10
320.4906
 20
-68.708572
 30
0.00
 42
1
  0
VERTEX
  8
CORSA_PLATE_FIX-EDGE_CUTS_GBR
 10
323.5906
 20
-68.708572
 30
0.00
 42
1
  0
SEQEND
  0
POLYLINE
  8
CORSA_PLATE_FIX-EDGE_CUTS_GBR
 66
1
 10
0.00
 20
0.00
 30
0.00
 40
0.20
 41
0.20
  0
VERTEX
  8
CORSA_PLATE_FIX-EDGE_CUTS_GBR
 10
363.0906
 20
-164.9084
 30
0.00
  0
VERTEX
  8
CORSA_PLATE_FIX-EDGE_CUTS_GBR
 10
363.0906
 20
-93.7084
 30
0.00
  0
SEQEND
  0
POLYLINE
  8
CORSA_PLATE_FIX-EDGE_CUTS_GBR
 66
1
 10
0.00
 20
0.00
 30
0.00
 40
0.20
 41
0.20
  0
VERTEX
  8
CORSA_PLATE_FIX-EDGE_CUTS_GBR
 10
204.1906
 20
-69.7084
 30
0.00
 42
0.4142136
  0
VERTEX
  8
CORSA_PLATE_FIX-EDGE_CUTS_GBR
 10
206.1906
 20
-71.7084
 30
0.00
 42
0.00
  0
SEQEND
  0
POLYLINE
  8
CORSA_PLATE_FIX-EDGE_CUTS_GBR
 66
1
 10
0.00
 20
0.00
 30
0.00
 70
1
 40
0.20
 41
0.20
  0
VERTEX
  8
CORSA_PLATE_FIX-EDGE_CUTS_GBR
 10
78.7906
 20
-170.4084
 30
0.00
 42
1
  0
VERTEX
  8
CORSA_PLATE_FIX-EDGE_CUTS_GBR
 10
81.8906
 20
-170.4084
 30
0.00
 42
1
  0
SEQEND
  0
POLYLINE
  8
CORSA_PLATE_FIX-EDGE_CUTS_GBR
 66
1
 10
0.00
 20
0.00
 30
0.00
 40
0.20
 41
0.20
  0
VERTEX
  8
CORSA_PLATE_FIX-EDGE_CUTS_GBR
 10
338.0906
 20
-168.9084
 30
0.00
 42
0.4142136
  0
VERTEX
  8
CORSA_PLATE_FIX-EDGE_CUTS_GBR
 10
336.0906
 20
-166.9084
 30
0.00
 42
0.00
  0
SEQEND
  0
POLYLINE
  8
CORSA_PLATE_FIX-EDGE_CUTS_GBR
 66
1
 10
0.00
 20
0.00
 30
0.00
 40
0.20
 41
0.20
  0
VERTEX
  8
CORSA_PLATE_FIX-EDGE_CUTS_GBR
 10
236.24755
 20
-168.9084
 30
0.00
 42
0.4142136
  0
VERTEX
  8
CORSA_PLATE_FIX-EDGE_CUTS_GBR
 10
234.24755
 20
-166.9084
 30
0.00
 42
0.00
  0
SEQEND
  0
POLYLINE
  8
CORSA_PLATE_FIX-EDGE_CUTS_GBR
 66
1
 10
0.00
 20
0.00
 30
0.00
 40
0.20
 41
0.20
  0
VERTEX
  8
CORSA_PLATE_FIX-EDGE_CUTS_GBR
 10
236.24755
 20
-170.9084
 30
0.00
 42
0.4142136
  0
VERTEX
  8
CORSA_PLATE_FIX-EDGE_CUTS_GBR
 10
238.24755
 20
-172.9084
 30
0.00
 42
0.00
  0
SEQEND
  0
POLYLINE
  8
CORSA_PLATE_FIX-EDGE_CUTS_GBR
 66
1
 10
0.00
 20
0.00
 30
0.00
 40
0.20
 41
0.20
  0
VERTEX
  8
CORSA_PLATE_FIX-EDGE_CUTS_GBR
 10
240.24755
 20
-172.9084
 30
0.00
 42
0.4142136
  0
VERTEX
  8
CORSA_PLATE_FIX-EDGE_CUTS_GBR
 10
242.24755
 20
-170.9084
 30
0.00
 42
0.00
  0
SEQEND
  0
POLYLINE
  8
CORSA_PLATE_FIX-EDGE_CUTS_GBR
 66
1
 10
0.00
 20
0.00
 30
0.00
 70
1
 40
0.20
 41
0.20
  0
VERTEX
  8
CORSA_PLATE_FIX-EDGE_CUTS_GBR
 10
199.6406
 20
-68.7084
 30
0.00
 42
1
  0
VERTEX
  8
CORSA_PLATE_FIX-EDGE_CUTS_GBR
 10
202.7406
 20
-68.7084
 30
0.00
 42
1
  0
SEQEND
  0
POLYLINE
  8
CORSA_PLATE_FIX-EDGE_CUTS_GBR
 66
1
 10
0.00
 20
0.00
 30
0.00
 40
0.20
 41
0.20
  0
VERTEX
  8
CORSA_PLATE_FIX-EDGE_CUTS_GBR
 10
244.24755
 20
-166.9084
 30
0.00
 42
0.4142136
  0
VERTEX
  8
CORSA_PLATE_FIX-EDGE_CUTS_GBR
 10
242.24755
 20
-168.9084
 30
0.00
 42
0.00
  0
SEQEND
  0
POLYLINE
  8
CORSA_PLATE_FIX-EDGE_CUTS_GBR
 66
1
 10
0.00
 20
0.00
 30
0.00
 40
0.20
 41
0.20
  0
VERTEX
  8
CORSA_PLATE_FIX-EDGE_CUTS_GBR
 10
200.1906
 20
-65.2084
 30
0.00
 42
0.4142136
  0
VERTEX
  8
CORSA_PLATE_FIX-EDGE_CUTS_GBR
 10
198.1906
 20
-67.2084
 30
0.00
 42
0.00
  0
SEQEND
  0
POLYLINE
  8
CORSA_PLATE_FIX-EDGE_CUTS_GBR
 66
1
 10
0.00
 20
0.00
 30
0.00
 40
0.20
 41
0.20
  0
VERTEX
  8
CORSA_PLATE_FIX-EDGE_CUTS_GBR
 10
85.3406
 20
-166.9084
 30
0.00
 42
0.4142136
  0
VERTEX
  8
CORSA_PLATE_FIX-EDGE_CUTS_GBR
 10
83.3406
 20
-168.9084
 30
0.00
 42
0.00
  0
SEQEND
  0
POLYLINE
  8
CORSA_PLATE_FIX-EDGE_CUTS_GBR
 66
1
 10
0.00
 20
0.00
 30
0.00
 40
0.20
 41
0.20
  0
VERTEX
  8
CORSA_PLATE_FIX-EDGE_CUTS_GBR
 10
342.0906
 20
-172.9084
 30
0.00
 42
0.4142136
  0
VERTEX
  8
CORSA_PLATE_FIX-EDGE_CUTS_GBR
 10
344.0906
 20
-170.9084
 30
0.00
 42
0.00
  0
SEQEND
  0
POLYLINE
  8
CORSA_PLATE_FIX-EDGE_CUTS_GBR
 66
1
 10
0.00
 20
0.00
 30
0.00
 40
0.20
 41
0.20
  0
VERTEX
  8
CORSA_PLATE_FIX-EDGE_CUTS_GBR
 10
361.0906
 20
-166.9084
 30
0.00
 42
0.4142136
  0
VERTEX
  8
CORSA_PLATE_FIX-EDGE_CUTS_GBR
 10
363.0906
 20
-164.9084
 30
0.00
 42
0.00
  0
SEQEND
  0
POLYLINE
  8
CORSA_PLATE_FIX-EDGE_CUTS_GBR
 66
1
 10
0.00
 20
0.00
 30
0.00
 70
1
 40
0.20
 41
0.20
  0
VERTEX
  8
CORSA_PLATE_FIX-EDGE_CUTS_GBR
 10
78.7906
 20
-68.7084
 30
0.00
 42
1
  0
VERTEX
  8
CORSA_PLATE_FIX-EDGE_CUTS_GBR
 10
81.8906
 20
-68.7084
 30
0.00
 42
1
  0
SEQEND
  0
POLYLINE
  8
CORSA_PLATE_FIX-EDGE_CUTS_GBR
 66
1
 10
0.00
 20
0.00
 30
0.00
 40
0.20
 41
0.20
  0
VERTEX
  8
CORSA_PLATE_FIX-EDGE_CUTS_GBR
 10
196.1906
 20
-71.7084
 30
0.00
 42
0.4142136
  0
VERTEX
  8
CORSA_PLATE_FIX-EDGE_CUTS_GBR
 10
198.1906
 20
-69.7084
 30
0.00
 42
0.00
  0
SEQEND
  0
POLYLINE
  8
CORSA_PLATE_FIX-EDGE_CUTS_GBR
 66
1
 10
0.00
 20
0.00
 30
0.00
 40
0.20
 41
0.20
  0
VERTEX
  8
CORSA_PLATE_FIX-EDGE_CUTS_GBR
 10
83.3406
 20
-67.2084
 30
0.00
 42
0.4142136
  0
VERTEX
  8
CORSA_PLATE_FIX-EDGE_CUTS_GBR
 10
81.3406
 20
-65.2084
 30
0.00
 42
0.00
  0
SEQEND
  0
POLYLINE
  8
CORSA_PLATE_FIX-EDGE_CUTS_GBR
 66
1
 10
0.00
 20
0.00
 30
0.00
 40
0.20
 41
0.20
  0
VERTEX
  8
CORSA_PLATE_FIX-EDGE_CUTS_GBR
 10
60.3406
 20
-71.7084
 30
0.00
 42
0.4142136
  0
VERTEX
  8
CORSA_PLATE_FIX-EDGE_CUTS_GBR
 10
58.3406
 20
-73.7084
 30
0.00
 42
0.00
  0
SEQEND
  0
POLYLINE
  8
CORSA_PLATE_FIX-EDGE_CUTS_GBR
 66
1
 10
0.00
 20
0.00
 30
0.00
 40
0.20
 41
0.20
  0
VERTEX
  8
CORSA_PLATE_FIX-EDGE_CUTS_GBR
 10
77.3406
 20
-170.9084
 30
0.00
 42
0.4142136
  0
VERTEX
  8
CORSA_PLATE_FIX-EDGE_CUTS_GBR
 10
79.3406
 20
-172.9084
 30
0.00
 42
0.00
  0
SEQEND
  0
POLYLINE
  8
CORSA_PLATE_FIX-EDGE_CUTS_GBR
 66
1
 10
0.00
 20
0.00
 30
0.00
 40
0.20
 41
0.20
  0
VERTEX
  8
CORSA_PLATE_FIX-EDGE_CUTS_GBR
 10
81.3406
 20
-172.9084
 30
0.00
 42
0.4142136
  0
VERTEX
  8
CORSA_PLATE_FIX-EDGE_CUTS_GBR
 10
83.3406
 20
-170.9084
 30
0.00
 42
0.00
  0
SEQEND
  0
POLYLINE
  8
CORSA_PLATE_FIX-EDGE_CUTS_GBR
 66
1
 10
0.00
 20
0.00
 30
0.00
 40
0.20
 41
0.20
  0
VERTEX
  8
CORSA_PLATE_FIX-EDGE_CUTS_GBR
 10
77.3406
 20
-168.9084
 30
0.00
 42
0.4142136
  0
VERTEX
  8
CORSA_PLATE_FIX-EDGE_CUTS_GBR
 10
75.3406
 20
-166.9084
 30
0.00
 42
0.00
  0
SEQEND
  0
POLYLINE
  8
CORSA_PLATE_FIX-EDGE_CUTS_GBR
 66
1
 10
0.00
 20
0.00
 30
0.00
 40
0.20
 41
0.20
  0
VERTEX
  8
CORSA_PLATE_FIX-EDGE_CUTS_GBR
 10
338.0906
 20
-170.9084
 30
0.00
 42
0.4142136
  0
VERTEX
  8
CORSA_PLATE_FIX-EDGE_CUTS_GBR
 10
340.0906
 20
-172.9084
 30
0.00
 42
0.00
  0
SEQEND
  0
POLYLINE
  8
CORSA_PLATE_FIX-EDGE_CUTS_GBR
 66
1
 10
0.00
 20
0.00
 30
0.00
 40
0.20
 41
0.20
  0
VERTEX
  8
CORSA_PLATE_FIX-EDGE_CUTS_GBR
 10
58.3406
 20
-164.9084
 30
0.00
 42
0.4142136
  0
VERTEX
  8
CORSA_PLATE_FIX-EDGE_CUTS_GBR
 10
60.3406
 20
-166.9084
 30
0.00
 42
0.00
  0
SEQEND
  0
POLYLINE
  8
CORSA_PLATE_FIX-EDGE_CUTS_GBR
 66
1
 10
0.00
 20
0.00
 30
0.00
 40
0.20
 41
0.20
  0
VERTEX
  8
CORSA_PLATE_FIX-EDGE_CUTS_GBR
 10
346.0906
 20
-166.9084
 30
0.00
 42
0.4142136
  0
VERTEX
  8
CORSA_PLATE_FIX-EDGE_CUTS_GBR
 10
344.0906
 20
-168.9084
 30
0.00
 42
0.00
  0
SEQEND
  0
POLYLINE
  8
CORSA_PLATE_FIX-EDGE_CUTS_GBR
 66
1
 10
0.00
 20
0.00
 30
0.00
 40
0.20
 41
0.20
  0
VERTEX
  8
CORSA_PLATE_FIX-EDGE_CUTS_GBR
 10
83.3406
 20
-69.7084
 30
0.00
 42
0.4142136
  0
VERTEX
  8
CORSA_PLATE_FIX-EDGE_CUTS_GBR
 10
85.3406
 20
-71.7084
 30
0.00
 42
0.00
  0
SEQEND
  0
POLYLINE
  8
CORSA_PLATE_FIX-EDGE_CUTS_GBR
 66
1
 10
0.00
 20
0.00
 30
0.00
 40
0.20
 41
0.20
  0
VERTEX
  8
CORSA_PLATE_FIX-EDGE_CUTS_GBR
 10
204.1906
 20
-67.2084
 30
0.00
 42
0.4142136
  0
VERTEX
  8
CORSA_PLATE_FIX-EDGE_CUTS_GBR
 10
202.1906
 20
-65.2084
 30
0.00
 42
0.00
  0
SEQEND
  0
POLYLINE
  8
CORSA_PLATE_FIX-EDGE_CUTS_GBR
 66
1
 10
0.00
 20
0.00
 30
0.00
 40
0.20
 41
0.20
  0
VERTEX
  8
CORSA_PLATE_FIX-EDGE_CUTS_GBR
 10
79.3406
 20
-65.2084
 30
0.00
 42
0.4142136
  0
VERTEX
  8
CORSA_PLATE_FIX-EDGE_CUTS_GBR
 10
77.3406
 20
-67.2084
 30
0.00
 42
0.00
  0
SEQEND
  0
POLYLINE
  8
CORSA_PLATE_FIX-EDGE_CUTS_GBR
 66
1
 10
0.00
 20
0.00
 30
0.00
 40
0.20
 41
0.20
  0
VERTEX
  8
CORSA_PLATE_FIX-EDGE_CUTS_GBR
 10
75.3406
 20
-71.7084
 30
0.00
 42
0.4142136
  0
VERTEX
  8
CORSA_PLATE_FIX-EDGE_CUTS_GBR
 10
77.3406
 20
-69.7084
 30
0.00
 42
0.00
  0
SEQEND
  0
POLYLINE
  8
CORSA_PLATE_FIX-EDGE_CUTS_GBR
 66
1
 10
0.00
 20
0.00
 30
0.00
 40
0.20
 41
0.20
  0
VERTEX
  8
CORSA_PLATE_FIX-EDGE_CUTS_GBR
 10
338.0906
 20
-168.9084
 30
0.00
  0
VERTEX
  8
CORSA_PLATE_FIX-EDGE_CUTS_GBR
 10
338.0906
 20
-170.9084
 30
0.00
  0
SEQEND
  0
POLYLINE
  8
CORSA_PLATE_FIX-EDGE_CUTS_GBR
 66
1
 10
0.00
 20
0.00
 30
0.00
 40
0.20
 41
0.20
  0
VERTEX
  8
CORSA_PLATE_FIX-EDGE_CUTS_GBR
 10
319.0406
 20
-67.2084
 30
0.00
  0
VERTEX
  8
CORSA_PLATE_FIX-EDGE_CUTS_GBR
 10
319.0406
 20
-69.7084
 30
0.00
  0
SEQEND
  0
POLYLINE
  8
CORSA_PLATE_FIX-EDGE_CUTS_GBR
 66
1
 10
0.00
 20
0.00
 30
0.00
 40
0.20
 41
0.20
  0
VERTEX
  8
CORSA_PLATE_FIX-EDGE_CUTS_GBR
 10
325.0406
 20
-69.7084
 30
0.00
  0
VERTEX
  8
CORSA_PLATE_FIX-EDGE_CUTS_GBR
 10
325.0406
 20
-67.2084
 30
0.00
  0
SEQEND
  0
POLYLINE
  8
CORSA_PLATE_FIX-EDGE_CUTS_GBR
 66
1
 10
0.00
 20
0.00
 30
0.00
 40
0.20
 41
0.20
  0
VERTEX
  8
CORSA_PLATE_FIX-EDGE_CUTS_GBR
 10
344.0906
 20
-170.9084
 30
0.00
  0
VERTEX
  8
CORSA_PLATE_FIX-EDGE_CUTS_GBR
 10
344.0906
 20
-168.9084
 30
0.00
  0
SEQEND
  0
POLYLINE
  8
CORSA_PLATE_FIX-EDGE_CUTS_GBR
 66
1
 10
0.00
 20
0.00
 30
0.00
 40
0.20
 41
0.20
  0
VERTEX
  8
CORSA_PLATE_FIX-EDGE_CUTS_GBR
 10
200.1906
 20
-65.2084
 30
0.00
  0
VERTEX
  8
CORSA_PLATE_FIX-EDGE_CUTS_GBR
 10
202.1906
 20
-65.2084
 30
0.00
  0
SEQEND
  0
POLYLINE
  8
CORSA_PLATE_FIX-EDGE_CUTS_GBR
 66
1
 10
0.00
 20
0.00
 30
0.00
 40
0.20
 41
0.20
  0
VERTEX
  8
CORSA_PLATE_FIX-EDGE_CUTS_GBR
 10
81.3406
 20
-65.2084
 30
0.00
  0
VERTEX
  8
CORSA_PLATE_FIX-EDGE_CUTS_GBR
 10
79.3406
 20
-65.2084
 30
0.00
  0
SEQEND
  0
POLYLINE
  8
CORSA_PLATE_FIX-EDGE_CUTS_GBR
 66
1
 10
0.00
 20
0.00
 30
0.00
 40
0.20
 41
0.20
  0
VERTEX
  8
CORSA_PLATE_FIX-EDGE_CUTS_GBR
 10
317.0406
 20
-71.7084
 30
0.00
  0
VERTEX
  8
CORSA_PLATE_FIX-EDGE_CUTS_GBR
 10
206.1906
 20
-71.7084
 30
0.00
  0
SEQEND
  0
POLYLINE
  8
CORSA_PLATE_FIX-EDGE_CUTS_GBR
 66
1
 10
0.00
 20
0.00
 30
0.00
 40
0.20
 41
0.20
  0
VERTEX
  8
CORSA_PLATE_FIX-EDGE_CUTS_GBR
 10
323.0406
 20
-65.2084
 30
0.00
  0
VERTEX
  8
CORSA_PLATE_FIX-EDGE_CUTS_GBR
 10
321.0406
 20
-65.2084
 30
0.00
  0
SEQEND
  0
POLYLINE
  8
CORSA_PLATE_FIX-EDGE_CUTS_GBR
 66
1
 10
0.00
 20
0.00
 30
0.00
 40
0.20
 41
0.20
  0
VERTEX
  8
CORSA_PLATE_FIX-EDGE_CUTS_GBR
 10
196.1906
 20
-71.7084
 30
0.00
  0
VERTEX
  8
CORSA_PLATE_FIX-EDGE_CUTS_GBR
 10
85.3406
 20
-71.7084
 30
0.00
  0
SEQEND
  0
POLYLINE
  8
CORSA_PLATE_FIX-EDGE_CUTS_GBR
 66
1
 10
0.00
 20
0.00
 30
0.00
 40
0.20
 41
0.20
  0
VERTEX
  8
CORSA_PLATE_FIX-EDGE_CUTS_GBR
 10
75.3406
 20
-71.7084
 30
0.00
  0
VERTEX
  8
CORSA_PLATE_FIX-EDGE_CUTS_GBR
 10
60.3406
 20
-71.7084
 30
0.00
  0
SEQEND
  0
POLYLINE
  8
CORSA_PLATE_FIX-EDGE_CUTS_GBR
 66
1
 10
0.00
 20
0.00
 30
0.00
 40
0.20
 41
0.20
  0
VERTEX
  8
CORSA_PLATE_FIX-EDGE_CUTS_GBR
 10
58.3406
 20
-164.9084
 30
0.00
  0
VERTEX
  8
CORSA_PLATE_FIX-EDGE_CUTS_GBR
 10
58.3406
 20
-73.7084
 30
0.00
  0
SEQEND
  0
POLYLINE
  8
CORSA_PLATE_FIX-EDGE_CUTS_GBR
 66
1
 10
0.00
 20
0.00
 30
0.00
 40
0.20
 41
0.20
  0
VERTEX
  8
CORSA_PLATE_FIX-EDGE_CUTS_GBR
 10
236.24755
 20
-170.9084
 30
0.00
  0
VERTEX
  8
CORSA_PLATE_FIX-EDGE_CUTS_GBR
 10
236.24755
 20
-168.9084
 30
0.00
  0
SEQEND
  0
POLYLINE
  8
CORSA_PLATE_FIX-EDGE_CUTS_GBR
 66
1
 10
0.00
 20
0.00
 30
0.00
 40
0.20
 41
0.20
  0
VERTEX
  8
CORSA_PLATE_FIX-EDGE_CUTS_GBR
 10
242.24755
 20
-168.9084
 30
0.00
  0
VERTEX
  8
CORSA_PLATE_FIX-EDGE_CUTS_GBR
 10
242.24755
 20
-170.9084
 30
0.00
  0
SEQEND
  0
POLYLINE
  8
CORSA_PLATE_FIX-EDGE_CUTS_GBR
 66
1
 10
0.00
 20
0.00
 30
0.00
 40
0.20
 41
0.20
  0
VERTEX
  8
CORSA_PLATE_FIX-EDGE_CUTS_GBR
 10
79.3406
 20
-172.9084
 30
0.00
  0
VERTEX
  8
CORSA_PLATE_FIX-EDGE_CUTS_GBR
 10
81.3406
 20
-172.9084
 30
0.00
  0
SEQEND
  0
POLYLINE
  8
CORSA_PLATE_FIX-EDGE_CUTS_GBR
 66
1
 10
0.00
 20
0.00
 30
0.00
 40
0.20
 41
0.20
  0
VERTEX
  8
CORSA_PLATE_FIX-EDGE_CUTS_GBR
 10
238.24755
 20
-172.9084
 30
0.00
  0
VERTEX
  8
CORSA_PLATE_FIX-EDGE_CUTS_GBR
 10
240.24755
 20
-172.9084
 30
0.00
  0
SEQEND
  0
POLYLINE
  8
CORSA_PLATE_FIX-EDGE_CUTS_GBR
 66
1
 10
0.00
 20
0.00
 30
0.00
 40
0.20
 41
0.20
  0
VERTEX
  8
CORSA_PLATE_FIX-EDGE_CUTS_GBR
 10
60.3406
 20
-166.9084
 30
0.00
  0
VERTEX
  8
CORSA_PLATE_FIX-EDGE_CUTS_GBR
 10
75.3406
 20
-166.9084
 30
0.00
  0
SEQEND
  0
POLYLINE
  8
CORSA_PLATE_FIX-EDGE_CUTS_GBR
 66
1
 10
0.00
 20
0.00
 30
0.00
 40
0.20
 41
0.20
  0
VERTEX
  8
CORSA_PLATE_FIX-EDGE_CUTS_GBR
 10
244.24755
 20
-166.9084
 30
0.00
  0
VERTEX
  8
CORSA_PLATE_FIX-EDGE_CUTS_GBR
 10
336.0906
 20
-166.9084
 30
0.00
  0
SEQEND
  0
POLYLINE
  8
CORSA_PLATE_FIX-EDGE_CUTS_GBR
 66
1
 10
0.00
 20
0.00
 30
0.00
 40
0.20
 41
0.20
  0
VERTEX
  8
CORSA_PLATE_FIX-EDGE_CUTS_GBR
 10
346.0906
 20
-166.9084
 30
0.00
  0
VERTEX
  8
CORSA_PLATE_FIX-EDGE_CUTS_GBR
 10
361.0906
 20
-166.9084
 30
0.00
  0
SEQEND
  0
POLYLINE
  8
CORSA_PLATE_FIX-EDGE_CUTS_GBR
 66
1
 10
0.00
 20
0.00
 30
0.00
 40
0.20
 41
0.20
  0
VERTEX
  8
CORSA_PLATE_FIX-EDGE_CUTS_GBR
 10
85.3406
 20
-166.9084
 30
0.00
  0
VERTEX
  8
CORSA_PLATE_FIX-EDGE_CUTS_GBR
 10
234.24755
 20
-166.9084
 30
0.00
  0
SEQEND
  0
POLYLINE
  8
CORSA_PLATE_FIX-EDGE_CUTS_GBR
 66
1
 10
0.00
 20
0.00
 30
0.00
 40
0.20
 41
0.20
  0
VERTEX
  8
CORSA_PLATE_FIX-EDGE_CUTS_GBR
 10
340.0906
 20
-172.9084
 30
0.00
  0
VERTEX
  8
CORSA_PLATE_FIX-EDGE_CUTS_GBR
 10
342.0906
 20
-172.9084
 30
0.00
  0
SEQEND
  0
POLYLINE
  8
CORSA_PLATE_FIX-EDGE_CUTS_GBR
 66
1
 10
0.00
 20
0.00
 30
0.00
 40
0.20
 41
0.20
  0
VERTEX
  8
CORSA_PLATE_FIX-EDGE_CUTS_GBR
 10
235.95795
 20
-156.908398
 30
0.00
 42
0.4142136
  0
VERTEX
  8
CORSA_PLATE_FIX-EDGE_CUTS_GBR
 10
234.95795
 20
-157.908398
 30
0.00
 42
0.00
  0
SEQEND
  0
POLYLINE
  8
CORSA_PLATE_FIX-EDGE_CUTS_GBR
 66
1
 10
0.00
 20
0.00
 30
0.00
 40
0.20
 41
0.20
  0
VERTEX
  8
CORSA_PLATE_FIX-EDGE_CUTS_GBR
 10
143.60795
 20
-157.9084
 30
0.00
 42
0.4142136
  0
VERTEX
  8
CORSA_PLATE_FIX-EDGE_CUTS_GBR
 10
142.60795
 20
-156.9084
 30
0.00
 42
0.00
  0
SEQEND
  0
POLYLINE
  8
CORSA_PLATE_FIX-EDGE_CUTS_GBR
 66
1
 10
0.00
 20
0.00
 30
0.00
 40
0.20
 41
0.20
  0
VERTEX
  8
CORSA_PLATE_FIX-EDGE_CUTS_GBR
 10
235.95795
 20
-159.908396
 30
0.00
  0
VERTEX
  8
CORSA_PLATE_FIX-EDGE_CUTS_GBR
 10
235.95795
 20
-161.15815
 30
0.00
  0
SEQEND
  0
POLYLINE
  8
CORSA_PLATE_FIX-EDGE_CUTS_GBR
 66
1
 10
0.00
 20
0.00
 30
0.00
 40
0.20
 41
0.20
  0
VERTEX
  8
CORSA_PLATE_FIX-EDGE_CUTS_GBR
 10
234.95795
 20
-158.908398
 30
0.00
  0
VERTEX
  8
CORSA_PLATE_FIX-EDGE_CUTS_GBR
 10
234.95795
 20
-157.908398
 30
0.00
  0
SEQEND
  0
POLYLINE
  8
CORSA_PLATE_FIX-EDGE_CUTS_GBR
 66
1
 10
0.00
 20
0.00
 30
0.00
 40
0.20
 41
0.20
  0
VERTEX
  8
CORSA_PLATE_FIX-EDGE_CUTS_GBR
 10
234.95795
 20
-158.908398
 30
0.00
 42
0.4142141
  0
VERTEX
  8
CORSA_PLATE_FIX-EDGE_CUTS_GBR
 10
235.95795
 20
-159.908396
 30
0.00
 42
0.00
  0
SEQEND
  0
POLYLINE
  8
CORSA_PLATE_FIX-EDGE_CUTS_GBR
 66
1
 10
0.00
 20
0.00
 30
0.00
 40
0.20
 41
0.20
  0
VERTEX
  8
CORSA_PLATE_FIX-EDGE_CUTS_GBR
 10
143.60795
 20
-158.9084
 30
0.00
  0
VERTEX
  8
CORSA_PLATE_FIX-EDGE_CUTS_GBR
 10
143.60795
 20
-157.9084
 30
0.00
  0
SEQEND
  0
POLYLINE
  8
CORSA_PLATE_FIX-EDGE_CUTS_GBR
 66
1
 10
0.00
 20
0.00
 30
0.00
 40
0.20
 41
0.20
  0
VERTEX
  8
CORSA_PLATE_FIX-EDGE_CUTS_GBR
 10
142.60795
 20
-159.9084
 30
0.00
 42
0.4142136
  0
VERTEX
  8
CORSA_PLATE_FIX-EDGE_CUTS_GBR
 10
143.60795
 20
-158.9084
 30
0.00
 42
0.00
  0
SEQEND
  0
POLYLINE
  8
CORSA_PLATE_FIX-EDGE_CUTS_GBR
 66
1
 10
0.00
 20
0.00
 30
0.00
 40
0.20
 41
0.20
  0
VERTEX
  8
CORSA_PLATE_FIX-EDGE_CUTS_GBR
 10
142.60795
 20
-159.9084
 30
0.00
  0
VERTEX
  8
CORSA_PLATE_FIX-EDGE_CUTS_GBR
 10
142.60795
 20
-161.158978
 30
0.00
  0
SEQEND
  0
POLYLINE
  8
CORSA_PLATE_FIX-EDGE_CUTS_GBR
 66
1
 10
0.00
 20
0.00
 30
0.00
 40
0.20
 41
0.20
  0
VERTEX
  8
CORSA_PLATE_FIX-EDGE_CUTS_GBR
 10
240.828526
 20
-162.9384
 30
0.00
  0
VERTEX
  8
CORSA_PLATE_FIX-EDGE_CUTS_GBR
 10
237.737372
 20
-162.9384
 30
0.00
  0
SEQEND
  0
POLYLINE
  8
CORSA_PLATE_FIX-EDGE_CUTS_GBR
 66
1
 10
0.00
 20
0.00
 30
0.00
 40
0.20
 41
0.20
  0
VERTEX
  8
CORSA_PLATE_FIX-EDGE_CUTS_GBR
 10
237.120126
 20
-150.540768
 30
0.00
 42
0.6128009
  0
VERTEX
  8
CORSA_PLATE_FIX-EDGE_CUTS_GBR
 10
235.860574
 20
-151.801362
 30
0.00
 42
0.00
  0
SEQEND
  0
POLYLINE
  8
CORSA_PLATE_FIX-EDGE_CUTS_GBR
 66
1
 10
0.00
 20
0.00
 30
0.00
 40
0.20
 41
0.20
  0
VERTEX
  8
CORSA_PLATE_FIX-EDGE_CUTS_GBR
 10
240.828526
 20
-150.6384
 30
0.00
  0
VERTEX
  8
CORSA_PLATE_FIX-EDGE_CUTS_GBR
 10
240.78295
 20
-150.6384
 30
0.00
  0
SEQEND
  0
POLYLINE
  8
CORSA_PLATE_FIX-EDGE_CUTS_GBR
 66
1
 10
0.00
 20
0.00
 30
0.00
 40
0.20
 41
0.20
  0
VERTEX
  8
CORSA_PLATE_FIX-EDGE_CUTS_GBR
 10
243.60795
 20
-157.9084
 30
0.00
  0
VERTEX
  8
CORSA_PLATE_FIX-EDGE_CUTS_GBR
 10
243.60795
 20
-158.9084
 30
0.00
  0
SEQEND
  0
POLYLINE
  8
CORSA_PLATE_FIX-EDGE_CUTS_GBR
 66
1
 10
0.00
 20
0.00
 30
0.00
 40
0.20
 41
0.20
  0
VERTEX
  8
CORSA_PLATE_FIX-EDGE_CUTS_GBR
 10
137.120126
 20
-150.540768
 30
0.00
 42
0.0787017
  0
VERTEX
  8
CORSA_PLATE_FIX-EDGE_CUTS_GBR
 10
137.7382
 20
-150.6384
 30
0.00
 42
0.00
  0
SEQEND
  0
POLYLINE
  8
CORSA_PLATE_FIX-EDGE_CUTS_GBR
 66
1
 10
0.00
 20
0.00
 30
0.00
 40
0.20
 41
0.20
  0
VERTEX
  8
CORSA_PLATE_FIX-EDGE_CUTS_GBR
 10
137.737372
 20
-150.6384
 30
0.00
  0
VERTEX
  8
CORSA_PLATE_FIX-EDGE_CUTS_GBR
 10
137.78295
 20
-150.6384
 30
0.00
  0
SEQEND
  0
POLYLINE
  8
CORSA_PLATE_FIX-EDGE_CUTS_GBR
 66
1
 10
0.00
 20
0.00
 30
0.00
 40
0.20
 41
0.20
  0
VERTEX
  8
CORSA_PLATE_FIX-EDGE_CUTS_GBR
 10
138.78295
 20
-149.4384
 30
0.00
  0
VERTEX
  8
CORSA_PLATE_FIX-EDGE_CUTS_GBR
 10
139.78295
 20
-149.4384
 30
0.00
  0
SEQEND
  0
POLYLINE
  8
CORSA_PLATE_FIX-EDGE_CUTS_GBR
 66
1
 10
0.00
 20
0.00
 30
0.00
 40
0.20
 41
0.20
  0
VERTEX
  8
CORSA_PLATE_FIX-EDGE_CUTS_GBR
 10
242.60795
 20
-161.158978
 30
0.00
 42
0.0787017
  0
VERTEX
  8
CORSA_PLATE_FIX-EDGE_CUTS_GBR
 10
242.705836
 20
-161.777012
 30
0.00
 42
0.00
  0
SEQEND
  0
POLYLINE
  8
CORSA_PLATE_FIX-EDGE_CUTS_GBR
 66
1
 10
0.00
 20
0.00
 30
0.00
 40
0.20
 41
0.20
  0
VERTEX
  8
CORSA_PLATE_FIX-EDGE_CUTS_GBR
 10
135.95795
 20
-152.417822
 30
0.00
 42
0.0787017
  0
VERTEX
  8
CORSA_PLATE_FIX-EDGE_CUTS_GBR
 10
135.860062
 20
-151.799788
 30
0.00
 42
0.00
  0
SEQEND
  0
POLYLINE
  8
CORSA_PLATE_FIX-EDGE_CUTS_GBR
 66
1
 10
0.00
 20
0.00
 30
0.00
 40
0.20
 41
0.20
  0
VERTEX
  8
CORSA_PLATE_FIX-EDGE_CUTS_GBR
 10
134.95795
 20
-157.9084
 30
0.00
  0
VERTEX
  8
CORSA_PLATE_FIX-EDGE_CUTS_GBR
 10
134.95795
 20
-158.9084
 30
0.00
  0
SEQEND
  0
POLYLINE
  8
CORSA_PLATE_FIX-EDGE_CUTS_GBR
 66
1
 10
0.00
 20
0.00
 30
0.00
 40
0.20
 41
0.20
  0
VERTEX
  8
CORSA_PLATE_FIX-EDGE_CUTS_GBR
 10
242.60795
 20
-161.158978
 30
0.00
  0
VERTEX
  8
CORSA_PLATE_FIX-EDGE_CUTS_GBR
 10
242.60795
 20
-159.9084
 30
0.00
  0
SEQEND
  0
POLYLINE
  8
CORSA_PLATE_FIX-EDGE_CUTS_GBR
 66
1
 10
0.00
 20
0.00
 30
0.00
 40
0.20
 41
0.20
  0
VERTEX
  8
CORSA_PLATE_FIX-EDGE_CUTS_GBR
 10
137.737372
 20
-162.9384
 30
0.00
 42
0.0787017
  0
VERTEX
  8
CORSA_PLATE_FIX-EDGE_CUTS_GBR
 10
137.119338
 20
-163.036286
 30
0.00
 42
0.00
  0
SEQEND
  0
POLYLINE
  8
CORSA_PLATE_FIX-EDGE_CUTS_GBR
 66
1
 10
0.00
 20
0.00
 30
0.00
 40
0.20
 41
0.20
  0
VERTEX
  8
CORSA_PLATE_FIX-EDGE_CUTS_GBR
 10
239.78295
 20
-149.4384
 30
0.00
  0
VERTEX
  8
CORSA_PLATE_FIX-EDGE_CUTS_GBR
 10
238.78295
 20
-149.4384
 30
0.00
  0
SEQEND
  0
POLYLINE
  8
CORSA_PLATE_FIX-EDGE_CUTS_GBR
 66
1
 10
0.00
 20
0.00
 30
0.00
 40
0.20
 41
0.20
  0
VERTEX
  8
CORSA_PLATE_FIX-EDGE_CUTS_GBR
 10
135.95795
 20
-161.158978
 30
0.00
  0
VERTEX
  8
CORSA_PLATE_FIX-EDGE_CUTS_GBR
 10
135.95795
 20
-159.9084
 30
0.00
  0
SEQEND
  0
POLYLINE
  8
CORSA_PLATE_FIX-EDGE_CUTS_GBR
 66
1
 10
0.00
 20
0.00
 30
0.00
 40
0.20
 41
0.20
  0
VERTEX
  8
CORSA_PLATE_FIX-EDGE_CUTS_GBR
 10
243.60795
 20
-157.9084
 30
0.00
 42
0.4142136
  0
VERTEX
  8
CORSA_PLATE_FIX-EDGE_CUTS_GBR
 10
242.607952
 20
-156.908402
 30
0.00
 42
0.00
  0
SEQEND
  0
POLYLINE
  8
CORSA_PLATE_FIX-EDGE_CUTS_GBR
 66
1
 10
0.00
 20
0.00
 30
0.00
 40
0.20
 41
0.20
  0
VERTEX
  8
CORSA_PLATE_FIX-EDGE_CUTS_GBR
 10
141.445772
 20
-163.03603
 30
0.00
 42
0.0787016
  0
VERTEX
  8
CORSA_PLATE_FIX-EDGE_CUTS_GBR
 10
140.827698
 20
-162.9384
 30
0.00
 42
0.00
  0
SEQEND
  0
POLYLINE
  8
CORSA_PLATE_FIX-EDGE_CUTS_GBR
 66
1
 10
0.00
 20
0.00
 30
0.00
 40
0.20
 41
0.20
  0
VERTEX
  8
CORSA_PLATE_FIX-EDGE_CUTS_GBR
 10
242.60795
 20
-152.417822
 30
0.00
  0
VERTEX
  8
CORSA_PLATE_FIX-EDGE_CUTS_GBR
 10
242.60795
 20
-156.9084
 30
0.00
  0
SEQEND
  0
POLYLINE
  8
CORSA_PLATE_FIX-EDGE_CUTS_GBR
 66
1
 10
0.00
 20
0.00
 30
0.00
 40
0.20
 41
0.20
  0
VERTEX
  8
CORSA_PLATE_FIX-EDGE_CUTS_GBR
 10
237.78295
 20
-150.4384
 30
0.00
  0
VERTEX
  8
CORSA_PLATE_FIX-EDGE_CUTS_GBR
 10
237.78295
 20
-150.6384
 30
0.00
  0
SEQEND
  0
POLYLINE
  8
CORSA_PLATE_FIX-EDGE_CUTS_GBR
 66
1
 10
0.00
 20
0.00
 30
0.00
 40
0.20
 41
0.20
  0
VERTEX
  8
CORSA_PLATE_FIX-EDGE_CUTS_GBR
 10
240.828526
 20
-150.6384
 30
0.00
 42
0.0787017
  0
VERTEX
  8
CORSA_PLATE_FIX-EDGE_CUTS_GBR
 10
241.44656
 20
-150.540512
 30
0.00
 42
0.00
  0
SEQEND
  0
POLYLINE
  8
CORSA_PLATE_FIX-EDGE_CUTS_GBR
 66
1
 10
0.00
 20
0.00
 30
0.00
 40
0.20
 41
0.20
  0
VERTEX
  8
CORSA_PLATE_FIX-EDGE_CUTS_GBR
 10
142.70558
 20
-151.800576
 30
0.00
 42
0.6128011
  0
VERTEX
  8
CORSA_PLATE_FIX-EDGE_CUTS_GBR
 10
141.444988
 20
-150.541024
 30
0.00
 42
0.00
  0
SEQEND
  0
POLYLINE
  8
CORSA_PLATE_FIX-EDGE_CUTS_GBR
 66
1
 10
0.00
 20
0.00
 30
0.00
 40
0.20
 41
0.20
  0
VERTEX
  8
CORSA_PLATE_FIX-EDGE_CUTS_GBR
 10
137.120126
 20
-150.540768
 30
0.00
 42
0.6128009
  0
VERTEX
  8
CORSA_PLATE_FIX-EDGE_CUTS_GBR
 10
135.860574
 20
-151.801362
 30
0.00
 42
0.00
  0
SEQEND
  0
POLYLINE
  8
CORSA_PLATE_FIX-EDGE_CUTS_GBR
 66
1
 10
0.00
 20
0.00
 30
0.00
 40
0.20
 41
0.20
  0
VERTEX
  8
CORSA_PLATE_FIX-EDGE_CUTS_GBR
 10
142.60795
 20
-161.158978
 30
0.00
 42
0.0787017
  0
VERTEX
  8
CORSA_PLATE_FIX-EDGE_CUTS_GBR
 10
142.705836
 20
-161.777012
 30
0.00
 42
0.00
  0
SEQEND
  0
POLYLINE
  8
CORSA_PLATE_FIX-EDGE_CUTS_GBR
 66
1
 10
0.00
 20
0.00
 30
0.00
 40
0.20
 41
0.20
  0
VERTEX
  8
CORSA_PLATE_FIX-EDGE_CUTS_GBR
 10
140.78295
 20
-150.4384
 30
0.00
  0
VERTEX
  8
CORSA_PLATE_FIX-EDGE_CUTS_GBR
 10
140.78295
 20
-150.6384
 30
0.00
  0
SEQEND
  0
POLYLINE
  8
CORSA_PLATE_FIX-EDGE_CUTS_GBR
 66
1
 10
0.00
 20
0.00
 30
0.00
 40
0.20
 41
0.20
  0
VERTEX
  8
CORSA_PLATE_FIX-EDGE_CUTS_GBR
 10
135.860318
 20
-161.776224
 30
0.00
 42
0.0787017
  0
VERTEX
  8
CORSA_PLATE_FIX-EDGE_CUTS_GBR
 10
135.95795
 20
-161.15815
 30
0.00
 42
0.00
  0
SEQEND
  0
POLYLINE
  8
CORSA_PLATE_FIX-EDGE_CUTS_GBR
 66
1
 10
0.00
 20
0.00
 30
0.00
 40
0.20
 41
0.20
  0
VERTEX
  8
CORSA_PLATE_FIX-EDGE_CUTS_GBR
 10
135.95795
 20
-156.9084
 30
0.00
 42
0.4142136
  0
VERTEX
  8
CORSA_PLATE_FIX-EDGE_CUTS_GBR
 10
134.95795
 20
-157.9084
 30
0.00
 42
0.00
  0
SEQEND
  0
POLYLINE
  8
CORSA_PLATE_FIX-EDGE_CUTS_GBR
 66
1
 10
0.00
 20
0.00
 30
0.00
 40
0.20
 41
0.20
  0
VERTEX
  8
CORSA_PLATE_FIX-EDGE_CUTS_GBR
 10
135.860318
 20
-161.776224
 30
0.00
 42
0.6128002
  0
VERTEX
  8
CORSA_PLATE_FIX-EDGE_CUTS_GBR
 10
137.120918
 20
-163.035776
 30
0.00
 42
0.00
  0
SEQEND
  0
POLYLINE
  8
CORSA_PLATE_FIX-EDGE_CUTS_GBR
 66
1
 10
0.00
 20
0.00
 30
0.00
 40
0.20
 41
0.20
  0
VERTEX
  8
CORSA_PLATE_FIX-EDGE_CUTS_GBR
 10
242.60795
 20
-159.9084
 30
0.00
 42
0.4142141
  0
VERTEX
  8
CORSA_PLATE_FIX-EDGE_CUTS_GBR
 10
243.60795
 20
-158.908402
 30
0.00
 42
0.00
  0
SEQEND
  0
POLYLINE
  8
CORSA_PLATE_FIX-EDGE_CUTS_GBR
 66
1
 10
0.00
 20
0.00
 30
0.00
 40
0.20
 41
0.20
  0
VERTEX
  8
CORSA_PLATE_FIX-EDGE_CUTS_GBR
 10
235.860318
 20
-161.776224
 30
0.00
 42
0.6128002
  0
VERTEX
  8
CORSA_PLATE_FIX-EDGE_CUTS_GBR
 10
237.120918
 20
-163.035776
 30
0.00
 42
0.00
  0
SEQEND
  0
POLYLINE
  8
CORSA_PLATE_FIX-EDGE_CUTS_GBR
 66
1
 10
0.00
 20
0.00
 30
0.00
 40
0.20
 41
0.20
  0
VERTEX
  8
CORSA_PLATE_FIX-EDGE_CUTS_GBR
 10
235.860318
 20
-161.776224
 30
0.00
 42
0.0787017
  0
VERTEX
  8
CORSA_PLATE_FIX-EDGE_CUTS_GBR
 10
235.95795
 20
-161.15815
 30
0.00
 42
0.00
  0
SEQEND
  0
POLYLINE
  8
CORSA_PLATE_FIX-EDGE_CUTS_GBR
 66
1
 10
0.00
 20
0.00
 30
0.00
 40
0.20
 41
0.20
  0
VERTEX
  8
CORSA_PLATE_FIX-EDGE_CUTS_GBR
 10
135.95795
 20
-152.417822
 30
0.00
  0
VERTEX
  8
CORSA_PLATE_FIX-EDGE_CUTS_GBR
 10
135.95795
 20
-156.9084
 30
0.00
  0
SEQEND
  0
POLYLINE
  8
CORSA_PLATE_FIX-EDGE_CUTS_GBR
 66
1
 10
0.00
 20
0.00
 30
0.00
 40
0.20
 41
0.20
  0
VERTEX
  8
CORSA_PLATE_FIX-EDGE_CUTS_GBR
 10
138.78295
 20
-149.4384
 30
0.00
 42
0.4142136
  0
VERTEX
  8
CORSA_PLATE_FIX-EDGE_CUTS_GBR
 10
137.78295
 20
-150.4384
 30
0.00
 42
0.00
  0
SEQEND
  0
POLYLINE
  8
CORSA_PLATE_FIX-EDGE_CUTS_GBR
 66
1
 10
0.00
 20
0.00
 30
0.00
 40
0.20
 41
0.20
  0
VERTEX
  8
CORSA_PLATE_FIX-EDGE_CUTS_GBR
 10
134.95795
 20
-158.9084
 30
0.00
 42
0.4142141
  0
VERTEX
  8
CORSA_PLATE_FIX-EDGE_CUTS_GBR
 10
135.95795
 20
-159.908402
 30
0.00
 42
0.00
  0
SEQEND
  0
POLYLINE
  8
CORSA_PLATE_FIX-EDGE_CUTS_GBR
 66
1
 10
0.00
 20
0.00
 30
0.00
 40
0.20
 41
0.20
  0
VERTEX
  8
CORSA_PLATE_FIX-EDGE_CUTS_GBR
 10
242.70558
 20
-151.800576
 30
0.00
 42
0.0787019
  0
VERTEX
  8
CORSA_PLATE_FIX-EDGE_CUTS_GBR
 10
242.60795
 20
-152.418652
 30
0.00
 42
0.00
  0
SEQEND
  0
POLYLINE
  8
CORSA_PLATE_FIX-EDGE_CUTS_GBR
 66
1
 10
0.00
 20
0.00
 30
0.00
 40
0.20
 41
0.20
  0
VERTEX
  8
CORSA_PLATE_FIX-EDGE_CUTS_GBR
 10
237.120126
 20
-150.540768
 30
0.00
 42
0.0787017
  0
VERTEX
  8
CORSA_PLATE_FIX-EDGE_CUTS_GBR
 10
237.7382
 20
-150.6384
 30
0.00
 42
0.00
  0
SEQEND
  0
POLYLINE
  8
CORSA_PLATE_FIX-EDGE_CUTS_GBR
 66
1
 10
0.00
 20
0.00
 30
0.00
 40
0.20
 41
0.20
  0
VERTEX
  8
CORSA_PLATE_FIX-EDGE_CUTS_GBR
 10
240.78295
 20
-150.4384
 30
0.00
  0
VERTEX
  8
CORSA_PLATE_FIX-EDGE_CUTS_GBR
 10
240.78295
 20
-150.6384
 30
0.00
  0
SEQEND
  0
POLYLINE
  8
CORSA_PLATE_FIX-EDGE_CUTS_GBR
 66
1
 10
0.00
 20
0.00
 30
0.00
 40
0.20
 41
0.20
  0
VERTEX
  8
CORSA_PLATE_FIX-EDGE_CUTS_GBR
 10
237.737372
 20
-150.6384
 30
0.00
  0
VERTEX
  8
CORSA_PLATE_FIX-EDGE_CUTS_GBR
 10
237.78295
 20
-150.6384
 30
0.00
  0
SEQEND
  0
POLYLINE
  8
CORSA_PLATE_FIX-EDGE_CUTS_GBR
 66
1
 10
0.00
 20
0.00
 30
0.00
 40
0.20
 41
0.20
  0
VERTEX
  8
CORSA_PLATE_FIX-EDGE_CUTS_GBR
 10
237.737372
 20
-162.9384
 30
0.00
 42
0.0787017
  0
VERTEX
  8
CORSA_PLATE_FIX-EDGE_CUTS_GBR
 10
237.119338
 20
-163.036286
 30
0.00
 42
0.00
  0
SEQEND
  0
POLYLINE
  8
CORSA_PLATE_FIX-EDGE_CUTS_GBR
 66
1
 10
0.00
 20
0.00
 30
0.00
 40
0.20
 41
0.20
  0
VERTEX
  8
CORSA_PLATE_FIX-EDGE_CUTS_GBR
 10
240.78295
 20
-150.4384
 30
0.00
 42
0.4142136
  0
VERTEX
  8
CORSA_PLATE_FIX-EDGE_CUTS_GBR
 10
239.782952
 20
-149.438402
 30
0.00
 42
0.00
  0
SEQEND
  0
POLYLINE
  8
CORSA_PLATE_FIX-EDGE_CUTS_GBR
 66
1
 10
0.00
 20
0.00
 30
0.00
 40
0.20
 41
0.20
  0
VERTEX
  8
CORSA_PLATE_FIX-EDGE_CUTS_GBR
 10
137.78295
 20
-150.4384
 30
0.00
  0
VERTEX
  8
CORSA_PLATE_FIX-EDGE_CUTS_GBR
 10
137.78295
 20
-150.6384
 30
0.00
  0
SEQEND
  0
POLYLINE
  8
CORSA_PLATE_FIX-EDGE_CUTS_GBR
 66
1
 10
0.00
 20
0.00
 30
0.00
 40
0.20
 41
0.20
  0
VERTEX
  8
CORSA_PLATE_FIX-EDGE_CUTS_GBR
 10
137.737372
 20
-162.9384
 30
0.00
  0
VERTEX
  8
CORSA_PLATE_FIX-EDGE_CUTS_GBR
 10
140.828526
 20
-162.9384
 30
0.00
  0
SEQEND
  0
POLYLINE
  8
CORSA_PLATE_FIX-EDGE_CUTS_GBR
 66
1
 10
0.00
 20
0.00
 30
0.00
 40
0.20
 41
0.20
  0
VERTEX
  8
CORSA_PLATE_FIX-EDGE_CUTS_GBR
 10
242.70558
 20
-151.800576
 30
0.00
 42
0.6128011
  0
VERTEX
  8
CORSA_PLATE_FIX-EDGE_CUTS_GBR
 10
241.444988
 20
-150.541024
 30
0.00
 42
0.00
  0
SEQEND
  0
POLYLINE
  8
CORSA_PLATE_FIX-EDGE_CUTS_GBR
 66
1
 10
0.00
 20
0.00
 30
0.00
 40
0.20
 41
0.20
  0
VERTEX
  8
CORSA_PLATE_FIX-EDGE_CUTS_GBR
 10
235.95795
 20
-152.417822
 30
0.00
 42
0.0787017
  0
VERTEX
  8
CORSA_PLATE_FIX-EDGE_CUTS_GBR
 10
235.860062
 20
-151.799788
 30
0.00
 42
0.00
  0
SEQEND
  0
POLYLINE
  8
CORSA_PLATE_FIX-EDGE_CUTS_GBR
 66
1
 10
0.00
 20
0.00
 30
0.00
 40
0.20
 41
0.20
  0
VERTEX
  8
CORSA_PLATE_FIX-EDGE_CUTS_GBR
 10
241.445772
 20
-163.03603
 30
0.00
 42
0.6128011
  0
VERTEX
  8
CORSA_PLATE_FIX-EDGE_CUTS_GBR
 10
242.705324
 20
-161.775438
 30
0.00
 42
0.00
  0
SEQEND
  0
POLYLINE
  8
CORSA_PLATE_FIX-EDGE_CUTS_GBR
 66
1
 10
0.00
 20
0.00
 30
0.00
 40
0.20
 41
0.20
  0
VERTEX
  8
CORSA_PLATE_FIX-EDGE_CUTS_GBR
 10
141.445772
 20
-163.03603
 30
0.00
 42
0.6128011
  0
VERTEX
  8
CORSA_PLATE_FIX-EDGE_CUTS_GBR
 10
142.705324
 20
-161.775438
 30
0.00
 42
0.00
  0
SEQEND
  0
POLYLINE
  8
CORSA_PLATE_FIX-EDGE_CUTS_GBR
 66
1
 10
0.00
 20
0.00
 30
0.00
 40
0.20
 41
0.20
  0
VERTEX
  8
CORSA_PLATE_FIX-EDGE_CUTS_GBR
 10
142.70558
 20
-151.800576
 30
0.00
 42
0.0787019
  0
VERTEX
  8
CORSA_PLATE_FIX-EDGE_CUTS_GBR
 10
142.60795
 20
-152.418652
 30
0.00
 42
0.00
  0
SEQEND
  0
POLYLINE
  8
CORSA_PLATE_FIX-EDGE_CUTS_GBR
 66
1
 10
0.00
 20
0.00
 30
0.00
 40
0.20
 41
0.20
  0
VERTEX
  8
CORSA_PLATE_FIX-EDGE_CUTS_GBR
 10
140.828526
 20
-150.6384
 30
0.00
 42
0.0787017
  0
VERTEX
  8
CORSA_PLATE_FIX-EDGE_CUTS_GBR
 10
141.44656
 20
-150.540512
 30
0.00
 42
0.00
  0
SEQEND
  0
POLYLINE
  8
CORSA_PLATE_FIX-EDGE_CUTS_GBR
 66
1
 10
0.00
 20
0.00
 30
0.00
 40
0.20
 41
0.20
  0
VERTEX
  8
CORSA_PLATE_FIX-EDGE_CUTS_GBR
 10
241.445772
 20
-163.03603
 30
0.00
 42
0.0787016
  0
VERTEX
  8
CORSA_PLATE_FIX-EDGE_CUTS_GBR
 10
240.827698
 20
-162.9384
 30
0.00
 42
0.00
  0
SEQEND
  0
POLYLINE
  8
CORSA_PLATE_FIX-EDGE_CUTS_GBR
 66
1
 10
0.00
 20
0.00
 30
0.00
 40
0.20
 41
0.20
  0
VERTEX
  8
CORSA_PLATE_FIX-EDGE_CUTS_GBR
 10
140.78295
 20
-150.4384
 30
0.00
 42
0.4142136
  0
VERTEX
  8
CORSA_PLATE_FIX-EDGE_CUTS_GBR
 10
139.782952
 20
-149.438402
 30
0.00
 42
0.00
  0
SEQEND
  0
POLYLINE
  8
CORSA_PLATE_FIX-EDGE_CUTS_GBR
 66
1
 10
0.00
 20
0.00
 30
0.00
 40
0.20
 41
0.20
  0
VERTEX
  8
CORSA_PLATE_FIX-EDGE_CUTS_GBR
 10
238.78295
 20
-149.4384
 30
0.00
 42
0.4142136
  0
VERTEX
  8
CORSA_PLATE_FIX-EDGE_CUTS_GBR
 10
237.78295
 20
-150.4384
 30
0.00
 42
0.00
  0
SEQEND
  0
POLYLINE
  8
CORSA_PLATE_FIX-EDGE_CUTS_GBR
 66
1
 10
0.00
 20
0.00
 30
0.00
 40
0.20
 41
0.20
  0
VERTEX
  8
CORSA_PLATE_FIX-EDGE_CUTS_GBR
 10
140.828526
 20
-150.6384
 30
0.00
  0
VERTEX
  8
CORSA_PLATE_FIX-EDGE_CUTS_GBR
 10
140.78295
 20
-150.6384
 30
0.00
  0
SEQEND
  0
POLYLINE
  8
CORSA_PLATE_FIX-EDGE_CUTS_GBR
 66
1
 10
0.00
 20
0.00
 30
0.00
 40
0.20
 41
0.20
  0
VERTEX
  8
CORSA_PLATE_FIX-EDGE_CUTS_GBR
 10
181.93555
 20
-152.418652
 30
0.00
  0
VERTEX
  8
CORSA_PLATE_FIX-EDGE_CUTS_GBR
 10
142.60795
 20
-152.418652
 30
0.00
  0
SEQEND
  0
POLYLINE
  8
CORSA_PLATE_FIX-EDGE_CUTS_GBR
 66
1
 10
0.00
 20
0.00
 30
0.00
 40
0.20
 41
0.20
  0
VERTEX
  8
CORSA_PLATE_FIX-EDGE_CUTS_GBR
 10
235.95795
 20
-152.4154
 30
0.00
  0
VERTEX
  8
CORSA_PLATE_FIX-EDGE_CUTS_GBR
 10
196.63555
 20
-152.4154
 30
0.00
  0
SEQEND
  0
POLYLINE
  8
CORSA_PLATE_FIX-EDGE_CUTS_GBR
 66
1
 10
0.00
 20
0.00
 30
0.00
 40
0.20
 41
0.20
  0
VERTEX
  8
CORSA_PLATE_FIX-EDGE_CUTS_GBR
 10
196.63555
 20
-154.4084
 30
0.00
  0
VERTEX
  8
CORSA_PLATE_FIX-EDGE_CUTS_GBR
 10
235.95795
 20
-154.4084
 30
0.00
  0
SEQEND
  0
POLYLINE
  8
CORSA_PLATE_FIX-EDGE_CUTS_GBR
 66
1
 10
0.00
 20
0.00
 30
0.00
 40
0.20
 41
0.20
  0
VERTEX
  8
CORSA_PLATE_FIX-EDGE_CUTS_GBR
 10
142.60795
 20
-154.4084
 30
0.00
  0
VERTEX
  8
CORSA_PLATE_FIX-EDGE_CUTS_GBR
 10
181.93555
 20
-154.4084
 30
0.00
  0
SEQEND
  0
POLYLINE
  8
CORSA_PLATE_FIX-EDGE_CUTS_GBR
 66
1
 10
0.00
 20
0.00
 30
0.00
 40
0.20
 41
0.20
  0
VERTEX
  8
CORSA_PLATE_FIX-EDGE_CUTS_GBR
 10
181.93555
 20
-151.3584
 30
0.00
  0
VERTEX
  8
CORSA_PLATE_FIX-EDGE_CUTS_GBR
 10
182.93555
 20
-150.3584
 30
0.00
  0
SEQEND
  0
POLYLINE
  8
CORSA_PLATE_FIX-EDGE_CUTS_GBR
 66
1
 10
0.00
 20
0.00
 30
0.00
 40
0.20
 41
0.20
  0
VERTEX
  8
CORSA_PLATE_FIX-EDGE_CUTS_GBR
 10
182.93555
 20
-164.4584
 30
0.00
  0
VERTEX
  8
CORSA_PLATE_FIX-EDGE_CUTS_GBR
 10
181.93555
 20
-163.4584
 30
0.00
  0
SEQEND
  0
POLYLINE
  8
CORSA_PLATE_FIX-EDGE_CUTS_GBR
 66
1
 10
0.00
 20
0.00
 30
0.00
 40
0.20
 41
0.20
  0
VERTEX
  8
CORSA_PLATE_FIX-EDGE_CUTS_GBR
 10
195.63555
 20
-164.4584
 30
0.00
  0
VERTEX
  8
CORSA_PLATE_FIX-EDGE_CUTS_GBR
 10
182.93555
 20
-164.4584
 30
0.00
  0
SEQEND
  0
POLYLINE
  8
CORSA_PLATE_FIX-EDGE_CUTS_GBR
 66
1
 10
0.00
 20
0.00
 30
0.00
 40
0.20
 41
0.20
  0
VERTEX
  8
CORSA_PLATE_FIX-EDGE_CUTS_GBR
 10
196.63555
 20
-163.4584
 30
0.00
  0
VERTEX
  8
CORSA_PLATE_FIX-EDGE_CUTS_GBR
 10
195.63555
 20
-164.4584
 30
0.00
  0
SEQEND
  0
POLYLINE
  8
CORSA_PLATE_FIX-EDGE_CUTS_GBR
 66
1
 10
0.00
 20
0.00
 30
0.00
 40
0.20
 41
0.20
  0
VERTEX
  8
CORSA_PLATE_FIX-EDGE_CUTS_GBR
 10
195.63555
 20
-150.3584
 30
0.00
  0
VERTEX
  8
CORSA_PLATE_FIX-EDGE_CUTS_GBR
 10
196.63555
 20
-151.3584
 30
0.00
  0
SEQEND
  0
POLYLINE
  8
CORSA_PLATE_FIX-EDGE_CUTS_GBR
 66
1
 10
0.00
 20
0.00
 30
0.00
 40
0.20
 41
0.20
  0
VERTEX
  8
CORSA_PLATE_FIX-EDGE_CUTS_GBR
 10
182.93555
 20
-150.3584
 30
0.00
  0
VERTEX
  8
CORSA_PLATE_FIX-EDGE_CUTS_GBR
 10
195.63555
 20
-150.3584
 30
0.00
  0
SEQEND
  0
INSERT
  2
ROUND_2
  8
CORSA_PLATE_FIX-F_MASK_GBR
 10
101.1781
 20
-138.3584
 30
0.00
 41
1.00
 42
1.00
 50
0.00
  0
INSERT
  2
ROUND_2
  8
CORSA_PLATE_FIX-F_MASK_GBR
 10
153.5656
 20
-81.2084
 30
0.00
 41
1.00
 42
1.00
 50
0.00
  0
INSERT
  2
ROUND_2
  8
CORSA_PLATE_FIX-F_MASK_GBR
 10
286.9156
 20
-81.2084
 30
0.00
 41
1.00
 42
1.00
 50
0.00
  0
INSERT
  2
ROUND_2
  8
CORSA_PLATE_FIX-F_MASK_GBR
 10
229.7656
 20
-81.2084
 30
0.00
 41
1.00
 42
1.00
 50
0.00
  0
INSERT
  2
ROUND_2
  8
CORSA_PLATE_FIX-F_MASK_GBR
 10
84.50935
 20
-100.2584
 30
0.00
 41
1.00
 42
1.00
 50
0.00
  0
INSERT
  2
ROUND_2
  8
CORSA_PLATE_FIX-F_MASK_GBR
 10
258.3406
 20
-100.2584
 30
0.00
 41
1.00
 42
1.00
 50
0.00
  0
INSERT
  2
ROUND_2
  8
CORSA_PLATE_FIX-F_MASK_GBR
 10
341.3156
 20
-88.2084
 30
0.00
 41
1.00
 42
1.00
 50
0.00
  0
INSERT
  2
ROUND_2
  8
CORSA_PLATE_FIX-F_MASK_GBR
 10
124.9906
 20
-100.2584
 30
0.00
 41
1.00
 42
1.00
 50
0.00
  0
INSERT
  2
ROUND_2
  8
CORSA_PLATE_FIX-F_MASK_GBR
 10
341.68435
 20
-107.2034
 30
0.00
 41
1.00
 42
1.00
 50
0.00
  0
INSERT
  2
ROUND_2
  8
CORSA_PLATE_FIX-F_MASK_GBR
 10
317.87185
 20
-100.2584
 30
0.00
 41
1.00
 42
1.00
 50
0.00
  0
INSERT
  2
ROUND_2
  8
CORSA_PLATE_FIX-F_MASK_GBR
 10
201.1906
 20
-100.2584
 30
0.00
 41
1.00
 42
1.00
 50
0.00
  0
INSERT
  2
ROUND_2
  8
CORSA_PLATE_FIX-F_MASK_GBR
 10
61.6346
 20
-119.3084
 30
0.00
 41
1.00
 42
1.00
 50
0.00
  0
INSERT
  2
ROUND_2
  8
CORSA_PLATE_FIX-F_MASK_GBR
 10
63.44685
 20
-145.3584
 30
0.00
 41
1.00
 42
1.00
 50
0.00
  0
INSERT
  2
ROUND_2
  8
CORSA_PLATE_FIX-F_MASK_GBR
 10
110.7031
 20
-119.3084
 30
0.00
 41
1.00
 42
1.00
 50
0.00
  0
INSERT
  2
ROUND_2
  8
CORSA_PLATE_FIX-F_MASK_GBR
 10
77.3656
 20
-81.2084
 30
0.00
 41
1.00
 42
1.00
 50
0.00
  0
INSERT
  2
ROUND_2
  8
CORSA_PLATE_FIX-F_MASK_GBR
 10
225.0031
 20
-119.3084
 30
0.00
 41
1.00
 42
1.00
 50
0.00
  0
INSERT
  2
ROUND_2
  8
CORSA_PLATE_FIX-F_MASK_GBR
 10
158.3281
 20
-138.3584
 30
0.00
 41
1.00
 42
1.00
 50
0.00
  0
INSERT
  2
ROUND_2
  8
CORSA_PLATE_FIX-F_MASK_GBR
 10
168.03555
 20
-157.4084
 30
0.00
 41
1.00
 42
1.00
 50
0.00
  0
INSERT
  2
ROUND_2
  8
CORSA_PLATE_FIX-F_MASK_GBR
 10
167.8531
 20
-119.3084
 30
0.00
 41
1.00
 42
1.00
 50
0.00
  0
INSERT
  2
ROUND_2
  8
CORSA_PLATE_FIX-F_MASK_GBR
 10
282.1531
 20
-119.3084
 30
0.00
 41
1.00
 42
1.00
 50
0.00
  0
INSERT
  2
ROUND_2
  8
CORSA_PLATE_FIX-F_MASK_GBR
 10
210.53555
 20
-157.4084
 30
0.00
 41
1.00
 42
1.00
 50
0.00
  0
INSERT
  2
ROUND_2
  8
CORSA_PLATE_FIX-F_MASK_GBR
 10
300.0056
 20
-157.4084
 30
0.00
 41
1.00
 42
1.00
 50
0.00
  0
INSERT
  2
ROUND_2
  8
CORSA_PLATE_FIX-F_MASK_GBR
 10
82.1256
 20
-157.4084
 30
0.00
 41
1.00
 42
1.00
 50
0.00
  0
INSERT
  2
ROUND_2
  8
CORSA_PLATE_FIX-F_MASK_GBR
 10
298.82185
 20
-138.3584
 30
0.00
 41
1.00
 42
1.00
 50
0.00
  0
INSERT
  2
ROUND_2
  8
CORSA_PLATE_FIX-F_MASK_GBR
 10
344.0656
 20
-157.4084
 30
0.00
 41
1.00
 42
1.00
 50
0.00
  0
INSERT
  2
ROUND_2
  8
CORSA_PLATE_FIX-F_MASK_GBR
 10
234.5281
 20
-138.3584
 30
0.00
 41
1.00
 42
1.00
 50
0.00
  0
INSERT
  2
ROUND_2
  8
CORSA_PLATE_FIX-F_MASK_GBR
 10
338.93435
 20
-126.3084
 30
0.00
 41
1.00
 42
1.00
 50
0.00
  0
INSERT
  2
ROUND_2
  8
CORSA_PLATE_FIX-F_MASK_GBR
 10
127.3656
 20
-157.4084
 30
0.00
 41
1.00
 42
1.00
 50
0.00
  0
INSERT
  2
ROUND_2
  8
CORSA_PLATE_FIX-F_MASK_GBR
 10
251.1856
 20
-157.4084
 30
0.00
 41
1.00
 42
1.00
 50
0.00
  0
INSERT
  2
ROUND_3
  8
CORSA_PLATE_FIX-NPTH_DRL
 10
61.63564
 20
-119.30888
 30
0.00
 41
1.00
 42
1.00
 50
0.00
  0
INSERT
  2
ROUND_3
  8
CORSA_PLATE_FIX-NPTH_DRL
 10
63.44666
 20
-145.35912
 30
0.00
 41
1.00
 42
1.00
 50
0.00
  0
INSERT
  2
ROUND_3
  8
CORSA_PLATE_FIX-NPTH_DRL
 10
77.36586
 20
-81.20888
 30
0.00
 41
1.00
 42
1.00
 50
0.00
  0
INSERT
  2
ROUND_3
  8
CORSA_PLATE_FIX-NPTH_DRL
 10
82.12582
 20
-157.40888
 30
0.00
 41
1.00
 42
1.00
 50
0.00
  0
INSERT
  2
ROUND_3
  8
CORSA_PLATE_FIX-NPTH_DRL
 10
84.50834
 20
-100.25888
 30
0.00
 41
1.00
 42
1.00
 50
0.00
  0
INSERT
  2
ROUND_3
  8
CORSA_PLATE_FIX-NPTH_DRL
 10
101.17836
 20
-138.35888
 30
0.00
 41
1.00
 42
1.00
 50
0.00
  0
INSERT
  2
ROUND_3
  8
CORSA_PLATE_FIX-NPTH_DRL
 10
110.70336
 20
-119.30888
 30
0.00
 41
1.00
 42
1.00
 50
0.00
  0
INSERT
  2
ROUND_3
  8
CORSA_PLATE_FIX-NPTH_DRL
 10
124.99086
 20
-100.25888
 30
0.00
 41
1.00
 42
1.00
 50
0.00
  0
INSERT
  2
ROUND_3
  8
CORSA_PLATE_FIX-NPTH_DRL
 10
127.36576
 20
-157.40888
 30
0.00
 41
1.00
 42
1.00
 50
0.00
  0
INSERT
  2
ROUND_3
  8
CORSA_PLATE_FIX-NPTH_DRL
 10
153.56586
 20
-81.20888
 30
0.00
 41
1.00
 42
1.00
 50
0.00
  0
INSERT
  2
ROUND_3
  8
CORSA_PLATE_FIX-NPTH_DRL
 10
158.32836
 20
-138.35888
 30
0.00
 41
1.00
 42
1.00
 50
0.00
  0
INSERT
  2
ROUND_3
  8
CORSA_PLATE_FIX-NPTH_DRL
 10
167.85336
 20
-119.30888
 30
0.00
 41
1.00
 42
1.00
 50
0.00
  0
INSERT
  2
ROUND_3
  8
CORSA_PLATE_FIX-NPTH_DRL
 10
168.03624
 20
-157.40888
 30
0.00
 41
1.00
 42
1.00
 50
0.00
  0
INSERT
  2
ROUND_3
  8
CORSA_PLATE_FIX-NPTH_DRL
 10
201.19086
 20
-100.25888
 30
0.00
 41
1.00
 42
1.00
 50
0.00
  0
INSERT
  2
ROUND_3
  8
CORSA_PLATE_FIX-NPTH_DRL
 10
210.53552
 20
-157.40888
 30
0.00
 41
1.00
 42
1.00
 50
0.00
  0
INSERT
  2
ROUND_3
  8
CORSA_PLATE_FIX-NPTH_DRL
 10
225.00336
 20
-119.30888
 30
0.00
 41
1.00
 42
1.00
 50
0.00
  0
INSERT
  2
ROUND_3
  8
CORSA_PLATE_FIX-NPTH_DRL
 10
229.76586
 20
-81.20888
 30
0.00
 41
1.00
 42
1.00
 50
0.00
  0
INSERT
  2
ROUND_3
  8
CORSA_PLATE_FIX-NPTH_DRL
 10
234.52836
 20
-138.35888
 30
0.00
 41
1.00
 42
1.00
 50
0.00
  0
INSERT
  2
ROUND_3
  8
CORSA_PLATE_FIX-NPTH_DRL
 10
251.18568
 20
-157.40888
 30
0.00
 41
1.00
 42
1.00
 50
0.00
  0
INSERT
  2
ROUND_3
  8
CORSA_PLATE_FIX-NPTH_DRL
 10
258.34086
 20
-100.25888
 30
0.00
 41
1.00
 42
1.00
 50
0.00
  0
INSERT
  2
ROUND_3
  8
CORSA_PLATE_FIX-NPTH_DRL
 10
282.15336
 20
-119.30888
 30
0.00
 41
1.00
 42
1.00
 50
0.00
  0
INSERT
  2
ROUND_3
  8
CORSA_PLATE_FIX-NPTH_DRL
 10
286.91586
 20
-81.20888
 30
0.00
 41
1.00
 42
1.00
 50
0.00
  0
INSERT
  2
ROUND_3
  8
CORSA_PLATE_FIX-NPTH_DRL
 10
298.82084
 20
-138.35888
 30
0.00
 41
1.00
 42
1.00
 50
0.00
  0
INSERT
  2
ROUND_3
  8
CORSA_PLATE_FIX-NPTH_DRL
 10
300.00448
 20
-157.40888
 30
0.00
 41
1.00
 42
1.00
 50
0.00
  0
INSERT
  2
ROUND_3
  8
CORSA_PLATE_FIX-NPTH_DRL
 10
317.87084
 20
-100.25888
 30
0.00
 41
1.00
 42
1.00
 50
0.00
  0
INSERT
  2
ROUND_3
  8
CORSA_PLATE_FIX-NPTH_DRL
 10
338.93506
 20
-126.30912
 30
0.00
 41
1.00
 42
1.00
 50
0.00
  0
INSERT
  2
ROUND_3
  8
CORSA_PLATE_FIX-NPTH_DRL
 10
341.31504
 20
-88.20912
 30
0.00
 41
1.00
 42
1.00
 50
0.00
  0
INSERT
  2
ROUND_3
  8
CORSA_PLATE_FIX-NPTH_DRL
 10
341.68334
 20
-107.20324
 30
0.00
 41
1.00
 42
1.00
 50
0.00
  0
INSERT
  2
ROUND_3
  8
CORSA_PLATE_FIX-NPTH_DRL
 10
344.06586
 20
-157.40888
 30
0.00
 41
1.00
 42
1.00
 50
0.00
  0
ENDSEC
  0
EOF
