  0
SECTION
  2
HEADER
  9
$ACADVER
  1
AC1018
  9
$INSBASE
 10
0.0
 20
0.0
 30
0.0
  9
$EXTMIN
 10
43.52506
 20
-200.403332
 30
0.0
  9
$EXTMAX
 10
392.97506
 20
-68.953332
 30
0.0
  9
$LIMMIN
 10
43.52506
 20
-200.403332
  9
$LIMMAX
 10
392.97506
 20
-68.953332
  9
$INSUNITS
 70
     4
  9
$HANDSEED
  5
  1007
  0
ENDSEC
  0
SECTION
  2
CLASSES
  0
ENDSEC
  0
SECTION
  2
TABLES
  0
TABLE
  2
VPORT
  5
1
330
0
100
AcDbSymbolTable
 70
     0
  0
ENDTAB
  0
TABLE
  2
LTYPE
  5
2
330
0
100
AcDbSymbolTable
 70
     3
  0
LTYPE
  5
3
330
2
100
AcDbSymbolTableRecord
100
AcDbLinetypeTableRecord
  2
BYLAYER
 70
     0
  3
Continuous
 72
    65
 73
     0
 40
0.0
  0
LTYPE
  5
4
330
2
100
AcDbSymbolTableRecord
100
AcDbLinetypeTableRecord
  2
BYBLOCK
 70
     0
  3
Continuous
 72
    65
 73
     0
 40
0.0
  0
LTYPE
  5
5
330
2
100
AcDbSymbolTableRecord
100
AcDbLinetypeTableRecord
  2
CONTINUOUS
 70
     0
  3
Continuous
 72
    65
 73
     0
 40
0.0
  0
ENDTAB
  0
TABLE
  2
LAYER
  5
6
330
0
100
AcDbSymbolTable
 70
     7
  0
LAYER
  5
7
330
6
100
AcDbSymbolTableRecord
100
AcDbLayerTableRecord
  2
0
 70
     0
 62
     7
  6
CONTINUOUS
370
     0
390
     0
  0
LAYER
  5
8
330
6
100
AcDbSymbolTableRecord
100
AcDbLayerTableRecord
  2
IMP_EC_PLATE-B_MASK_GBR
 70
     0
 62
    16
  6
CONTINUOUS
370
     0
390
     0
  0
LAYER
  5
9
330
6
100
AcDbSymbolTableRecord
100
AcDbLayerTableRecord
  2
IMP_EC_PLATE-B_SILKS_GBR
 70
     0
 62
    98
  6
CONTINUOUS
370
     0
390
     0
  0
LAYER
  5
A
330
6
100
AcDbSymbolTableRecord
100
AcDbLayerTableRecord
  2
IMP_EC_PLATE-EDGE_CUTS_GBR
 70
     0
 62
   170
  6
CONTINUOUS
370
     0
390
     0
  0
LAYER
  5
B
330
6
100
AcDbSymbolTableRecord
100
AcDbLayerTableRecord
  2
IMP_EC_PLATE-F_MASK_GBR
 70
     0
 62
    40
  6
CONTINUOUS
370
     0
390
     0
  0
LAYER
  5
C
330
6
100
AcDbSymbolTableRecord
100
AcDbLayerTableRecord
  2
IMP_EC_PLATE-NPTH_DRL
 70
     0
 62
   136
  6
CONTINUOUS
370
     0
390
     0
  0
LAYER
  5
D
330
6
100
AcDbSymbolTableRecord
100
AcDbLayerTableRecord
  2
IMP_EC_PLATE-PTH_DRL
 70
     0
 62
   210
  6
CONTINUOUS
370
     0
390
     0
  0
ENDTAB
  0
TABLE
  2
STYLE
  5
E
330
0
100
AcDbSymbolTable
 70
     0
  0
ENDTAB
  0
TABLE
  2
VIEW
  5
F
330
0
100
AcDbSymbolTable
 70
     0
  0
ENDTAB
  0
TABLE
  2
UCS
  5
10
330
0
100
AcDbSymbolTable
 70
     0
  0
ENDTAB
  0
TABLE
  2
APPID
  5
11
330
0
100
AcDbSymbolTable
 70
     1
  0
APPID
  5
12
330
11
100
AcDbSymbolTableRecord
100
AcDbRegAppTableRecord
  2
ACAD
 70
     0
  0
ENDTAB
  0
TABLE
  2
DIMSTYLE
  5
13
330
0
100
AcDbSymbolTable
 70
     0
100
AcDbDimStyleTable
 71
     0
  0
ENDTAB
  0
TABLE
  2
BLOCK_RECORD
  5
14
330
0
100
AcDbSymbolTable
 70
     6
  0
BLOCK_RECORD
  5
15
330
14
100
AcDbSymbolTableRecord
100
AcDbBlockTableRecord
  2
*Model_Space
340
1E
  0
BLOCK_RECORD
  5
16
330
14
100
AcDbSymbolTableRecord
100
AcDbBlockTableRecord
  2
*Paper_Space
340
1F
  0
BLOCK_RECORD
  5
17
330
14
100
AcDbSymbolTableRecord
100
AcDbBlockTableRecord
  2
ROUND_1
340
0
  0
BLOCK_RECORD
  5
18
330
14
100
AcDbSymbolTableRecord
100
AcDbBlockTableRecord
  2
ROUND_3
340
0
  0
BLOCK_RECORD
  5
19
330
14
100
AcDbSymbolTableRecord
100
AcDbBlockTableRecord
  2
ROUND_4
340
0
  0
BLOCK_RECORD
  5
1A
330
14
100
AcDbSymbolTableRecord
100
AcDbBlockTableRecord
  2
ROUND_5
340
0
  0
ENDTAB
  0
ENDSEC
  0
SECTION
  2
BLOCKS
  0
BLOCK
  5
21
330
15
100
AcDbEntity
  8
0
100
AcDbBlockBegin
  2
*Model_Space
 70
     0
 10
0.0
 20
0.0
 30
0.0
  3
*Model_Space
  1

  0
ENDBLK
  5
22
330
15
100
AcDbEntity
  8
0
100
AcDbBlockEnd
  0
BLOCK
  5
23
330
16
100
AcDbEntity
  8
0
100
AcDbBlockBegin
  2
*Paper_Space
 70
     0
 10
0.0
 20
0.0
 30
0.0
  3
*Paper_Space
  1

  0
ENDBLK
  5
24
330
16
100
AcDbEntity
  8
0
100
AcDbBlockEnd
  0
BLOCK
  5
25
330
17
100
AcDbEntity
  8
0
100
AcDbBlockBegin
  2
ROUND_1
 70
     0
 10
0.0
 20
0.0
 30
0.0
  3
ROUND_1
  1

  0
HATCH
  5
27
330
17
100
AcDbEntity
  8
0
100
AcDbHatch
 10
0.0
 20
0.0
 30
0.0
210
0.0
220
0.0
230
1.0
  2
SOLID
 70
     1
 71
     0
 91
     1
 92
     0
 93
     1
 72
     2
 10
0.0
 20
-2.84217094304E-14
 40
0.127
 50
0.0
 51
360.0
 73
     1
 97
     0
 75
     0
 76
     1
 98
     1
 10
0.0
 20
0.0
  0
ENDBLK
  5
26
330
17
100
AcDbEntity
  8
0
100
AcDbBlockEnd
  0
BLOCK
  5
28
330
18
100
AcDbEntity
  8
0
100
AcDbBlockBegin
  2
ROUND_3
 70
     0
 10
0.0
 20
0.0
 30
0.0
  3
ROUND_3
  1

  0
HATCH
  5
2A
330
18
100
AcDbEntity
  8
0
100
AcDbHatch
 10
0.0
 20
0.0
 30
0.0
210
0.0
220
0.0
230
1.0
  2
SOLID
 70
     1
 71
     0
 91
     1
 92
     0
 93
     1
 72
     2
 10
0.0
 20
-2.84217094304E-14
 40
0.9
 50
0.0
 51
360.0
 73
     1
 97
     0
 75
     0
 76
     1
 98
     1
 10
0.0
 20
0.0
  0
ENDBLK
  5
29
330
18
100
AcDbEntity
  8
0
100
AcDbBlockEnd
  0
BLOCK
  5
2B
330
19
100
AcDbEntity
  8
0
100
AcDbBlockBegin
  2
ROUND_4
 70
     0
 10
0.0
 20
0.0
 30
0.0
  3
ROUND_4
  1

  0
HATCH
  5
2D
330
19
100
AcDbEntity
  8
0
100
AcDbHatch
 10
0.0
 20
0.0
 30
0.0
210
0.0
220
0.0
230
1.0
  2
SOLID
 70
     1
 71
     0
 91
     1
 92
     0
 93
     1
 72
     2
 10
0.0
 20
-2.84217094304E-14
 40
0.1
 50
0.0
 51
360.0
 73
     1
 97
     0
 75
     0
 76
     1
 98
     1
 10
0.0
 20
0.0
  0
ENDBLK
  5
2C
330
19
100
AcDbEntity
  8
0
100
AcDbBlockEnd
  0
BLOCK
  5
2E
330
1A
100
AcDbEntity
  8
0
100
AcDbBlockBegin
  2
ROUND_5
 70
     0
 10
0.0
 20
0.0
 30
0.0
  3
ROUND_5
  1

  0
HATCH
  5
30
330
1A
100
AcDbEntity
  8
0
100
AcDbHatch
 10
0.0
 20
0.0
 30
0.0
210
0.0
220
0.0
230
1.0
  2
SOLID
 70
     1
 71
     0
 91
     1
 92
     0
 93
     1
 72
     2
 10
0.0
 20
-2.84217094304E-14
 40
0.900429333333
 50
0.0
 51
360.0
 73
     1
 97
     0
 75
     0
 76
     1
 98
     1
 10
0.0
 20
0.0
  0
ENDBLK
  5
2F
330
1A
100
AcDbEntity
  8
0
100
AcDbBlockEnd
  0
ENDSEC
  0
SECTION
  2
ENTITIES
  0
INSERT
  5
31
330
15
100
AcDbEntity
  8
IMP_EC_PLATE-B_MASK_GBR
100
AcDbBlockReference
  2
ROUND_3
 10
273.60506
 20
-108.103332
 30
0.0
  0
INSERT
  5
32
330
15
100
AcDbEntity
  8
IMP_EC_PLATE-B_MASK_GBR
100
AcDbBlockReference
  2
ROUND_3
 10
147.49006
 20
-85.003332
 30
0.0
  0
INSERT
  5
33
330
15
100
AcDbEntity
  8
IMP_EC_PLATE-B_MASK_GBR
100
AcDbBlockReference
  2
ROUND_3
 10
159.300008
 20
-188.673332
 30
0.0
  0
INSERT
  5
34
330
15
100
AcDbEntity
  8
IMP_EC_PLATE-B_MASK_GBR
100
AcDbBlockReference
  2
ROUND_3
 10
309.01506
 20
-85.003332
 30
0.0
  0
INSERT
  5
35
330
15
100
AcDbEntity
  8
IMP_EC_PLATE-B_MASK_GBR
100
AcDbBlockReference
  2
ROUND_3
 10
228.24006
 20
-85.003332
 30
0.0
  0
INSERT
  5
36
330
15
100
AcDbEntity
  8
IMP_EC_PLATE-B_MASK_GBR
100
AcDbBlockReference
  2
ROUND_3
 10
216.53506
 20
-108.103332
 30
0.0
  0
INSERT
  5
37
330
15
100
AcDbEntity
  8
IMP_EC_PLATE-B_MASK_GBR
100
AcDbBlockReference
  2
ROUND_3
 10
283.06506
 20
-127.123332
 30
0.0
  0
INSERT
  5
38
330
15
100
AcDbEntity
  8
IMP_EC_PLATE-B_MASK_GBR
100
AcDbBlockReference
  2
ROUND_3
 10
116.418596
 20
-184.173332
 30
0.0
  0
INSERT
  5
39
330
15
100
AcDbEntity
  8
IMP_EC_PLATE-B_MASK_GBR
100
AcDbBlockReference
  2
ROUND_3
 10
334.444268
 20
-108.126884
 30
0.0
  0
INSERT
  5
3A
330
15
100
AcDbEntity
  8
IMP_EC_PLATE-B_MASK_GBR
100
AcDbBlockReference
  2
ROUND_3
 10
353.449268
 20
-184.296884
 30
0.0
  0
INSERT
  5
3B
330
15
100
AcDbEntity
  8
IMP_EC_PLATE-B_MASK_GBR
100
AcDbBlockReference
  2
ROUND_3
 10
330.033388
 20
-184.173332
 30
0.0
  0
INSERT
  5
3C
330
15
100
AcDbEntity
  8
IMP_EC_PLATE-B_MASK_GBR
100
AcDbBlockReference
  2
ROUND_3
 10
202.19506
 20
-165.163332
 30
0.0
  0
INSERT
  5
3D
330
15
100
AcDbEntity
  8
IMP_EC_PLATE-B_MASK_GBR
100
AcDbBlockReference
  2
ROUND_3
 10
47.51006
 20
-146.143332
 30
0.0
  0
INSERT
  5
3E
330
15
100
AcDbEntity
  8
IMP_EC_PLATE-B_MASK_GBR
100
AcDbBlockReference
  2
ROUND_3
 10
64.37506
 20
-108.103332
 30
0.0
  0
INSERT
  5
3F
330
15
100
AcDbEntity
  8
IMP_EC_PLATE-B_MASK_GBR
100
AcDbBlockReference
  2
ROUND_3
 10
287.78506
 20
-146.143332
 30
0.0
  0
INSERT
  5
40
330
15
100
AcDbEntity
  8
IMP_EC_PLATE-B_MASK_GBR
100
AcDbBlockReference
  2
ROUND_3
 10
259.187508
 20
-184.173332
 30
0.0
  0
INSERT
  5
41
330
15
100
AcDbEntity
  8
IMP_EC_PLATE-B_MASK_GBR
100
AcDbBlockReference
  2
ROUND_3
 10
64.37506
 20
-85.0067893333
 30
0.0
  0
INSERT
  5
42
330
15
100
AcDbEntity
  8
IMP_EC_PLATE-B_MASK_GBR
100
AcDbBlockReference
  2
ROUND_3
 10
216.450008
 20
-188.673332
 30
0.0
  0
INSERT
  5
43
330
15
100
AcDbEntity
  8
IMP_EC_PLATE-B_MASK_GBR
100
AcDbBlockReference
  2
ROUND_3
 10
278.19506
 20
-165.163332
 30
0.0
  0
INSERT
  5
44
330
15
100
AcDbEntity
  8
IMP_EC_PLATE-B_MASK_GBR
100
AcDbBlockReference
  2
ROUND_3
 10
372.484268
 20
-85.0067893333
 30
0.0
  0
INSERT
  5
45
330
15
100
AcDbEntity
  8
IMP_EC_PLATE-B_MASK_GBR
100
AcDbBlockReference
  2
ROUND_3
 10
47.086592
 20
-184.173332
 30
0.0
  0
INSERT
  5
46
330
15
100
AcDbEntity
  8
IMP_EC_PLATE-B_MASK_GBR
100
AcDbBlockReference
  2
ROUND_3
 10
211.76506
 20
-146.143332
 30
0.0
  0
INSERT
  5
47
330
15
100
AcDbEntity
  8
IMP_EC_PLATE-B_MASK_GBR
100
AcDbBlockReference
  2
ROUND_3
 10
372.484268
 20
-127.146884
 30
0.0
  0
INSERT
  5
48
330
15
100
AcDbEntity
  8
IMP_EC_PLATE-B_MASK_GBR
100
AcDbBlockReference
  2
ROUND_3
 10
330.033388
 20
-155.653332
 30
0.0
  0
INSERT
  5
49
330
15
100
AcDbEntity
  8
IMP_EC_PLATE-B_MASK_GBR
100
AcDbBlockReference
  2
ROUND_3
 10
140.45506
 20
-108.103332
 30
0.0
  0
INSERT
  5
4A
330
15
100
AcDbEntity
  8
IMP_EC_PLATE-B_MASK_GBR
100
AcDbBlockReference
  2
ROUND_3
 10
372.499268
 20
-165.276884
 30
0.0
  0
INSERT
  5
4B
330
15
100
AcDbEntity
  8
IMP_EC_PLATE-B_MASK_GBR
100
AcDbBlockReference
  2
ROUND_3
 10
149.91506
 20
-127.123332
 30
0.0
  0
INSERT
  5
4C
330
15
100
AcDbEntity
  8
IMP_EC_PLATE-B_MASK_GBR
100
AcDbBlockReference
  2
ROUND_3
 10
126.19506
 20
-165.163332
 30
0.0
  0
INSERT
  5
4D
330
15
100
AcDbEntity
  8
IMP_EC_PLATE-B_MASK_GBR
100
AcDbBlockReference
  2
ROUND_3
 10
135.74506
 20
-146.143332
 30
0.0
  0
INSERT
  5
4E
330
15
100
AcDbEntity
  8
IMP_EC_PLATE-B_MASK_GBR
100
AcDbBlockReference
  2
ROUND_3
 10
225.99506
 20
-127.123332
 30
0.0
  0
INSERT
  5
4F
330
15
100
AcDbEntity
  8
IMP_EC_PLATE-B_MASK_GBR
100
AcDbBlockReference
  2
ROUND_3
 10
330.033388
 20
-127.123332
 30
0.0
  0
INSERT
  5
50
330
15
100
AcDbEntity
  8
IMP_EC_PLATE-B_MASK_GBR
100
AcDbBlockReference
  2
ROUND_3
 10
353.449268
 20
-165.276884
 30
0.0
  0
INSERT
  5
51
330
15
100
AcDbEntity
  8
IMP_EC_PLATE-B_MASK_GBR
100
AcDbBlockReference
  2
ROUND_3
 10
88.19506
 20
-165.163332
 30
0.0
  0
INSERT
  5
52
330
15
100
AcDbEntity
  8
IMP_EC_PLATE-B_MASK_GBR
100
AcDbBlockReference
  2
ROUND_3
 10
69.10506
 20
-127.123332
 30
0.0
  0
INSERT
  5
53
330
15
100
AcDbEntity
  8
IMP_EC_PLATE-B_MASK_GBR
100
AcDbBlockReference
  2
ROUND_3
 10
372.469268
 20
-184.296884
 30
0.0
  0
LWPOLYLINE
  5
54
330
15
100
AcDbEntity
  8
IMP_EC_PLATE-B_SILKS_GBR
  6
BYLAYER
370
   211
 62
   256
100
AcDbPolyline
 90
     4
 70
     0
 43
0.2
 10
272.20506
 20
-108.103332
 42
0.0
 10
272.20506
 20
-108.103332
 42
1
 10
275.00506
 20
-108.103332
 42
1
 10
272.20506
 20
-108.103332
 42
0.0
  0
LWPOLYLINE
  5
55
330
15
100
AcDbEntity
  8
IMP_EC_PLATE-B_SILKS_GBR
  6
BYLAYER
370
   211
 62
   256
100
AcDbPolyline
 90
     4
 70
     0
 43
0.2
 10
146.09006
 20
-85.003332
 42
0.0
 10
146.09006
 20
-85.003332
 42
1
 10
148.89006
 20
-85.003332
 42
1
 10
146.09006
 20
-85.003332
 42
0.0
  0
LWPOLYLINE
  5
56
330
15
100
AcDbEntity
  8
IMP_EC_PLATE-B_SILKS_GBR
  6
BYLAYER
370
   211
 62
   256
100
AcDbPolyline
 90
     4
 70
     0
 43
0.2
 10
157.900008
 20
-188.673332
 42
0.0
 10
157.900008
 20
-188.673332
 42
1
 10
160.700008
 20
-188.673332
 42
1
 10
157.900008
 20
-188.673332
 42
0.0
  0
LWPOLYLINE
  5
57
330
15
100
AcDbEntity
  8
IMP_EC_PLATE-B_SILKS_GBR
  6
BYLAYER
370
   211
 62
   256
100
AcDbPolyline
 90
     4
 70
     0
 43
0.2
 10
307.61506
 20
-85.003332
 42
0.0
 10
307.61506
 20
-85.003332
 42
1
 10
310.41506
 20
-85.003332
 42
1
 10
307.61506
 20
-85.003332
 42
0.0
  0
LWPOLYLINE
  5
58
330
15
100
AcDbEntity
  8
IMP_EC_PLATE-B_SILKS_GBR
  6
BYLAYER
370
   211
 62
   256
100
AcDbPolyline
 90
     4
 70
     0
 43
0.2
 10
226.84006
 20
-85.003332
 42
0.0
 10
226.84006
 20
-85.003332
 42
1
 10
229.64006
 20
-85.003332
 42
1
 10
226.84006
 20
-85.003332
 42
0.0
  0
LWPOLYLINE
  5
59
330
15
100
AcDbEntity
  8
IMP_EC_PLATE-B_SILKS_GBR
  6
BYLAYER
370
   211
 62
   256
100
AcDbPolyline
 90
     4
 70
     0
 43
0.2
 10
215.13506
 20
-108.103332
 42
0.0
 10
215.13506
 20
-108.103332
 42
1
 10
217.93506
 20
-108.103332
 42
1
 10
215.13506
 20
-108.103332
 42
0.0
  0
LWPOLYLINE
  5
5A
330
15
100
AcDbEntity
  8
IMP_EC_PLATE-B_SILKS_GBR
  6
BYLAYER
370
   211
 62
   256
100
AcDbPolyline
 90
     4
 70
     0
 43
0.2
 10
281.66506
 20
-127.123332
 42
0.0
 10
281.66506
 20
-127.123332
 42
1
 10
284.46506
 20
-127.123332
 42
1
 10
281.66506
 20
-127.123332
 42
0.0
  0
LWPOLYLINE
  5
5B
330
15
100
AcDbEntity
  8
IMP_EC_PLATE-B_SILKS_GBR
  6
BYLAYER
370
   211
 62
   256
100
AcDbPolyline
 90
     4
 70
     0
 43
0.2
 10
115.018596
 20
-184.173332
 42
0.0
 10
115.018596
 20
-184.173332
 42
1
 10
117.818596
 20
-184.173332
 42
1
 10
115.018596
 20
-184.173332
 42
0.0
  0
LWPOLYLINE
  5
5C
330
15
100
AcDbEntity
  8
IMP_EC_PLATE-B_SILKS_GBR
  6
BYLAYER
370
   211
 62
   256
100
AcDbPolyline
 90
     4
 70
     0
 43
0.2
 10
333.044268
 20
-108.126884
 42
0.0
 10
333.044268
 20
-108.126884
 42
1
 10
335.844268
 20
-108.126884
 42
1
 10
333.044268
 20
-108.126884
 42
0.0
  0
LWPOLYLINE
  5
5D
330
15
100
AcDbEntity
  8
IMP_EC_PLATE-B_SILKS_GBR
  6
BYLAYER
370
   211
 62
   256
100
AcDbPolyline
 90
     4
 70
     0
 43
0.2
 10
352.049268
 20
-184.296884
 42
0.0
 10
352.049268
 20
-184.296884
 42
1
 10
354.849268
 20
-184.296884
 42
1
 10
352.049268
 20
-184.296884
 42
0.0
  0
LWPOLYLINE
  5
5E
330
15
100
AcDbEntity
  8
IMP_EC_PLATE-B_SILKS_GBR
  6
BYLAYER
370
   211
 62
   256
100
AcDbPolyline
 90
     4
 70
     0
 43
0.2
 10
328.633388
 20
-184.173332
 42
0.0
 10
328.633388
 20
-184.173332
 42
1
 10
331.433388
 20
-184.173332
 42
1
 10
328.633388
 20
-184.173332
 42
0.0
  0
LWPOLYLINE
  5
5F
330
15
100
AcDbEntity
  8
IMP_EC_PLATE-B_SILKS_GBR
  6
BYLAYER
370
   211
 62
   256
100
AcDbPolyline
 90
     4
 70
     0
 43
0.2
 10
200.79506
 20
-165.163332
 42
0.0
 10
200.79506
 20
-165.163332
 42
1
 10
203.59506
 20
-165.163332
 42
1
 10
200.79506
 20
-165.163332
 42
0.0
  0
LWPOLYLINE
  5
60
330
15
100
AcDbEntity
  8
IMP_EC_PLATE-B_SILKS_GBR
  6
BYLAYER
370
   211
 62
   256
100
AcDbPolyline
 90
     4
 70
     0
 43
0.2
 10
46.11006
 20
-146.143332
 42
0.0
 10
46.11006
 20
-146.143332
 42
1
 10
48.91006
 20
-146.143332
 42
1
 10
46.11006
 20
-146.143332
 42
0.0
  0
LWPOLYLINE
  5
61
330
15
100
AcDbEntity
  8
IMP_EC_PLATE-B_SILKS_GBR
  6
BYLAYER
370
   211
 62
   256
100
AcDbPolyline
 90
     4
 70
     0
 43
0.2
 10
62.97506
 20
-108.103332
 42
0.0
 10
62.97506
 20
-108.103332
 42
1
 10
65.77506
 20
-108.103332
 42
1
 10
62.97506
 20
-108.103332
 42
0.0
  0
LWPOLYLINE
  5
62
330
15
100
AcDbEntity
  8
IMP_EC_PLATE-B_SILKS_GBR
  6
BYLAYER
370
   211
 62
   256
100
AcDbPolyline
 90
     4
 70
     0
 43
0.2
 10
286.38506
 20
-146.143332
 42
0.0
 10
286.38506
 20
-146.143332
 42
1
 10
289.18506
 20
-146.143332
 42
1
 10
286.38506
 20
-146.143332
 42
0.0
  0
LWPOLYLINE
  5
63
330
15
100
AcDbEntity
  8
IMP_EC_PLATE-B_SILKS_GBR
  6
BYLAYER
370
   211
 62
   256
100
AcDbPolyline
 90
     4
 70
     0
 43
0.2
 10
257.787508
 20
-184.173332
 42
0.0
 10
257.787508
 20
-184.173332
 42
1
 10
260.587508
 20
-184.173332
 42
1
 10
257.787508
 20
-184.173332
 42
0.0
  0
LWPOLYLINE
  5
64
330
15
100
AcDbEntity
  8
IMP_EC_PLATE-B_SILKS_GBR
  6
BYLAYER
370
   211
 62
   256
100
AcDbPolyline
 90
     4
 70
     0
 43
0.2
 10
62.97506
 20
-85.0067893333
 42
0.0
 10
62.97506
 20
-85.0067893333
 42
1
 10
65.77506
 20
-85.0067893333
 42
1
 10
62.97506
 20
-85.0067893333
 42
0.0
  0
LWPOLYLINE
  5
65
330
15
100
AcDbEntity
  8
IMP_EC_PLATE-B_SILKS_GBR
  6
BYLAYER
370
   211
 62
   256
100
AcDbPolyline
 90
     4
 70
     0
 43
0.2
 10
215.050008
 20
-188.673332
 42
0.0
 10
215.050008
 20
-188.673332
 42
1
 10
217.850008
 20
-188.673332
 42
1
 10
215.050008
 20
-188.673332
 42
0.0
  0
LWPOLYLINE
  5
66
330
15
100
AcDbEntity
  8
IMP_EC_PLATE-B_SILKS_GBR
  6
BYLAYER
370
   211
 62
   256
100
AcDbPolyline
 90
     4
 70
     0
 43
0.2
 10
276.79506
 20
-165.163332
 42
0.0
 10
276.79506
 20
-165.163332
 42
1
 10
279.59506
 20
-165.163332
 42
1
 10
276.79506
 20
-165.163332
 42
0.0
  0
LWPOLYLINE
  5
67
330
15
100
AcDbEntity
  8
IMP_EC_PLATE-B_SILKS_GBR
  6
BYLAYER
370
   211
 62
   256
100
AcDbPolyline
 90
     4
 70
     0
 43
0.2
 10
371.084268
 20
-85.0067893333
 42
0.0
 10
371.084268
 20
-85.0067893333
 42
1
 10
373.884268
 20
-85.0067893333
 42
1
 10
371.084268
 20
-85.0067893333
 42
0.0
  0
LWPOLYLINE
  5
68
330
15
100
AcDbEntity
  8
IMP_EC_PLATE-B_SILKS_GBR
  6
BYLAYER
370
   211
 62
   256
100
AcDbPolyline
 90
     4
 70
     0
 43
0.2
 10
45.686592
 20
-184.173332
 42
0.0
 10
45.686592
 20
-184.173332
 42
1
 10
48.486592
 20
-184.173332
 42
1
 10
45.686592
 20
-184.173332
 42
0.0
  0
LWPOLYLINE
  5
69
330
15
100
AcDbEntity
  8
IMP_EC_PLATE-B_SILKS_GBR
  6
BYLAYER
370
   211
 62
   256
100
AcDbPolyline
 90
     4
 70
     0
 43
0.2
 10
210.36506
 20
-146.143332
 42
0.0
 10
210.36506
 20
-146.143332
 42
1
 10
213.16506
 20
-146.143332
 42
1
 10
210.36506
 20
-146.143332
 42
0.0
  0
LWPOLYLINE
  5
6A
330
15
100
AcDbEntity
  8
IMP_EC_PLATE-B_SILKS_GBR
  6
BYLAYER
370
   211
 62
   256
100
AcDbPolyline
 90
     4
 70
     0
 43
0.2
 10
371.084268
 20
-127.146884
 42
0.0
 10
371.084268
 20
-127.146884
 42
1
 10
373.884268
 20
-127.146884
 42
1
 10
371.084268
 20
-127.146884
 42
0.0
  0
LWPOLYLINE
  5
6B
330
15
100
AcDbEntity
  8
IMP_EC_PLATE-B_SILKS_GBR
  6
BYLAYER
370
   211
 62
   256
100
AcDbPolyline
 90
     4
 70
     0
 43
0.2
 10
328.633388
 20
-155.653332
 42
0.0
 10
328.633388
 20
-155.653332
 42
1
 10
331.433388
 20
-155.653332
 42
1
 10
328.633388
 20
-155.653332
 42
0.0
  0
LWPOLYLINE
  5
6C
330
15
100
AcDbEntity
  8
IMP_EC_PLATE-B_SILKS_GBR
  6
BYLAYER
370
   211
 62
   256
100
AcDbPolyline
 90
     4
 70
     0
 43
0.2
 10
139.05506
 20
-108.103332
 42
0.0
 10
139.05506
 20
-108.103332
 42
1
 10
141.85506
 20
-108.103332
 42
1
 10
139.05506
 20
-108.103332
 42
0.0
  0
LWPOLYLINE
  5
6D
330
15
100
AcDbEntity
  8
IMP_EC_PLATE-B_SILKS_GBR
  6
BYLAYER
370
   211
 62
   256
100
AcDbPolyline
 90
     4
 70
     0
 43
0.2
 10
371.099268
 20
-165.276884
 42
0.0
 10
371.099268
 20
-165.276884
 42
1
 10
373.899268
 20
-165.276884
 42
1
 10
371.099268
 20
-165.276884
 42
0.0
  0
LWPOLYLINE
  5
6E
330
15
100
AcDbEntity
  8
IMP_EC_PLATE-B_SILKS_GBR
  6
BYLAYER
370
   211
 62
   256
100
AcDbPolyline
 90
     4
 70
     0
 43
0.2
 10
148.51506
 20
-127.123332
 42
0.0
 10
148.51506
 20
-127.123332
 42
1
 10
151.31506
 20
-127.123332
 42
1
 10
148.51506
 20
-127.123332
 42
0.0
  0
LWPOLYLINE
  5
6F
330
15
100
AcDbEntity
  8
IMP_EC_PLATE-B_SILKS_GBR
  6
BYLAYER
370
   211
 62
   256
100
AcDbPolyline
 90
     4
 70
     0
 43
0.2
 10
124.79506
 20
-165.163332
 42
0.0
 10
124.79506
 20
-165.163332
 42
1
 10
127.59506
 20
-165.163332
 42
1
 10
124.79506
 20
-165.163332
 42
0.0
  0
LWPOLYLINE
  5
70
330
15
100
AcDbEntity
  8
IMP_EC_PLATE-B_SILKS_GBR
  6
BYLAYER
370
   211
 62
   256
100
AcDbPolyline
 90
     4
 70
     0
 43
0.2
 10
134.34506
 20
-146.143332
 42
0.0
 10
134.34506
 20
-146.143332
 42
1
 10
137.14506
 20
-146.143332
 42
1
 10
134.34506
 20
-146.143332
 42
0.0
  0
LWPOLYLINE
  5
71
330
15
100
AcDbEntity
  8
IMP_EC_PLATE-B_SILKS_GBR
  6
BYLAYER
370
   211
 62
   256
100
AcDbPolyline
 90
     4
 70
     0
 43
0.2
 10
224.59506
 20
-127.123332
 42
0.0
 10
224.59506
 20
-127.123332
 42
1
 10
227.39506
 20
-127.123332
 42
1
 10
224.59506
 20
-127.123332
 42
0.0
  0
LWPOLYLINE
  5
72
330
15
100
AcDbEntity
  8
IMP_EC_PLATE-B_SILKS_GBR
  6
BYLAYER
370
   211
 62
   256
100
AcDbPolyline
 90
     4
 70
     0
 43
0.2
 10
328.633388
 20
-127.123332
 42
0.0
 10
328.633388
 20
-127.123332
 42
1
 10
331.433388
 20
-127.123332
 42
1
 10
328.633388
 20
-127.123332
 42
0.0
  0
LWPOLYLINE
  5
73
330
15
100
AcDbEntity
  8
IMP_EC_PLATE-B_SILKS_GBR
  6
BYLAYER
370
   211
 62
   256
100
AcDbPolyline
 90
     4
 70
     0
 43
0.2
 10
352.049268
 20
-165.276884
 42
0.0
 10
352.049268
 20
-165.276884
 42
1
 10
354.849268
 20
-165.276884
 42
1
 10
352.049268
 20
-165.276884
 42
0.0
  0
LWPOLYLINE
  5
74
330
15
100
AcDbEntity
  8
IMP_EC_PLATE-B_SILKS_GBR
  6
BYLAYER
370
   211
 62
   256
100
AcDbPolyline
 90
     4
 70
     0
 43
0.2
 10
86.79506
 20
-165.163332
 42
0.0
 10
86.79506
 20
-165.163332
 42
1
 10
89.59506
 20
-165.163332
 42
1
 10
86.79506
 20
-165.163332
 42
0.0
  0
LWPOLYLINE
  5
75
330
15
100
AcDbEntity
  8
IMP_EC_PLATE-B_SILKS_GBR
  6
BYLAYER
370
   211
 62
   256
100
AcDbPolyline
 90
     4
 70
     0
 43
0.2
 10
67.70506
 20
-127.123332
 42
0.0
 10
67.70506
 20
-127.123332
 42
1
 10
70.50506
 20
-127.123332
 42
1
 10
67.70506
 20
-127.123332
 42
0.0
  0
LWPOLYLINE
  5
76
330
15
100
AcDbEntity
  8
IMP_EC_PLATE-B_SILKS_GBR
  6
BYLAYER
370
   211
 62
   256
100
AcDbPolyline
 90
     4
 70
     0
 43
0.2
 10
371.069268
 20
-184.296884
 42
0.0
 10
371.069268
 20
-184.296884
 42
1
 10
373.869268
 20
-184.296884
 42
1
 10
371.069268
 20
-184.296884
 42
0.0
  0
LWPOLYLINE
  5
77
330
15
100
AcDbEntity
  8
IMP_EC_PLATE-EDGE_CUTS_GBR
  6
BYLAYER
370
   211
 62
   256
100
AcDbPolyline
 90
     2
 70
     0
 43
0.2
 10
79.77506
 20
-172.166816
 10
53.77506
 20
-172.166816
  0
LWPOLYLINE
  5
78
330
15
100
AcDbEntity
  8
IMP_EC_PLATE-EDGE_CUTS_GBR
  6
BYLAYER
370
   211
 62
   256
100
AcDbPolyline
 90
     2
 70
     0
 43
0.2
 10
51.77506
 20
-158.166817333
 10
81.77506
 20
-158.166817333
  0
LWPOLYLINE
  5
79
330
15
100
AcDbEntity
  8
IMP_EC_PLATE-EDGE_CUTS_GBR
  6
BYLAYER
370
   211
 62
   256
100
AcDbPolyline
 90
     2
 70
     0
 43
0.2
 10
291.42506
 20
-172.166816
 10
317.42506
 20
-172.166816
  0
LWPOLYLINE
  5
7A
330
15
100
AcDbEntity
  8
IMP_EC_PLATE-EDGE_CUTS_GBR
  6
BYLAYER
370
   211
 62
   256
100
AcDbPolyline
 90
     2
 70
     0
 43
0.2
 10
319.42506
 20
-158.166817333
 10
289.42506
 20
-158.166817333
  0
LWPOLYLINE
  5
7B
330
15
100
AcDbEntity
  8
IMP_EC_PLATE-EDGE_CUTS_GBR
  6
BYLAYER
370
   211
 62
   256
100
AcDbPolyline
 90
     2
 70
     0
 43
0.2
 10
322.20506
 20
-153.146816
 10
296.20506
 20
-153.146816
  0
LWPOLYLINE
  5
7C
330
15
100
AcDbEntity
  8
IMP_EC_PLATE-EDGE_CUTS_GBR
  6
BYLAYER
370
   211
 62
   256
100
AcDbPolyline
 90
     2
 70
     0
 43
0.2
 10
294.20506
 20
-139.146817333
 10
324.20506
 20
-139.146817333
  0
LWPOLYLINE
  5
7D
330
15
100
AcDbEntity
  8
IMP_EC_PLATE-EDGE_CUTS_GBR
  6
BYLAYER
370
   211
 62
   256
100
AcDbPolyline
 90
     2
 70
     0
 43
0.2
 10
324.66006
 20
-115.106816
 10
298.66006
 20
-115.106816
  0
LWPOLYLINE
  5
7E
330
15
100
AcDbEntity
  8
IMP_EC_PLATE-EDGE_CUTS_GBR
  6
BYLAYER
370
   211
 62
   256
100
AcDbPolyline
 90
     2
 70
     0
 43
0.2
 10
296.66006
 20
-101.106817333
 10
326.66006
 20
-101.106817333
  0
LWPOLYLINE
  5
7F
330
15
100
AcDbEntity
  8
IMP_EC_PLATE-EDGE_CUTS_GBR
  6
BYLAYER
370
   211
 62
   256
100
AcDbPolyline
 90
     2
 70
     0
 43
0.2
 10
328.162508
 20
-194.303332
 10
336.953473333
 20
-194.303332
  0
LWPOLYLINE
  5
80
330
15
100
AcDbEntity
  8
IMP_EC_PLATE-EDGE_CUTS_GBR
  6
BYLAYER
370
   211
 62
   256
100
AcDbPolyline
 90
     2
 70
     0
 43
0.2
 10
328.162509333
 20
-75.053332
 10
336.953473333
 20
-75.053332
  0
LWPOLYLINE
  5
81
330
15
100
AcDbEntity
  8
IMP_EC_PLATE-EDGE_CUTS_GBR
  6
BYLAYER
370
   211
 62
   256
100
AcDbPolyline
 90
     2
 70
     0
 43
0.2
 10
314.574268
 20
-78.003332
 10
324.310657333
 20
-78.0219213333
  0
LWPOLYLINE
  5
82
330
15
100
AcDbEntity
  8
IMP_EC_PLATE-EDGE_CUTS_GBR
  6
BYLAYER
370
   211
 62
   256
100
AcDbPolyline
 90
     2
 70
     0
 43
0.2
 10
328.174268
 20
-91.003332
 10
328.177465333
 20
-81.8593813333
  0
LWPOLYLINE
  5
83
330
15
100
AcDbEntity
  8
IMP_EC_PLATE-EDGE_CUTS_GBR
  6
BYLAYER
370
   211
 62
   256
100
AcDbPolyline
 90
     2
 70
     0
 43
0.2
 10
328.177465333
 20
-81.8593813333
 42
1.59612376625
 10
324.310657333
 20
-78.0219213333
 42
0.0
  0
LWPOLYLINE
  5
84
330
15
100
AcDbEntity
  8
IMP_EC_PLATE-EDGE_CUTS_GBR
  6
BYLAYER
370
   211
 62
   256
100
AcDbPolyline
 90
     2
 70
     0
 43
0.2
 10
313.574268
 20
-91.003332
 10
313.574268
 20
-79.003332
  0
LWPOLYLINE
  5
85
330
15
100
AcDbEntity
  8
IMP_EC_PLATE-EDGE_CUTS_GBR
  6
BYLAYER
370
   211
 62
   256
100
AcDbPolyline
 90
     2
 70
     0
 43
0.2
 10
314.574268
 20
-92.003332
 10
313.574268
 20
-91.003332
  0
LWPOLYLINE
  5
86
330
15
100
AcDbEntity
  8
IMP_EC_PLATE-EDGE_CUTS_GBR
  6
BYLAYER
370
   211
 62
   256
100
AcDbPolyline
 90
     2
 70
     0
 43
0.2
 10
327.174268
 20
-92.003332
 10
314.574268
 20
-92.003332
  0
LWPOLYLINE
  5
87
330
15
100
AcDbEntity
  8
IMP_EC_PLATE-EDGE_CUTS_GBR
  6
BYLAYER
370
   211
 62
   256
100
AcDbPolyline
 90
     2
 70
     0
 43
0.2
 10
328.174268
 20
-91.003332
 10
327.174268
 20
-92.003332
  0
LWPOLYLINE
  5
88
330
15
100
AcDbEntity
  8
IMP_EC_PLATE-EDGE_CUTS_GBR
  6
BYLAYER
370
   211
 62
   256
100
AcDbPolyline
 90
     2
 70
     0
 43
0.2
 10
313.574268
 20
-79.003332
 10
314.574268
 20
-78.003332
  0
LWPOLYLINE
  5
89
330
15
100
AcDbEntity
  8
IMP_EC_PLATE-EDGE_CUTS_GBR
  6
BYLAYER
370
   211
 62
   256
100
AcDbPolyline
 90
     2
 70
     0
 43
0.2
 10
52.286592
 20
-190.473332
 10
52.286592
 20
-177.873332
  0
LWPOLYLINE
  5
8A
330
15
100
AcDbEntity
  8
IMP_EC_PLATE-EDGE_CUTS_GBR
  6
BYLAYER
370
   211
 62
   256
100
AcDbPolyline
 90
     2
 70
     0
 43
0.2
 10
66.886592
 20
-177.873332
 10
66.886592
 20
-190.473332
  0
LWPOLYLINE
  5
8B
330
15
100
AcDbEntity
  8
IMP_EC_PLATE-EDGE_CUTS_GBR
  6
BYLAYER
370
   211
 62
   256
100
AcDbPolyline
 90
     2
 70
     0
 43
0.2
 10
55.49506
 20
-153.143332
 10
54.49506
 20
-152.143332
  0
LWPOLYLINE
  5
8C
330
15
100
AcDbEntity
  8
IMP_EC_PLATE-EDGE_CUTS_GBR
  6
BYLAYER
370
   211
 62
   256
100
AcDbPolyline
 90
     2
 70
     0
 43
0.2
 10
69.09506
 20
-152.143332
 10
68.09506
 20
-153.143332
  0
LWPOLYLINE
  5
8D
330
15
100
AcDbEntity
  8
IMP_EC_PLATE-EDGE_CUTS_GBR
  6
BYLAYER
370
   211
 62
   256
100
AcDbPolyline
 90
     2
 70
     0
 43
0.2
 10
54.49506
 20
-152.143332
 10
54.49506
 20
-140.143332
  0
LWPOLYLINE
  5
8E
330
15
100
AcDbEntity
  8
IMP_EC_PLATE-EDGE_CUTS_GBR
  6
BYLAYER
370
   211
 62
   256
100
AcDbPolyline
 90
     2
 70
     0
 43
0.2
 10
55.49506
 20
-139.143332
 10
68.09506
 20
-139.143332
  0
LWPOLYLINE
  5
8F
330
15
100
AcDbEntity
  8
IMP_EC_PLATE-EDGE_CUTS_GBR
  6
BYLAYER
370
   211
 62
   256
100
AcDbPolyline
 90
     2
 70
     0
 43
0.2
 10
69.09506
 20
-140.143332
 10
69.09506
 20
-152.143332
  0
LWPOLYLINE
  5
90
330
15
100
AcDbEntity
  8
IMP_EC_PLATE-EDGE_CUTS_GBR
  6
BYLAYER
370
   211
 62
   256
100
AcDbPolyline
 90
     2
 70
     0
 43
0.2
 10
54.49506
 20
-140.143332
 10
55.49506
 20
-139.143332
  0
LWPOLYLINE
  5
91
330
15
100
AcDbEntity
  8
IMP_EC_PLATE-EDGE_CUTS_GBR
  6
BYLAYER
370
   211
 62
   256
100
AcDbPolyline
 90
     2
 70
     0
 43
0.2
 10
68.09506
 20
-139.143332
 10
69.09506
 20
-140.143332
  0
LWPOLYLINE
  5
92
330
15
100
AcDbEntity
  8
IMP_EC_PLATE-EDGE_CUTS_GBR
  6
BYLAYER
370
   211
 62
   256
100
AcDbPolyline
 90
     2
 70
     0
 43
0.2
 10
68.09506
 20
-153.143332
 10
55.49506
 20
-153.143332
  0
LWPOLYLINE
  5
93
330
15
100
AcDbEntity
  8
IMP_EC_PLATE-EDGE_CUTS_GBR
  6
BYLAYER
370
   211
 62
   256
100
AcDbPolyline
 90
     2
 70
     0
 43
0.2
 10
356.664268
 20
-78.003332
 10
366.400657333
 20
-78.0219213333
  0
LWPOLYLINE
  5
94
330
15
100
AcDbEntity
  8
IMP_EC_PLATE-EDGE_CUTS_GBR
  6
BYLAYER
370
   211
 62
   256
100
AcDbPolyline
 90
     2
 70
     0
 43
0.2
 10
370.264268
 20
-91.003332
 10
370.267465333
 20
-81.8593813333
  0
LWPOLYLINE
  5
95
330
15
100
AcDbEntity
  8
IMP_EC_PLATE-EDGE_CUTS_GBR
  6
BYLAYER
370
   211
 62
   256
100
AcDbPolyline
 90
     4
 70
     0
 43
0.2
 10
71.09506
 20
-141.143332
 42
0.0
 10
71.09506
 20
-141.143332
 42
1
 10
75.09506
 20
-141.143332
 42
1
 10
71.09506
 20
-141.143332
 42
0.0
  0
LWPOLYLINE
  5
96
330
15
100
AcDbEntity
  8
IMP_EC_PLATE-EDGE_CUTS_GBR
  6
BYLAYER
370
   211
 62
   256
100
AcDbPolyline
 90
     2
 70
     0
 43
0.2
 10
180.575008
 20
-178.176817333
 10
181.575008
 20
-177.176817333
  0
LWPOLYLINE
  5
97
330
15
100
AcDbEntity
  8
IMP_EC_PLATE-EDGE_CUTS_GBR
  6
BYLAYER
370
   211
 62
   256
100
AcDbPolyline
 90
     2
 70
     0
 43
0.2
 10
180.575008
 20
-190.176817333
 10
180.575008
 20
-178.176817333
  0
LWPOLYLINE
  5
98
330
15
100
AcDbEntity
  8
IMP_EC_PLATE-EDGE_CUTS_GBR
  6
BYLAYER
370
   211
 62
   256
100
AcDbPolyline
 90
     2
 70
     0
 43
0.2
 10
181.575008
 20
-191.176817333
 10
180.575008
 20
-190.176817333
  0
LWPOLYLINE
  5
99
330
15
100
AcDbEntity
  8
IMP_EC_PLATE-EDGE_CUTS_GBR
  6
BYLAYER
370
   211
 62
   256
100
AcDbPolyline
 90
     2
 70
     0
 43
0.2
 10
194.175008
 20
-191.176817333
 10
181.575008
 20
-191.176817333
  0
LWPOLYLINE
  5
9A
330
15
100
AcDbEntity
  8
IMP_EC_PLATE-EDGE_CUTS_GBR
  6
BYLAYER
370
   211
 62
   256
100
AcDbPolyline
 90
     2
 70
     0
 43
0.2
 10
195.175008
 20
-190.176817333
 10
194.175008
 20
-191.176817333
  0
LWPOLYLINE
  5
9B
330
15
100
AcDbEntity
  8
IMP_EC_PLATE-EDGE_CUTS_GBR
  6
BYLAYER
370
   211
 62
   256
100
AcDbPolyline
 90
     2
 70
     0
 43
0.2
 10
195.175008
 20
-178.176817333
 10
195.175008
 20
-190.176817333
  0
LWPOLYLINE
  5
9C
330
15
100
AcDbEntity
  8
IMP_EC_PLATE-EDGE_CUTS_GBR
  6
BYLAYER
370
   211
 62
   256
100
AcDbPolyline
 90
     2
 70
     0
 43
0.2
 10
194.175008
 20
-177.176817333
 10
195.175008
 20
-178.176817333
  0
LWPOLYLINE
  5
9D
330
15
100
AcDbEntity
  8
IMP_EC_PLATE-EDGE_CUTS_GBR
  6
BYLAYER
370
   211
 62
   256
100
AcDbPolyline
 90
     2
 70
     0
 43
0.2
 10
181.575008
 20
-177.176817333
 10
194.175008
 20
-177.176817333
  0
LWPOLYLINE
  5
9E
330
15
100
AcDbEntity
  8
IMP_EC_PLATE-EDGE_CUTS_GBR
  6
BYLAYER
370
   211
 62
   256
100
AcDbPolyline
 90
     2
 70
     0
 43
0.2
 10
261.387509333
 20
-178.173332
 10
262.387509333
 20
-177.173332
  0
LWPOLYLINE
  5
9F
330
15
100
AcDbEntity
  8
IMP_EC_PLATE-EDGE_CUTS_GBR
  6
BYLAYER
370
   211
 62
   256
100
AcDbPolyline
 90
     2
 70
     0
 43
0.2
 10
261.387509333
 20
-190.173332
 10
261.387509333
 20
-178.173332
  0
LWPOLYLINE
  5
A0
330
15
100
AcDbEntity
  8
IMP_EC_PLATE-EDGE_CUTS_GBR
  6
BYLAYER
370
   211
 62
   256
100
AcDbPolyline
 90
     2
 70
     0
 43
0.2
 10
262.387509333
 20
-191.173332
 10
261.387509333
 20
-190.173332
  0
LWPOLYLINE
  5
A1
330
15
100
AcDbEntity
  8
IMP_EC_PLATE-EDGE_CUTS_GBR
  6
BYLAYER
370
   211
 62
   256
100
AcDbPolyline
 90
     2
 70
     0
 43
0.2
 10
274.987509333
 20
-191.173332
 10
262.387509333
 20
-191.173332
  0
LWPOLYLINE
  5
A2
330
15
100
AcDbEntity
  8
IMP_EC_PLATE-EDGE_CUTS_GBR
  6
BYLAYER
370
   211
 62
   256
100
AcDbPolyline
 90
     2
 70
     0
 43
0.2
 10
275.987509333
 20
-190.173332
 10
274.987509333
 20
-191.173332
  0
LWPOLYLINE
  5
A3
330
15
100
AcDbEntity
  8
IMP_EC_PLATE-EDGE_CUTS_GBR
  6
BYLAYER
370
   211
 62
   256
100
AcDbPolyline
 90
     2
 70
     0
 43
0.2
 10
275.987509333
 20
-178.173332
 10
275.987509333
 20
-190.173332
  0
LWPOLYLINE
  5
A4
330
15
100
AcDbEntity
  8
IMP_EC_PLATE-EDGE_CUTS_GBR
  6
BYLAYER
370
   211
 62
   256
100
AcDbPolyline
 90
     2
 70
     0
 43
0.2
 10
274.987509333
 20
-177.173332
 10
275.987509333
 20
-178.173332
  0
LWPOLYLINE
  5
A5
330
15
100
AcDbEntity
  8
IMP_EC_PLATE-EDGE_CUTS_GBR
  6
BYLAYER
370
   211
 62
   256
100
AcDbPolyline
 90
     2
 70
     0
 43
0.2
 10
262.387509333
 20
-177.173332
 10
274.987509333
 20
-177.173332
  0
LWPOLYLINE
  5
A6
330
15
100
AcDbEntity
  8
IMP_EC_PLATE-EDGE_CUTS_GBR
  6
BYLAYER
370
   211
 62
   256
100
AcDbPolyline
 90
     2
 70
     0
 43
0.2
 10
374.684268
 20
-79.0067893333
 10
375.684268
 20
-78.0067893333
  0
LWPOLYLINE
  5
A7
330
15
100
AcDbEntity
  8
IMP_EC_PLATE-EDGE_CUTS_GBR
  6
BYLAYER
370
   211
 62
   256
100
AcDbPolyline
 90
     2
 70
     0
 43
0.2
 10
374.684268
 20
-91.0067893333
 10
374.684268
 20
-79.0067893333
  0
LWPOLYLINE
  5
A8
330
15
100
AcDbEntity
  8
IMP_EC_PLATE-EDGE_CUTS_GBR
  6
BYLAYER
370
   211
 62
   256
100
AcDbPolyline
 90
     2
 70
     0
 43
0.2
 10
375.684268
 20
-92.0067893333
 10
374.684268
 20
-91.0067893333
  0
LWPOLYLINE
  5
A9
330
15
100
AcDbEntity
  8
IMP_EC_PLATE-EDGE_CUTS_GBR
  6
BYLAYER
370
   211
 62
   256
100
AcDbPolyline
 90
     2
 70
     0
 43
0.2
 10
388.284268
 20
-92.0067893333
 10
375.684268
 20
-92.0067893333
  0
LWPOLYLINE
  5
AA
330
15
100
AcDbEntity
  8
IMP_EC_PLATE-EDGE_CUTS_GBR
  6
BYLAYER
370
   211
 62
   256
100
AcDbPolyline
 90
     2
 70
     0
 43
0.2
 10
389.284268
 20
-91.0067893333
 10
388.284268
 20
-92.0067893333
  0
LWPOLYLINE
  5
AB
330
15
100
AcDbEntity
  8
IMP_EC_PLATE-EDGE_CUTS_GBR
  6
BYLAYER
370
   211
 62
   256
100
AcDbPolyline
 90
     2
 70
     0
 43
0.2
 10
389.284268
 20
-79.0067893333
 10
389.284268
 20
-91.0067893333
  0
LWPOLYLINE
  5
AC
330
15
100
AcDbEntity
  8
IMP_EC_PLATE-EDGE_CUTS_GBR
  6
BYLAYER
370
   211
 62
   256
100
AcDbPolyline
 90
     2
 70
     0
 43
0.2
 10
388.284268
 20
-78.0067893333
 10
389.284268
 20
-79.0067893333
  0
LWPOLYLINE
  5
AD
330
15
100
AcDbEntity
  8
IMP_EC_PLATE-EDGE_CUTS_GBR
  6
BYLAYER
370
   211
 62
   256
100
AcDbPolyline
 90
     2
 70
     0
 43
0.2
 10
375.684268
 20
-78.0067893333
 10
388.284268
 20
-78.0067893333
  0
LWPOLYLINE
  5
AE
330
15
100
AcDbEntity
  8
IMP_EC_PLATE-EDGE_CUTS_GBR
  6
BYLAYER
370
   211
 62
   256
100
AcDbPolyline
 90
     2
 70
     0
 43
0.2
 10
336.644268
 20
-79.0067893333
 10
337.644268
 20
-78.0067893333
  0
LWPOLYLINE
  5
AF
330
15
100
AcDbEntity
  8
IMP_EC_PLATE-EDGE_CUTS_GBR
  6
BYLAYER
370
   211
 62
   256
100
AcDbPolyline
 90
     2
 70
     0
 43
0.2
 10
336.644268
 20
-91.0067893333
 10
336.644268
 20
-79.0067893333
  0
LWPOLYLINE
  5
B0
330
15
100
AcDbEntity
  8
IMP_EC_PLATE-EDGE_CUTS_GBR
  6
BYLAYER
370
   211
 62
   256
100
AcDbPolyline
 90
     2
 70
     0
 43
0.2
 10
337.644268
 20
-92.0067893333
 10
336.644268
 20
-91.0067893333
  0
LWPOLYLINE
  5
B1
330
15
100
AcDbEntity
  8
IMP_EC_PLATE-EDGE_CUTS_GBR
  6
BYLAYER
370
   211
 62
   256
100
AcDbPolyline
 90
     2
 70
     0
 43
0.2
 10
350.244268
 20
-92.0067893333
 10
337.644268
 20
-92.0067893333
  0
LWPOLYLINE
  5
B2
330
15
100
AcDbEntity
  8
IMP_EC_PLATE-EDGE_CUTS_GBR
  6
BYLAYER
370
   211
 62
   256
100
AcDbPolyline
 90
     2
 70
     0
 43
0.2
 10
351.244268
 20
-91.0067893333
 10
350.244268
 20
-92.0067893333
  0
LWPOLYLINE
  5
B3
330
15
100
AcDbEntity
  8
IMP_EC_PLATE-EDGE_CUTS_GBR
  6
BYLAYER
370
   211
 62
   256
100
AcDbPolyline
 90
     2
 70
     0
 43
0.2
 10
351.244268
 20
-79.0067893333
 10
351.244268
 20
-91.0067893333
  0
LWPOLYLINE
  5
B4
330
15
100
AcDbEntity
  8
IMP_EC_PLATE-EDGE_CUTS_GBR
  6
BYLAYER
370
   211
 62
   256
100
AcDbPolyline
 90
     2
 70
     0
 43
0.2
 10
350.244268
 20
-78.0067893333
 10
351.244268
 20
-79.0067893333
  0
LWPOLYLINE
  5
B5
330
15
100
AcDbEntity
  8
IMP_EC_PLATE-EDGE_CUTS_GBR
  6
BYLAYER
370
   211
 62
   256
100
AcDbPolyline
 90
     2
 70
     0
 43
0.2
 10
337.644268
 20
-78.0067893333
 10
350.244268
 20
-78.0067893333
  0
LWPOLYLINE
  5
B6
330
15
100
AcDbEntity
  8
IMP_EC_PLATE-EDGE_CUTS_GBR
  6
BYLAYER
370
   211
 62
   256
100
AcDbPolyline
 90
     2
 70
     0
 43
0.2
 10
289.85506
 20
-79.003332
 10
290.85506
 20
-78.003332
  0
LWPOLYLINE
  5
B7
330
15
100
AcDbEntity
  8
IMP_EC_PLATE-EDGE_CUTS_GBR
  6
BYLAYER
370
   211
 62
   256
100
AcDbPolyline
 90
     2
 70
     0
 43
0.2
 10
289.85506
 20
-91.003332
 10
289.85506
 20
-79.003332
  0
LWPOLYLINE
  5
B8
330
15
100
AcDbEntity
  8
IMP_EC_PLATE-EDGE_CUTS_GBR
  6
BYLAYER
370
   211
 62
   256
100
AcDbPolyline
 90
     2
 70
     0
 43
0.2
 10
290.85506
 20
-92.003332
 10
289.85506
 20
-91.003332
  0
LWPOLYLINE
  5
B9
330
15
100
AcDbEntity
  8
IMP_EC_PLATE-EDGE_CUTS_GBR
  6
BYLAYER
370
   211
 62
   256
100
AcDbPolyline
 90
     2
 70
     0
 43
0.2
 10
303.45506
 20
-92.003332
 10
290.85506
 20
-92.003332
  0
LWPOLYLINE
  5
BA
330
15
100
AcDbEntity
  8
IMP_EC_PLATE-EDGE_CUTS_GBR
  6
BYLAYER
370
   211
 62
   256
100
AcDbPolyline
 90
     2
 70
     0
 43
0.2
 10
304.45506
 20
-91.003332
 10
303.45506
 20
-92.003332
  0
LWPOLYLINE
  5
BB
330
15
100
AcDbEntity
  8
IMP_EC_PLATE-EDGE_CUTS_GBR
  6
BYLAYER
370
   211
 62
   256
100
AcDbPolyline
 90
     2
 70
     0
 43
0.2
 10
304.45506
 20
-79.003332
 10
304.45506
 20
-91.003332
  0
LWPOLYLINE
  5
BC
330
15
100
AcDbEntity
  8
IMP_EC_PLATE-EDGE_CUTS_GBR
  6
BYLAYER
370
   211
 62
   256
100
AcDbPolyline
 90
     2
 70
     0
 43
0.2
 10
303.45506
 20
-78.003332
 10
304.45506
 20
-79.003332
  0
LWPOLYLINE
  5
BD
330
15
100
AcDbEntity
  8
IMP_EC_PLATE-EDGE_CUTS_GBR
  6
BYLAYER
370
   211
 62
   256
100
AcDbPolyline
 90
     2
 70
     0
 43
0.2
 10
290.85506
 20
-78.003332
 10
303.45506
 20
-78.003332
  0
LWPOLYLINE
  5
BE
330
15
100
AcDbEntity
  8
IMP_EC_PLATE-EDGE_CUTS_GBR
  6
BYLAYER
370
   211
 62
   256
100
AcDbPolyline
 90
     2
 70
     0
 43
0.2
 10
270.83506
 20
-79.003332
 10
271.83506
 20
-78.003332
  0
LWPOLYLINE
  5
BF
330
15
100
AcDbEntity
  8
IMP_EC_PLATE-EDGE_CUTS_GBR
  6
BYLAYER
370
   211
 62
   256
100
AcDbPolyline
 90
     2
 70
     0
 43
0.2
 10
270.83506
 20
-91.003332
 10
270.83506
 20
-79.003332
  0
LWPOLYLINE
  5
C0
330
15
100
AcDbEntity
  8
IMP_EC_PLATE-EDGE_CUTS_GBR
  6
BYLAYER
370
   211
 62
   256
100
AcDbPolyline
 90
     2
 70
     0
 43
0.2
 10
271.83506
 20
-92.003332
 10
270.83506
 20
-91.003332
  0
LWPOLYLINE
  5
C1
330
15
100
AcDbEntity
  8
IMP_EC_PLATE-EDGE_CUTS_GBR
  6
BYLAYER
370
   211
 62
   256
100
AcDbPolyline
 90
     2
 70
     0
 43
0.2
 10
284.43506
 20
-92.003332
 10
271.83506
 20
-92.003332
  0
LWPOLYLINE
  5
C2
330
15
100
AcDbEntity
  8
IMP_EC_PLATE-EDGE_CUTS_GBR
  6
BYLAYER
370
   211
 62
   256
100
AcDbPolyline
 90
     2
 70
     0
 43
0.2
 10
285.43506
 20
-91.003332
 10
284.43506
 20
-92.003332
  0
LWPOLYLINE
  5
C3
330
15
100
AcDbEntity
  8
IMP_EC_PLATE-EDGE_CUTS_GBR
  6
BYLAYER
370
   211
 62
   256
100
AcDbPolyline
 90
     2
 70
     0
 43
0.2
 10
285.43506
 20
-79.003332
 10
285.43506
 20
-91.003332
  0
LWPOLYLINE
  5
C4
330
15
100
AcDbEntity
  8
IMP_EC_PLATE-EDGE_CUTS_GBR
  6
BYLAYER
370
   211
 62
   256
100
AcDbPolyline
 90
     2
 70
     0
 43
0.2
 10
284.43506
 20
-78.003332
 10
285.43506
 20
-79.003332
  0
LWPOLYLINE
  5
C5
330
15
100
AcDbEntity
  8
IMP_EC_PLATE-EDGE_CUTS_GBR
  6
BYLAYER
370
   211
 62
   256
100
AcDbPolyline
 90
     2
 70
     0
 43
0.2
 10
271.83506
 20
-78.003332
 10
284.43506
 20
-78.003332
  0
LWPOLYLINE
  5
C6
330
15
100
AcDbEntity
  8
IMP_EC_PLATE-EDGE_CUTS_GBR
  6
BYLAYER
370
   211
 62
   256
100
AcDbPolyline
 90
     2
 70
     0
 43
0.2
 10
251.81506
 20
-79.003332
 10
252.81506
 20
-78.003332
  0
LWPOLYLINE
  5
C7
330
15
100
AcDbEntity
  8
IMP_EC_PLATE-EDGE_CUTS_GBR
  6
BYLAYER
370
   211
 62
   256
100
AcDbPolyline
 90
     2
 70
     0
 43
0.2
 10
251.81506
 20
-91.003332
 10
251.81506
 20
-79.003332
  0
LWPOLYLINE
  5
C8
330
15
100
AcDbEntity
  8
IMP_EC_PLATE-EDGE_CUTS_GBR
  6
BYLAYER
370
   211
 62
   256
100
AcDbPolyline
 90
     2
 70
     0
 43
0.2
 10
252.81506
 20
-92.003332
 10
251.81506
 20
-91.003332
  0
LWPOLYLINE
  5
C9
330
15
100
AcDbEntity
  8
IMP_EC_PLATE-EDGE_CUTS_GBR
  6
BYLAYER
370
   211
 62
   256
100
AcDbPolyline
 90
     2
 70
     0
 43
0.2
 10
265.41506
 20
-92.003332
 10
252.81506
 20
-92.003332
  0
LWPOLYLINE
  5
CA
330
15
100
AcDbEntity
  8
IMP_EC_PLATE-EDGE_CUTS_GBR
  6
BYLAYER
370
   211
 62
   256
100
AcDbPolyline
 90
     2
 70
     0
 43
0.2
 10
266.41506
 20
-91.003332
 10
265.41506
 20
-92.003332
  0
LWPOLYLINE
  5
CB
330
15
100
AcDbEntity
  8
IMP_EC_PLATE-EDGE_CUTS_GBR
  6
BYLAYER
370
   211
 62
   256
100
AcDbPolyline
 90
     2
 70
     0
 43
0.2
 10
266.41506
 20
-79.003332
 10
266.41506
 20
-91.003332
  0
LWPOLYLINE
  5
CC
330
15
100
AcDbEntity
  8
IMP_EC_PLATE-EDGE_CUTS_GBR
  6
BYLAYER
370
   211
 62
   256
100
AcDbPolyline
 90
     2
 70
     0
 43
0.2
 10
265.41506
 20
-78.003332
 10
266.41506
 20
-79.003332
  0
LWPOLYLINE
  5
CD
330
15
100
AcDbEntity
  8
IMP_EC_PLATE-EDGE_CUTS_GBR
  6
BYLAYER
370
   211
 62
   256
100
AcDbPolyline
 90
     2
 70
     0
 43
0.2
 10
252.81506
 20
-78.003332
 10
265.41506
 20
-78.003332
  0
LWPOLYLINE
  5
CE
330
15
100
AcDbEntity
  8
IMP_EC_PLATE-EDGE_CUTS_GBR
  6
BYLAYER
370
   211
 62
   256
100
AcDbPolyline
 90
     2
 70
     0
 43
0.2
 10
232.79506
 20
-79.003332
 10
233.79506
 20
-78.003332
  0
LWPOLYLINE
  5
CF
330
15
100
AcDbEntity
  8
IMP_EC_PLATE-EDGE_CUTS_GBR
  6
BYLAYER
370
   211
 62
   256
100
AcDbPolyline
 90
     2
 70
     0
 43
0.2
 10
232.79506
 20
-91.003332
 10
232.79506
 20
-79.003332
  0
LWPOLYLINE
  5
D0
330
15
100
AcDbEntity
  8
IMP_EC_PLATE-EDGE_CUTS_GBR
  6
BYLAYER
370
   211
 62
   256
100
AcDbPolyline
 90
     2
 70
     0
 43
0.2
 10
233.79506
 20
-92.003332
 10
232.79506
 20
-91.003332
  0
LWPOLYLINE
  5
D1
330
15
100
AcDbEntity
  8
IMP_EC_PLATE-EDGE_CUTS_GBR
  6
BYLAYER
370
   211
 62
   256
100
AcDbPolyline
 90
     2
 70
     0
 43
0.2
 10
246.39506
 20
-92.003332
 10
233.79506
 20
-92.003332
  0
LWPOLYLINE
  5
D2
330
15
100
AcDbEntity
  8
IMP_EC_PLATE-EDGE_CUTS_GBR
  6
BYLAYER
370
   211
 62
   256
100
AcDbPolyline
 90
     2
 70
     0
 43
0.2
 10
247.39506
 20
-91.003332
 10
246.39506
 20
-92.003332
  0
LWPOLYLINE
  5
D3
330
15
100
AcDbEntity
  8
IMP_EC_PLATE-EDGE_CUTS_GBR
  6
BYLAYER
370
   211
 62
   256
100
AcDbPolyline
 90
     2
 70
     0
 43
0.2
 10
247.39506
 20
-79.003332
 10
247.39506
 20
-91.003332
  0
LWPOLYLINE
  5
D4
330
15
100
AcDbEntity
  8
IMP_EC_PLATE-EDGE_CUTS_GBR
  6
BYLAYER
370
   211
 62
   256
100
AcDbPolyline
 90
     2
 70
     0
 43
0.2
 10
246.39506
 20
-78.003332
 10
247.39506
 20
-79.003332
  0
LWPOLYLINE
  5
D5
330
15
100
AcDbEntity
  8
IMP_EC_PLATE-EDGE_CUTS_GBR
  6
BYLAYER
370
   211
 62
   256
100
AcDbPolyline
 90
     2
 70
     0
 43
0.2
 10
233.79506
 20
-78.003332
 10
246.39506
 20
-78.003332
  0
LWPOLYLINE
  5
D6
330
15
100
AcDbEntity
  8
IMP_EC_PLATE-EDGE_CUTS_GBR
  6
BYLAYER
370
   211
 62
   256
100
AcDbPolyline
 90
     2
 70
     0
 43
0.2
 10
374.694268
 20
-178.296884
 10
375.694268
 20
-177.296884
  0
LWPOLYLINE
  5
D7
330
15
100
AcDbEntity
  8
IMP_EC_PLATE-EDGE_CUTS_GBR
  6
BYLAYER
370
   211
 62
   256
100
AcDbPolyline
 90
     2
 70
     0
 43
0.2
 10
374.694268
 20
-190.296884
 10
374.694268
 20
-178.296884
  0
LWPOLYLINE
  5
D8
330
15
100
AcDbEntity
  8
IMP_EC_PLATE-EDGE_CUTS_GBR
  6
BYLAYER
370
   211
 62
   256
100
AcDbPolyline
 90
     2
 70
     0
 43
0.2
 10
375.694268
 20
-191.296884
 10
374.694268
 20
-190.296884
  0
LWPOLYLINE
  5
D9
330
15
100
AcDbEntity
  8
IMP_EC_PLATE-EDGE_CUTS_GBR
  6
BYLAYER
370
   211
 62
   256
100
AcDbPolyline
 90
     2
 70
     0
 43
0.2
 10
388.294268
 20
-191.296884
 10
375.694268
 20
-191.296884
  0
LWPOLYLINE
  5
DA
330
15
100
AcDbEntity
  8
IMP_EC_PLATE-EDGE_CUTS_GBR
  6
BYLAYER
370
   211
 62
   256
100
AcDbPolyline
 90
     2
 70
     0
 43
0.2
 10
389.294268
 20
-190.296884
 10
388.294268
 20
-191.296884
  0
LWPOLYLINE
  5
DB
330
15
100
AcDbEntity
  8
IMP_EC_PLATE-EDGE_CUTS_GBR
  6
BYLAYER
370
   211
 62
   256
100
AcDbPolyline
 90
     2
 70
     0
 43
0.2
 10
389.294268
 20
-178.296884
 10
389.294268
 20
-190.296884
  0
LWPOLYLINE
  5
DC
330
15
100
AcDbEntity
  8
IMP_EC_PLATE-EDGE_CUTS_GBR
  6
BYLAYER
370
   211
 62
   256
100
AcDbPolyline
 90
     2
 70
     0
 43
0.2
 10
388.294268
 20
-177.296884
 10
389.294268
 20
-178.296884
  0
LWPOLYLINE
  5
DD
330
15
100
AcDbEntity
  8
IMP_EC_PLATE-EDGE_CUTS_GBR
  6
BYLAYER
370
   211
 62
   256
100
AcDbPolyline
 90
     2
 70
     0
 43
0.2
 10
375.694268
 20
-177.296884
 10
388.294268
 20
-177.296884
  0
LWPOLYLINE
  5
DE
330
15
100
AcDbEntity
  8
IMP_EC_PLATE-EDGE_CUTS_GBR
  6
BYLAYER
370
   211
 62
   256
100
AcDbPolyline
 90
     2
 70
     0
 43
0.2
 10
355.674268
 20
-178.296884
 10
356.674268
 20
-177.296884
  0
LWPOLYLINE
  5
DF
330
15
100
AcDbEntity
  8
IMP_EC_PLATE-EDGE_CUTS_GBR
  6
BYLAYER
370
   211
 62
   256
100
AcDbPolyline
 90
     2
 70
     0
 43
0.2
 10
355.674268
 20
-190.296884
 10
355.674268
 20
-178.296884
  0
LWPOLYLINE
  5
E0
330
15
100
AcDbEntity
  8
IMP_EC_PLATE-EDGE_CUTS_GBR
  6
BYLAYER
370
   211
 62
   256
100
AcDbPolyline
 90
     2
 70
     0
 43
0.2
 10
356.674268
 20
-191.296884
 10
355.674268
 20
-190.296884
  0
LWPOLYLINE
  5
E1
330
15
100
AcDbEntity
  8
IMP_EC_PLATE-EDGE_CUTS_GBR
  6
BYLAYER
370
   211
 62
   256
100
AcDbPolyline
 90
     2
 70
     0
 43
0.2
 10
369.274268
 20
-191.296884
 10
356.674268
 20
-191.296884
  0
LWPOLYLINE
  5
E2
330
15
100
AcDbEntity
  8
IMP_EC_PLATE-EDGE_CUTS_GBR
  6
BYLAYER
370
   211
 62
   256
100
AcDbPolyline
 90
     2
 70
     0
 43
0.2
 10
370.274268
 20
-190.296884
 10
369.274268
 20
-191.296884
  0
LWPOLYLINE
  5
E3
330
15
100
AcDbEntity
  8
IMP_EC_PLATE-EDGE_CUTS_GBR
  6
BYLAYER
370
   211
 62
   256
100
AcDbPolyline
 90
     2
 70
     0
 43
0.2
 10
370.274268
 20
-178.296884
 10
370.274268
 20
-190.296884
  0
LWPOLYLINE
  5
E4
330
15
100
AcDbEntity
  8
IMP_EC_PLATE-EDGE_CUTS_GBR
  6
BYLAYER
370
   211
 62
   256
100
AcDbPolyline
 90
     2
 70
     0
 43
0.2
 10
369.274268
 20
-177.296884
 10
370.274268
 20
-178.296884
  0
LWPOLYLINE
  5
E5
330
15
100
AcDbEntity
  8
IMP_EC_PLATE-EDGE_CUTS_GBR
  6
BYLAYER
370
   211
 62
   256
100
AcDbPolyline
 90
     2
 70
     0
 43
0.2
 10
356.674268
 20
-177.296884
 10
369.274268
 20
-177.296884
  0
LWPOLYLINE
  5
E6
330
15
100
AcDbEntity
  8
IMP_EC_PLATE-EDGE_CUTS_GBR
  6
BYLAYER
370
   211
 62
   256
100
AcDbPolyline
 90
     2
 70
     0
 43
0.2
 10
336.654268
 20
-178.296884
 10
337.654268
 20
-177.296884
  0
LWPOLYLINE
  5
E7
330
15
100
AcDbEntity
  8
IMP_EC_PLATE-EDGE_CUTS_GBR
  6
BYLAYER
370
   211
 62
   256
100
AcDbPolyline
 90
     2
 70
     0
 43
0.2
 10
336.654268
 20
-190.296884
 10
336.654268
 20
-178.296884
  0
LWPOLYLINE
  5
E8
330
15
100
AcDbEntity
  8
IMP_EC_PLATE-EDGE_CUTS_GBR
  6
BYLAYER
370
   211
 62
   256
100
AcDbPolyline
 90
     2
 70
     0
 43
0.2
 10
337.654268
 20
-191.296884
 10
336.654268
 20
-190.296884
  0
LWPOLYLINE
  5
E9
330
15
100
AcDbEntity
  8
IMP_EC_PLATE-EDGE_CUTS_GBR
  6
BYLAYER
370
   211
 62
   256
100
AcDbPolyline
 90
     2
 70
     0
 43
0.2
 10
350.254268
 20
-191.296884
 10
337.654268
 20
-191.296884
  0
LWPOLYLINE
  5
EA
330
15
100
AcDbEntity
  8
IMP_EC_PLATE-EDGE_CUTS_GBR
  6
BYLAYER
370
   211
 62
   256
100
AcDbPolyline
 90
     2
 70
     0
 43
0.2
 10
351.254268
 20
-190.296884
 10
350.254268
 20
-191.296884
  0
LWPOLYLINE
  5
EB
330
15
100
AcDbEntity
  8
IMP_EC_PLATE-EDGE_CUTS_GBR
  6
BYLAYER
370
   211
 62
   256
100
AcDbPolyline
 90
     2
 70
     0
 43
0.2
 10
351.254268
 20
-178.296884
 10
351.254268
 20
-190.296884
  0
LWPOLYLINE
  5
EC
330
15
100
AcDbEntity
  8
IMP_EC_PLATE-EDGE_CUTS_GBR
  6
BYLAYER
370
   211
 62
   256
100
AcDbPolyline
 90
     2
 70
     0
 43
0.2
 10
350.254268
 20
-177.296884
 10
351.254268
 20
-178.296884
  0
LWPOLYLINE
  5
ED
330
15
100
AcDbEntity
  8
IMP_EC_PLATE-EDGE_CUTS_GBR
  6
BYLAYER
370
   211
 62
   256
100
AcDbPolyline
 90
     2
 70
     0
 43
0.2
 10
337.654268
 20
-177.296884
 10
350.254268
 20
-177.296884
  0
LWPOLYLINE
  5
EE
330
15
100
AcDbEntity
  8
IMP_EC_PLATE-EDGE_CUTS_GBR
  6
BYLAYER
370
   211
 62
   256
100
AcDbPolyline
 90
     2
 70
     0
 43
0.2
 10
308.812508
 20
-178.173332
 10
309.812508
 20
-177.173332
  0
LWPOLYLINE
  5
EF
330
15
100
AcDbEntity
  8
IMP_EC_PLATE-EDGE_CUTS_GBR
  6
BYLAYER
370
   211
 62
   256
100
AcDbPolyline
 90
     2
 70
     0
 43
0.2
 10
308.812508
 20
-190.173332
 10
308.812508
 20
-178.173332
  0
LWPOLYLINE
  5
F0
330
15
100
AcDbEntity
  8
IMP_EC_PLATE-EDGE_CUTS_GBR
  6
BYLAYER
370
   211
 62
   256
100
AcDbPolyline
 90
     2
 70
     0
 43
0.2
 10
309.812508
 20
-191.173332
 10
308.812508
 20
-190.173332
  0
LWPOLYLINE
  5
F1
330
15
100
AcDbEntity
  8
IMP_EC_PLATE-EDGE_CUTS_GBR
  6
BYLAYER
370
   211
 62
   256
100
AcDbPolyline
 90
     2
 70
     0
 43
0.2
 10
322.412508
 20
-191.173332
 10
309.812508
 20
-191.173332
  0
LWPOLYLINE
  5
F2
330
15
100
AcDbEntity
  8
IMP_EC_PLATE-EDGE_CUTS_GBR
  6
BYLAYER
370
   211
 62
   256
100
AcDbPolyline
 90
     2
 70
     0
 43
0.2
 10
323.412508
 20
-190.173332
 10
322.412508
 20
-191.173332
  0
LWPOLYLINE
  5
F3
330
15
100
AcDbEntity
  8
IMP_EC_PLATE-EDGE_CUTS_GBR
  6
BYLAYER
370
   211
 62
   256
100
AcDbPolyline
 90
     2
 70
     0
 43
0.2
 10
323.412508
 20
-178.173332
 10
323.412508
 20
-190.173332
  0
LWPOLYLINE
  5
F4
330
15
100
AcDbEntity
  8
IMP_EC_PLATE-EDGE_CUTS_GBR
  6
BYLAYER
370
   211
 62
   256
100
AcDbPolyline
 90
     2
 70
     0
 43
0.2
 10
322.412508
 20
-177.173332
 10
323.412508
 20
-178.173332
  0
LWPOLYLINE
  5
F5
330
15
100
AcDbEntity
  8
IMP_EC_PLATE-EDGE_CUTS_GBR
  6
BYLAYER
370
   211
 62
   256
100
AcDbPolyline
 90
     2
 70
     0
 43
0.2
 10
309.812508
 20
-177.173332
 10
322.412508
 20
-177.173332
  0
LWPOLYLINE
  5
F6
330
15
100
AcDbEntity
  8
IMP_EC_PLATE-EDGE_CUTS_GBR
  6
BYLAYER
370
   211
 62
   256
100
AcDbPolyline
 90
     2
 70
     0
 43
0.2
 10
285.119057333
 20
-178.173332
 10
286.119057333
 20
-177.173332
  0
LWPOLYLINE
  5
F7
330
15
100
AcDbEntity
  8
IMP_EC_PLATE-EDGE_CUTS_GBR
  6
BYLAYER
370
   211
 62
   256
100
AcDbPolyline
 90
     2
 70
     0
 43
0.2
 10
285.119057333
 20
-190.173332
 10
285.119057333
 20
-178.173332
  0
LWPOLYLINE
  5
F8
330
15
100
AcDbEntity
  8
IMP_EC_PLATE-EDGE_CUTS_GBR
  6
BYLAYER
370
   211
 62
   256
100
AcDbPolyline
 90
     2
 70
     0
 43
0.2
 10
286.119057333
 20
-191.173332
 10
285.119057333
 20
-190.173332
  0
LWPOLYLINE
  5
F9
330
15
100
AcDbEntity
  8
IMP_EC_PLATE-EDGE_CUTS_GBR
  6
BYLAYER
370
   211
 62
   256
100
AcDbPolyline
 90
     2
 70
     0
 43
0.2
 10
298.719057333
 20
-191.173332
 10
286.119057333
 20
-191.173332
  0
LWPOLYLINE
  5
FA
330
15
100
AcDbEntity
  8
IMP_EC_PLATE-EDGE_CUTS_GBR
  6
BYLAYER
370
   211
 62
   256
100
AcDbPolyline
 90
     2
 70
     0
 43
0.2
 10
299.719057333
 20
-190.173332
 10
298.719057333
 20
-191.173332
  0
LWPOLYLINE
  5
FB
330
15
100
AcDbEntity
  8
IMP_EC_PLATE-EDGE_CUTS_GBR
  6
BYLAYER
370
   211
 62
   256
100
AcDbPolyline
 90
     2
 70
     0
 43
0.2
 10
299.719057333
 20
-178.173332
 10
299.719057333
 20
-190.173332
  0
LWPOLYLINE
  5
FC
330
15
100
AcDbEntity
  8
IMP_EC_PLATE-EDGE_CUTS_GBR
  6
BYLAYER
370
   211
 62
   256
100
AcDbPolyline
 90
     2
 70
     0
 43
0.2
 10
298.719057333
 20
-177.173332
 10
299.719057333
 20
-178.173332
  0
LWPOLYLINE
  5
FD
330
15
100
AcDbEntity
  8
IMP_EC_PLATE-EDGE_CUTS_GBR
  6
BYLAYER
370
   211
 62
   256
100
AcDbPolyline
 90
     2
 70
     0
 43
0.2
 10
286.119057333
 20
-177.173332
 10
298.719057333
 20
-177.173332
  0
LWPOLYLINE
  5
FE
330
15
100
AcDbEntity
  8
IMP_EC_PLATE-EDGE_CUTS_GBR
  6
BYLAYER
370
   211
 62
   256
100
AcDbPolyline
 90
     2
 70
     0
 43
0.2
 10
355.674268
 20
-159.276884
 10
356.674268
 20
-158.276884
  0
LWPOLYLINE
  5
FF
330
15
100
AcDbEntity
  8
IMP_EC_PLATE-EDGE_CUTS_GBR
  6
BYLAYER
370
   211
 62
   256
100
AcDbPolyline
 90
     2
 70
     0
 43
0.2
 10
355.674268
 20
-171.276884
 10
355.674268
 20
-159.276884
  0
LWPOLYLINE
  5
100
330
15
100
AcDbEntity
  8
IMP_EC_PLATE-EDGE_CUTS_GBR
  6
BYLAYER
370
   211
 62
   256
100
AcDbPolyline
 90
     2
 70
     0
 43
0.2
 10
356.674268
 20
-172.276884
 10
355.674268
 20
-171.276884
  0
LWPOLYLINE
  5
101
330
15
100
AcDbEntity
  8
IMP_EC_PLATE-EDGE_CUTS_GBR
  6
BYLAYER
370
   211
 62
   256
100
AcDbPolyline
 90
     2
 70
     0
 43
0.2
 10
369.274268
 20
-172.276884
 10
356.674268
 20
-172.276884
  0
LWPOLYLINE
  5
102
330
15
100
AcDbEntity
  8
IMP_EC_PLATE-EDGE_CUTS_GBR
  6
BYLAYER
370
   211
 62
   256
100
AcDbPolyline
 90
     2
 70
     0
 43
0.2
 10
370.274268
 20
-171.276884
 10
369.274268
 20
-172.276884
  0
LWPOLYLINE
  5
103
330
15
100
AcDbEntity
  8
IMP_EC_PLATE-EDGE_CUTS_GBR
  6
BYLAYER
370
   211
 62
   256
100
AcDbPolyline
 90
     2
 70
     0
 43
0.2
 10
370.274268
 20
-159.276884
 10
370.274268
 20
-171.276884
  0
LWPOLYLINE
  5
104
330
15
100
AcDbEntity
  8
IMP_EC_PLATE-EDGE_CUTS_GBR
  6
BYLAYER
370
   211
 62
   256
100
AcDbPolyline
 90
     2
 70
     0
 43
0.2
 10
369.274268
 20
-158.276884
 10
370.274268
 20
-159.276884
  0
LWPOLYLINE
  5
105
330
15
100
AcDbEntity
  8
IMP_EC_PLATE-EDGE_CUTS_GBR
  6
BYLAYER
370
   211
 62
   256
100
AcDbPolyline
 90
     2
 70
     0
 43
0.2
 10
356.674268
 20
-158.276884
 10
369.274268
 20
-158.276884
  0
LWPOLYLINE
  5
106
330
15
100
AcDbEntity
  8
IMP_EC_PLATE-EDGE_CUTS_GBR
  6
BYLAYER
370
   211
 62
   256
100
AcDbPolyline
 90
     2
 70
     0
 43
0.2
 10
261.39506
 20
-159.163332
 10
262.39506
 20
-158.163332
  0
LWPOLYLINE
  5
107
330
15
100
AcDbEntity
  8
IMP_EC_PLATE-EDGE_CUTS_GBR
  6
BYLAYER
370
   211
 62
   256
100
AcDbPolyline
 90
     2
 70
     0
 43
0.2
 10
261.39506
 20
-171.163332
 10
261.39506
 20
-159.163332
  0
LWPOLYLINE
  5
108
330
15
100
AcDbEntity
  8
IMP_EC_PLATE-EDGE_CUTS_GBR
  6
BYLAYER
370
   211
 62
   256
100
AcDbPolyline
 90
     2
 70
     0
 43
0.2
 10
262.39506
 20
-172.163332
 10
261.39506
 20
-171.163332
  0
LWPOLYLINE
  5
109
330
15
100
AcDbEntity
  8
IMP_EC_PLATE-EDGE_CUTS_GBR
  6
BYLAYER
370
   211
 62
   256
100
AcDbPolyline
 90
     2
 70
     0
 43
0.2
 10
274.99506
 20
-172.163332
 10
262.39506
 20
-172.163332
  0
LWPOLYLINE
  5
10A
330
15
100
AcDbEntity
  8
IMP_EC_PLATE-EDGE_CUTS_GBR
  6
BYLAYER
370
   211
 62
   256
100
AcDbPolyline
 90
     2
 70
     0
 43
0.2
 10
275.99506
 20
-171.163332
 10
274.99506
 20
-172.163332
  0
LWPOLYLINE
  5
10B
330
15
100
AcDbEntity
  8
IMP_EC_PLATE-EDGE_CUTS_GBR
  6
BYLAYER
370
   211
 62
   256
100
AcDbPolyline
 90
     2
 70
     0
 43
0.2
 10
275.99506
 20
-159.163332
 10
275.99506
 20
-171.163332
  0
LWPOLYLINE
  5
10C
330
15
100
AcDbEntity
  8
IMP_EC_PLATE-EDGE_CUTS_GBR
  6
BYLAYER
370
   211
 62
   256
100
AcDbPolyline
 90
     2
 70
     0
 43
0.2
 10
274.99506
 20
-158.163332
 10
275.99506
 20
-159.163332
  0
LWPOLYLINE
  5
10D
330
15
100
AcDbEntity
  8
IMP_EC_PLATE-EDGE_CUTS_GBR
  6
BYLAYER
370
   211
 62
   256
100
AcDbPolyline
 90
     2
 70
     0
 43
0.2
 10
262.39506
 20
-158.163332
 10
274.99506
 20
-158.163332
  0
LWPOLYLINE
  5
10E
330
15
100
AcDbEntity
  8
IMP_EC_PLATE-EDGE_CUTS_GBR
  6
BYLAYER
370
   211
 62
   256
100
AcDbPolyline
 90
     2
 70
     0
 43
0.2
 10
242.39506
 20
-159.163332
 10
243.39506
 20
-158.163332
  0
LWPOLYLINE
  5
10F
330
15
100
AcDbEntity
  8
IMP_EC_PLATE-EDGE_CUTS_GBR
  6
BYLAYER
370
   211
 62
   256
100
AcDbPolyline
 90
     2
 70
     0
 43
0.2
 10
242.39506
 20
-171.163332
 10
242.39506
 20
-159.163332
  0
LWPOLYLINE
  5
110
330
15
100
AcDbEntity
  8
IMP_EC_PLATE-EDGE_CUTS_GBR
  6
BYLAYER
370
   211
 62
   256
100
AcDbPolyline
 90
     2
 70
     0
 43
0.2
 10
243.39506
 20
-172.163332
 10
242.39506
 20
-171.163332
  0
LWPOLYLINE
  5
111
330
15
100
AcDbEntity
  8
IMP_EC_PLATE-EDGE_CUTS_GBR
  6
BYLAYER
370
   211
 62
   256
100
AcDbPolyline
 90
     2
 70
     0
 43
0.2
 10
255.99506
 20
-172.163332
 10
243.39506
 20
-172.163332
  0
LWPOLYLINE
  5
112
330
15
100
AcDbEntity
  8
IMP_EC_PLATE-EDGE_CUTS_GBR
  6
BYLAYER
370
   211
 62
   256
100
AcDbPolyline
 90
     2
 70
     0
 43
0.2
 10
256.99506
 20
-171.163332
 10
255.99506
 20
-172.163332
  0
LWPOLYLINE
  5
113
330
15
100
AcDbEntity
  8
IMP_EC_PLATE-EDGE_CUTS_GBR
  6
BYLAYER
370
   211
 62
   256
100
AcDbPolyline
 90
     2
 70
     0
 43
0.2
 10
256.99506
 20
-159.163332
 10
256.99506
 20
-171.163332
  0
LWPOLYLINE
  5
114
330
15
100
AcDbEntity
  8
IMP_EC_PLATE-EDGE_CUTS_GBR
  6
BYLAYER
370
   211
 62
   256
100
AcDbPolyline
 90
     2
 70
     0
 43
0.2
 10
255.99506
 20
-158.163332
 10
256.99506
 20
-159.163332
  0
LWPOLYLINE
  5
115
330
15
100
AcDbEntity
  8
IMP_EC_PLATE-EDGE_CUTS_GBR
  6
BYLAYER
370
   211
 62
   256
100
AcDbPolyline
 90
     2
 70
     0
 43
0.2
 10
243.39506
 20
-158.163332
 10
255.99506
 20
-158.163332
  0
LWPOLYLINE
  5
116
330
15
100
AcDbEntity
  8
IMP_EC_PLATE-EDGE_CUTS_GBR
  6
BYLAYER
370
   211
 62
   256
100
AcDbPolyline
 90
     2
 70
     0
 43
0.2
 10
223.39506
 20
-159.163332
 10
224.39506
 20
-158.163332
  0
LWPOLYLINE
  5
117
330
15
100
AcDbEntity
  8
IMP_EC_PLATE-EDGE_CUTS_GBR
  6
BYLAYER
370
   211
 62
   256
100
AcDbPolyline
 90
     2
 70
     0
 43
0.2
 10
223.39506
 20
-171.163332
 10
223.39506
 20
-159.163332
  0
LWPOLYLINE
  5
118
330
15
100
AcDbEntity
  8
IMP_EC_PLATE-EDGE_CUTS_GBR
  6
BYLAYER
370
   211
 62
   256
100
AcDbPolyline
 90
     2
 70
     0
 43
0.2
 10
224.39506
 20
-172.163332
 10
223.39506
 20
-171.163332
  0
LWPOLYLINE
  5
119
330
15
100
AcDbEntity
  8
IMP_EC_PLATE-EDGE_CUTS_GBR
  6
BYLAYER
370
   211
 62
   256
100
AcDbPolyline
 90
     2
 70
     0
 43
0.2
 10
236.99506
 20
-172.163332
 10
224.39506
 20
-172.163332
  0
LWPOLYLINE
  5
11A
330
15
100
AcDbEntity
  8
IMP_EC_PLATE-EDGE_CUTS_GBR
  6
BYLAYER
370
   211
 62
   256
100
AcDbPolyline
 90
     2
 70
     0
 43
0.2
 10
237.99506
 20
-171.163332
 10
236.99506
 20
-172.163332
  0
LWPOLYLINE
  5
11B
330
15
100
AcDbEntity
  8
IMP_EC_PLATE-EDGE_CUTS_GBR
  6
BYLAYER
370
   211
 62
   256
100
AcDbPolyline
 90
     2
 70
     0
 43
0.2
 10
237.99506
 20
-159.163332
 10
237.99506
 20
-171.163332
  0
LWPOLYLINE
  5
11C
330
15
100
AcDbEntity
  8
IMP_EC_PLATE-EDGE_CUTS_GBR
  6
BYLAYER
370
   211
 62
   256
100
AcDbPolyline
 90
     2
 70
     0
 43
0.2
 10
236.99506
 20
-158.163332
 10
237.99506
 20
-159.163332
  0
LWPOLYLINE
  5
11D
330
15
100
AcDbEntity
  8
IMP_EC_PLATE-EDGE_CUTS_GBR
  6
BYLAYER
370
   211
 62
   256
100
AcDbPolyline
 90
     2
 70
     0
 43
0.2
 10
224.39506
 20
-158.163332
 10
236.99506
 20
-158.163332
  0
LWPOLYLINE
  5
11E
330
15
100
AcDbEntity
  8
IMP_EC_PLATE-EDGE_CUTS_GBR
  6
BYLAYER
370
   211
 62
   256
100
AcDbPolyline
 90
     2
 70
     0
 43
0.2
 10
270.98506
 20
-140.143332
 10
271.98506
 20
-139.143332
  0
LWPOLYLINE
  5
11F
330
15
100
AcDbEntity
  8
IMP_EC_PLATE-EDGE_CUTS_GBR
  6
BYLAYER
370
   211
 62
   256
100
AcDbPolyline
 90
     2
 70
     0
 43
0.2
 10
270.98506
 20
-152.143332
 10
270.98506
 20
-140.143332
  0
LWPOLYLINE
  5
120
330
15
100
AcDbEntity
  8
IMP_EC_PLATE-EDGE_CUTS_GBR
  6
BYLAYER
370
   211
 62
   256
100
AcDbPolyline
 90
     2
 70
     0
 43
0.2
 10
271.98506
 20
-153.143332
 10
270.98506
 20
-152.143332
  0
LWPOLYLINE
  5
121
330
15
100
AcDbEntity
  8
IMP_EC_PLATE-EDGE_CUTS_GBR
  6
BYLAYER
370
   211
 62
   256
100
AcDbPolyline
 90
     2
 70
     0
 43
0.2
 10
284.58506
 20
-153.143332
 10
271.98506
 20
-153.143332
  0
LWPOLYLINE
  5
122
330
15
100
AcDbEntity
  8
IMP_EC_PLATE-EDGE_CUTS_GBR
  6
BYLAYER
370
   211
 62
   256
100
AcDbPolyline
 90
     2
 70
     0
 43
0.2
 10
285.58506
 20
-152.143332
 10
284.58506
 20
-153.143332
  0
LWPOLYLINE
  5
123
330
15
100
AcDbEntity
  8
IMP_EC_PLATE-EDGE_CUTS_GBR
  6
BYLAYER
370
   211
 62
   256
100
AcDbPolyline
 90
     2
 70
     0
 43
0.2
 10
285.58506
 20
-140.143332
 10
285.58506
 20
-152.143332
  0
LWPOLYLINE
  5
124
330
15
100
AcDbEntity
  8
IMP_EC_PLATE-EDGE_CUTS_GBR
  6
BYLAYER
370
   211
 62
   256
100
AcDbPolyline
 90
     2
 70
     0
 43
0.2
 10
284.58506
 20
-139.143332
 10
285.58506
 20
-140.143332
  0
LWPOLYLINE
  5
125
330
15
100
AcDbEntity
  8
IMP_EC_PLATE-EDGE_CUTS_GBR
  6
BYLAYER
370
   211
 62
   256
100
AcDbPolyline
 90
     2
 70
     0
 43
0.2
 10
271.98506
 20
-139.143332
 10
284.58506
 20
-139.143332
  0
LWPOLYLINE
  5
126
330
15
100
AcDbEntity
  8
IMP_EC_PLATE-EDGE_CUTS_GBR
  6
BYLAYER
370
   211
 62
   256
100
AcDbPolyline
 90
     2
 70
     0
 43
0.2
 10
251.98506
 20
-140.143332
 10
252.98506
 20
-139.143332
  0
LWPOLYLINE
  5
127
330
15
100
AcDbEntity
  8
IMP_EC_PLATE-EDGE_CUTS_GBR
  6
BYLAYER
370
   211
 62
   256
100
AcDbPolyline
 90
     2
 70
     0
 43
0.2
 10
251.98506
 20
-152.143332
 10
251.98506
 20
-140.143332
  0
LWPOLYLINE
  5
128
330
15
100
AcDbEntity
  8
IMP_EC_PLATE-EDGE_CUTS_GBR
  6
BYLAYER
370
   211
 62
   256
100
AcDbPolyline
 90
     2
 70
     0
 43
0.2
 10
252.98506
 20
-153.143332
 10
251.98506
 20
-152.143332
  0
LWPOLYLINE
  5
129
330
15
100
AcDbEntity
  8
IMP_EC_PLATE-EDGE_CUTS_GBR
  6
BYLAYER
370
   211
 62
   256
100
AcDbPolyline
 90
     2
 70
     0
 43
0.2
 10
265.58506
 20
-153.143332
 10
252.98506
 20
-153.143332
  0
LWPOLYLINE
  5
12A
330
15
100
AcDbEntity
  8
IMP_EC_PLATE-EDGE_CUTS_GBR
  6
BYLAYER
370
   211
 62
   256
100
AcDbPolyline
 90
     2
 70
     0
 43
0.2
 10
266.58506
 20
-152.143332
 10
265.58506
 20
-153.143332
  0
LWPOLYLINE
  5
12B
330
15
100
AcDbEntity
  8
IMP_EC_PLATE-EDGE_CUTS_GBR
  6
BYLAYER
370
   211
 62
   256
100
AcDbPolyline
 90
     2
 70
     0
 43
0.2
 10
266.58506
 20
-140.143332
 10
266.58506
 20
-152.143332
  0
LWPOLYLINE
  5
12C
330
15
100
AcDbEntity
  8
IMP_EC_PLATE-EDGE_CUTS_GBR
  6
BYLAYER
370
   211
 62
   256
100
AcDbPolyline
 90
     2
 70
     0
 43
0.2
 10
265.58506
 20
-139.143332
 10
266.58506
 20
-140.143332
  0
LWPOLYLINE
  5
12D
330
15
100
AcDbEntity
  8
IMP_EC_PLATE-EDGE_CUTS_GBR
  6
BYLAYER
370
   211
 62
   256
100
AcDbPolyline
 90
     2
 70
     0
 43
0.2
 10
252.98506
 20
-139.143332
 10
265.58506
 20
-139.143332
  0
LWPOLYLINE
  5
12E
330
15
100
AcDbEntity
  8
IMP_EC_PLATE-EDGE_CUTS_GBR
  6
BYLAYER
370
   211
 62
   256
100
AcDbPolyline
 90
     2
 70
     0
 43
0.2
 10
232.98506
 20
-140.143332
 10
233.98506
 20
-139.143332
  0
LWPOLYLINE
  5
12F
330
15
100
AcDbEntity
  8
IMP_EC_PLATE-EDGE_CUTS_GBR
  6
BYLAYER
370
   211
 62
   256
100
AcDbPolyline
 90
     2
 70
     0
 43
0.2
 10
232.98506
 20
-152.143332
 10
232.98506
 20
-140.143332
  0
LWPOLYLINE
  5
130
330
15
100
AcDbEntity
  8
IMP_EC_PLATE-EDGE_CUTS_GBR
  6
BYLAYER
370
   211
 62
   256
100
AcDbPolyline
 90
     2
 70
     0
 43
0.2
 10
233.98506
 20
-153.143332
 10
232.98506
 20
-152.143332
  0
LWPOLYLINE
  5
131
330
15
100
AcDbEntity
  8
IMP_EC_PLATE-EDGE_CUTS_GBR
  6
BYLAYER
370
   211
 62
   256
100
AcDbPolyline
 90
     2
 70
     0
 43
0.2
 10
246.58506
 20
-153.143332
 10
233.98506
 20
-153.143332
  0
LWPOLYLINE
  5
132
330
15
100
AcDbEntity
  8
IMP_EC_PLATE-EDGE_CUTS_GBR
  6
BYLAYER
370
   211
 62
   256
100
AcDbPolyline
 90
     2
 70
     0
 43
0.2
 10
247.58506
 20
-152.143332
 10
246.58506
 20
-153.143332
  0
LWPOLYLINE
  5
133
330
15
100
AcDbEntity
  8
IMP_EC_PLATE-EDGE_CUTS_GBR
  6
BYLAYER
370
   211
 62
   256
100
AcDbPolyline
 90
     2
 70
     0
 43
0.2
 10
247.58506
 20
-140.143332
 10
247.58506
 20
-152.143332
  0
LWPOLYLINE
  5
134
330
15
100
AcDbEntity
  8
IMP_EC_PLATE-EDGE_CUTS_GBR
  6
BYLAYER
370
   211
 62
   256
100
AcDbPolyline
 90
     2
 70
     0
 43
0.2
 10
246.58506
 20
-139.143332
 10
247.58506
 20
-140.143332
  0
LWPOLYLINE
  5
135
330
15
100
AcDbEntity
  8
IMP_EC_PLATE-EDGE_CUTS_GBR
  6
BYLAYER
370
   211
 62
   256
100
AcDbPolyline
 90
     2
 70
     0
 43
0.2
 10
233.98506
 20
-139.143332
 10
246.58506
 20
-139.143332
  0
LWPOLYLINE
  5
136
330
15
100
AcDbEntity
  8
IMP_EC_PLATE-EDGE_CUTS_GBR
  6
BYLAYER
370
   211
 62
   256
100
AcDbPolyline
 90
     2
 70
     0
 43
0.2
 10
374.684268
 20
-121.146884
 10
375.684268
 20
-120.146884
  0
LWPOLYLINE
  5
137
330
15
100
AcDbEntity
  8
IMP_EC_PLATE-EDGE_CUTS_GBR
  6
BYLAYER
370
   211
 62
   256
100
AcDbPolyline
 90
     2
 70
     0
 43
0.2
 10
374.684268
 20
-133.146884
 10
374.684268
 20
-121.146884
  0
LWPOLYLINE
  5
138
330
15
100
AcDbEntity
  8
IMP_EC_PLATE-EDGE_CUTS_GBR
  6
BYLAYER
370
   211
 62
   256
100
AcDbPolyline
 90
     2
 70
     0
 43
0.2
 10
375.684268
 20
-134.146884
 10
374.684268
 20
-133.146884
  0
LWPOLYLINE
  5
139
330
15
100
AcDbEntity
  8
IMP_EC_PLATE-EDGE_CUTS_GBR
  6
BYLAYER
370
   211
 62
   256
100
AcDbPolyline
 90
     2
 70
     0
 43
0.2
 10
388.284268
 20
-134.146884
 10
375.684268
 20
-134.146884
  0
LWPOLYLINE
  5
13A
330
15
100
AcDbEntity
  8
IMP_EC_PLATE-EDGE_CUTS_GBR
  6
BYLAYER
370
   211
 62
   256
100
AcDbPolyline
 90
     2
 70
     0
 43
0.2
 10
389.284268
 20
-133.146884
 10
388.284268
 20
-134.146884
  0
LWPOLYLINE
  5
13B
330
15
100
AcDbEntity
  8
IMP_EC_PLATE-EDGE_CUTS_GBR
  6
BYLAYER
370
   211
 62
   256
100
AcDbPolyline
 90
     2
 70
     0
 43
0.2
 10
389.284268
 20
-121.146884
 10
389.284268
 20
-133.146884
  0
LWPOLYLINE
  5
13C
330
15
100
AcDbEntity
  8
IMP_EC_PLATE-EDGE_CUTS_GBR
  6
BYLAYER
370
   211
 62
   256
100
AcDbPolyline
 90
     2
 70
     0
 43
0.2
 10
388.284268
 20
-120.146884
 10
389.284268
 20
-121.146884
  0
LWPOLYLINE
  5
13D
330
15
100
AcDbEntity
  8
IMP_EC_PLATE-EDGE_CUTS_GBR
  6
BYLAYER
370
   211
 62
   256
100
AcDbPolyline
 90
     2
 70
     0
 43
0.2
 10
375.684268
 20
-120.146884
 10
388.284268
 20
-120.146884
  0
LWPOLYLINE
  5
13E
330
15
100
AcDbEntity
  8
IMP_EC_PLATE-EDGE_CUTS_GBR
  6
BYLAYER
370
   211
 62
   256
100
AcDbPolyline
 90
     2
 70
     0
 43
0.2
 10
355.664268
 20
-121.146884
 10
356.664268
 20
-120.146884
  0
LWPOLYLINE
  5
13F
330
15
100
AcDbEntity
  8
IMP_EC_PLATE-EDGE_CUTS_GBR
  6
BYLAYER
370
   211
 62
   256
100
AcDbPolyline
 90
     2
 70
     0
 43
0.2
 10
355.664268
 20
-133.146884
 10
355.664268
 20
-121.146884
  0
LWPOLYLINE
  5
140
330
15
100
AcDbEntity
  8
IMP_EC_PLATE-EDGE_CUTS_GBR
  6
BYLAYER
370
   211
 62
   256
100
AcDbPolyline
 90
     2
 70
     0
 43
0.2
 10
356.664268
 20
-134.146884
 10
355.664268
 20
-133.146884
  0
LWPOLYLINE
  5
141
330
15
100
AcDbEntity
  8
IMP_EC_PLATE-EDGE_CUTS_GBR
  6
BYLAYER
370
   211
 62
   256
100
AcDbPolyline
 90
     2
 70
     0
 43
0.2
 10
369.264268
 20
-134.146884
 10
356.664268
 20
-134.146884
  0
LWPOLYLINE
  5
142
330
15
100
AcDbEntity
  8
IMP_EC_PLATE-EDGE_CUTS_GBR
  6
BYLAYER
370
   211
 62
   256
100
AcDbPolyline
 90
     2
 70
     0
 43
0.2
 10
370.264268
 20
-133.146884
 10
369.264268
 20
-134.146884
  0
LWPOLYLINE
  5
143
330
15
100
AcDbEntity
  8
IMP_EC_PLATE-EDGE_CUTS_GBR
  6
BYLAYER
370
   211
 62
   256
100
AcDbPolyline
 90
     2
 70
     0
 43
0.2
 10
370.264268
 20
-121.146884
 10
370.264268
 20
-133.146884
  0
LWPOLYLINE
  5
144
330
15
100
AcDbEntity
  8
IMP_EC_PLATE-EDGE_CUTS_GBR
  6
BYLAYER
370
   211
 62
   256
100
AcDbPolyline
 90
     2
 70
     0
 43
0.2
 10
369.264268
 20
-120.146884
 10
370.264268
 20
-121.146884
  0
LWPOLYLINE
  5
145
330
15
100
AcDbEntity
  8
IMP_EC_PLATE-EDGE_CUTS_GBR
  6
BYLAYER
370
   211
 62
   256
100
AcDbPolyline
 90
     2
 70
     0
 43
0.2
 10
356.664268
 20
-120.146884
 10
369.264268
 20
-120.146884
  0
LWPOLYLINE
  5
146
330
15
100
AcDbEntity
  8
IMP_EC_PLATE-EDGE_CUTS_GBR
  6
BYLAYER
370
   211
 62
   256
100
AcDbPolyline
 90
     2
 70
     0
 43
0.2
 10
336.644268
 20
-121.146884
 10
337.644268
 20
-120.146884
  0
LWPOLYLINE
  5
147
330
15
100
AcDbEntity
  8
IMP_EC_PLATE-EDGE_CUTS_GBR
  6
BYLAYER
370
   211
 62
   256
100
AcDbPolyline
 90
     2
 70
     0
 43
0.2
 10
336.644268
 20
-133.146884
 10
336.644268
 20
-121.146884
  0
LWPOLYLINE
  5
148
330
15
100
AcDbEntity
  8
IMP_EC_PLATE-EDGE_CUTS_GBR
  6
BYLAYER
370
   211
 62
   256
100
AcDbPolyline
 90
     2
 70
     0
 43
0.2
 10
337.644268
 20
-134.146884
 10
336.644268
 20
-133.146884
  0
LWPOLYLINE
  5
149
330
15
100
AcDbEntity
  8
IMP_EC_PLATE-EDGE_CUTS_GBR
  6
BYLAYER
370
   211
 62
   256
100
AcDbPolyline
 90
     2
 70
     0
 43
0.2
 10
350.244268
 20
-134.146884
 10
337.644268
 20
-134.146884
  0
LWPOLYLINE
  5
14A
330
15
100
AcDbEntity
  8
IMP_EC_PLATE-EDGE_CUTS_GBR
  6
BYLAYER
370
   211
 62
   256
100
AcDbPolyline
 90
     2
 70
     0
 43
0.2
 10
351.244268
 20
-133.146884
 10
350.244268
 20
-134.146884
  0
LWPOLYLINE
  5
14B
330
15
100
AcDbEntity
  8
IMP_EC_PLATE-EDGE_CUTS_GBR
  6
BYLAYER
370
   211
 62
   256
100
AcDbPolyline
 90
     2
 70
     0
 43
0.2
 10
351.244268
 20
-121.146884
 10
351.244268
 20
-133.146884
  0
LWPOLYLINE
  5
14C
330
15
100
AcDbEntity
  8
IMP_EC_PLATE-EDGE_CUTS_GBR
  6
BYLAYER
370
   211
 62
   256
100
AcDbPolyline
 90
     2
 70
     0
 43
0.2
 10
350.244268
 20
-120.146884
 10
351.244268
 20
-121.146884
  0
LWPOLYLINE
  5
14D
330
15
100
AcDbEntity
  8
IMP_EC_PLATE-EDGE_CUTS_GBR
  6
BYLAYER
370
   211
 62
   256
100
AcDbPolyline
 90
     2
 70
     0
 43
0.2
 10
337.644268
 20
-120.146884
 10
350.244268
 20
-120.146884
  0
LWPOLYLINE
  5
14E
330
15
100
AcDbEntity
  8
IMP_EC_PLATE-EDGE_CUTS_GBR
  6
BYLAYER
370
   211
 62
   256
100
AcDbPolyline
 90
     2
 70
     0
 43
0.2
 10
309.09006
 20
-121.123332
 10
310.09006
 20
-120.123332
  0
LWPOLYLINE
  5
14F
330
15
100
AcDbEntity
  8
IMP_EC_PLATE-EDGE_CUTS_GBR
  6
BYLAYER
370
   211
 62
   256
100
AcDbPolyline
 90
     2
 70
     0
 43
0.2
 10
309.09006
 20
-133.123332
 10
309.09006
 20
-121.123332
  0
LWPOLYLINE
  5
150
330
15
100
AcDbEntity
  8
IMP_EC_PLATE-EDGE_CUTS_GBR
  6
BYLAYER
370
   211
 62
   256
100
AcDbPolyline
 90
     2
 70
     0
 43
0.2
 10
310.09006
 20
-134.123332
 10
309.09006
 20
-133.123332
  0
LWPOLYLINE
  5
151
330
15
100
AcDbEntity
  8
IMP_EC_PLATE-EDGE_CUTS_GBR
  6
BYLAYER
370
   211
 62
   256
100
AcDbPolyline
 90
     2
 70
     0
 43
0.2
 10
322.69006
 20
-134.123332
 10
310.09006
 20
-134.123332
  0
LWPOLYLINE
  5
152
330
15
100
AcDbEntity
  8
IMP_EC_PLATE-EDGE_CUTS_GBR
  6
BYLAYER
370
   211
 62
   256
100
AcDbPolyline
 90
     2
 70
     0
 43
0.2
 10
323.69006
 20
-133.123332
 10
322.69006
 20
-134.123332
  0
LWPOLYLINE
  5
153
330
15
100
AcDbEntity
  8
IMP_EC_PLATE-EDGE_CUTS_GBR
  6
BYLAYER
370
   211
 62
   256
100
AcDbPolyline
 90
     2
 70
     0
 43
0.2
 10
323.69006
 20
-121.123332
 10
323.69006
 20
-133.123332
  0
LWPOLYLINE
  5
154
330
15
100
AcDbEntity
  8
IMP_EC_PLATE-EDGE_CUTS_GBR
  6
BYLAYER
370
   211
 62
   256
100
AcDbPolyline
 90
     2
 70
     0
 43
0.2
 10
322.69006
 20
-120.123332
 10
323.69006
 20
-121.123332
  0
LWPOLYLINE
  5
155
330
15
100
AcDbEntity
  8
IMP_EC_PLATE-EDGE_CUTS_GBR
  6
BYLAYER
370
   211
 62
   256
100
AcDbPolyline
 90
     2
 70
     0
 43
0.2
 10
310.09006
 20
-120.123332
 10
322.69006
 20
-120.123332
  0
LWPOLYLINE
  5
156
330
15
100
AcDbEntity
  8
IMP_EC_PLATE-EDGE_CUTS_GBR
  6
BYLAYER
370
   211
 62
   256
100
AcDbPolyline
 90
     2
 70
     0
 43
0.2
 10
285.27506
 20
-121.123332
 10
286.27506
 20
-120.123332
  0
LWPOLYLINE
  5
157
330
15
100
AcDbEntity
  8
IMP_EC_PLATE-EDGE_CUTS_GBR
  6
BYLAYER
370
   211
 62
   256
100
AcDbPolyline
 90
     2
 70
     0
 43
0.2
 10
285.27506
 20
-133.123332
 10
285.27506
 20
-121.123332
  0
LWPOLYLINE
  5
158
330
15
100
AcDbEntity
  8
IMP_EC_PLATE-EDGE_CUTS_GBR
  6
BYLAYER
370
   211
 62
   256
100
AcDbPolyline
 90
     2
 70
     0
 43
0.2
 10
286.27506
 20
-134.123332
 10
285.27506
 20
-133.123332
  0
LWPOLYLINE
  5
159
330
15
100
AcDbEntity
  8
IMP_EC_PLATE-EDGE_CUTS_GBR
  6
BYLAYER
370
   211
 62
   256
100
AcDbPolyline
 90
     2
 70
     0
 43
0.2
 10
298.87506
 20
-134.123332
 10
286.27506
 20
-134.123332
  0
LWPOLYLINE
  5
15A
330
15
100
AcDbEntity
  8
IMP_EC_PLATE-EDGE_CUTS_GBR
  6
BYLAYER
370
   211
 62
   256
100
AcDbPolyline
 90
     2
 70
     0
 43
0.2
 10
299.87506
 20
-133.123332
 10
298.87506
 20
-134.123332
  0
LWPOLYLINE
  5
15B
330
15
100
AcDbEntity
  8
IMP_EC_PLATE-EDGE_CUTS_GBR
  6
BYLAYER
370
   211
 62
   256
100
AcDbPolyline
 90
     2
 70
     0
 43
0.2
 10
299.87506
 20
-121.123332
 10
299.87506
 20
-133.123332
  0
LWPOLYLINE
  5
15C
330
15
100
AcDbEntity
  8
IMP_EC_PLATE-EDGE_CUTS_GBR
  6
BYLAYER
370
   211
 62
   256
100
AcDbPolyline
 90
     2
 70
     0
 43
0.2
 10
298.87506
 20
-120.123332
 10
299.87506
 20
-121.123332
  0
LWPOLYLINE
  5
15D
330
15
100
AcDbEntity
  8
IMP_EC_PLATE-EDGE_CUTS_GBR
  6
BYLAYER
370
   211
 62
   256
100
AcDbPolyline
 90
     2
 70
     0
 43
0.2
 10
286.27506
 20
-120.123332
 10
298.87506
 20
-120.123332
  0
LWPOLYLINE
  5
15E
330
15
100
AcDbEntity
  8
IMP_EC_PLATE-EDGE_CUTS_GBR
  6
BYLAYER
370
   211
 62
   256
100
AcDbPolyline
 90
     2
 70
     0
 43
0.2
 10
266.25506
 20
-121.123332
 10
267.25506
 20
-120.123332
  0
LWPOLYLINE
  5
15F
330
15
100
AcDbEntity
  8
IMP_EC_PLATE-EDGE_CUTS_GBR
  6
BYLAYER
370
   211
 62
   256
100
AcDbPolyline
 90
     2
 70
     0
 43
0.2
 10
266.25506
 20
-133.123332
 10
266.25506
 20
-121.123332
  0
LWPOLYLINE
  5
160
330
15
100
AcDbEntity
  8
IMP_EC_PLATE-EDGE_CUTS_GBR
  6
BYLAYER
370
   211
 62
   256
100
AcDbPolyline
 90
     2
 70
     0
 43
0.2
 10
267.25506
 20
-134.123332
 10
266.25506
 20
-133.123332
  0
LWPOLYLINE
  5
161
330
15
100
AcDbEntity
  8
IMP_EC_PLATE-EDGE_CUTS_GBR
  6
BYLAYER
370
   211
 62
   256
100
AcDbPolyline
 90
     2
 70
     0
 43
0.2
 10
279.85506
 20
-134.123332
 10
267.25506
 20
-134.123332
  0
LWPOLYLINE
  5
162
330
15
100
AcDbEntity
  8
IMP_EC_PLATE-EDGE_CUTS_GBR
  6
BYLAYER
370
   211
 62
   256
100
AcDbPolyline
 90
     2
 70
     0
 43
0.2
 10
280.85506
 20
-133.123332
 10
279.85506
 20
-134.123332
  0
LWPOLYLINE
  5
163
330
15
100
AcDbEntity
  8
IMP_EC_PLATE-EDGE_CUTS_GBR
  6
BYLAYER
370
   211
 62
   256
100
AcDbPolyline
 90
     2
 70
     0
 43
0.2
 10
280.85506
 20
-121.123332
 10
280.85506
 20
-133.123332
  0
LWPOLYLINE
  5
164
330
15
100
AcDbEntity
  8
IMP_EC_PLATE-EDGE_CUTS_GBR
  6
BYLAYER
370
   211
 62
   256
100
AcDbPolyline
 90
     2
 70
     0
 43
0.2
 10
279.85506
 20
-120.123332
 10
280.85506
 20
-121.123332
  0
LWPOLYLINE
  5
165
330
15
100
AcDbEntity
  8
IMP_EC_PLATE-EDGE_CUTS_GBR
  6
BYLAYER
370
   211
 62
   256
100
AcDbPolyline
 90
     2
 70
     0
 43
0.2
 10
267.25506
 20
-120.123332
 10
279.85506
 20
-120.123332
  0
LWPOLYLINE
  5
166
330
15
100
AcDbEntity
  8
IMP_EC_PLATE-EDGE_CUTS_GBR
  6
BYLAYER
370
   211
 62
   256
100
AcDbPolyline
 90
     2
 70
     0
 43
0.2
 10
247.23506
 20
-121.123332
 10
248.23506
 20
-120.123332
  0
LWPOLYLINE
  5
167
330
15
100
AcDbEntity
  8
IMP_EC_PLATE-EDGE_CUTS_GBR
  6
BYLAYER
370
   211
 62
   256
100
AcDbPolyline
 90
     2
 70
     0
 43
0.2
 10
247.23506
 20
-133.123332
 10
247.23506
 20
-121.123332
  0
LWPOLYLINE
  5
168
330
15
100
AcDbEntity
  8
IMP_EC_PLATE-EDGE_CUTS_GBR
  6
BYLAYER
370
   211
 62
   256
100
AcDbPolyline
 90
     2
 70
     0
 43
0.2
 10
248.23506
 20
-134.123332
 10
247.23506
 20
-133.123332
  0
LWPOLYLINE
  5
169
330
15
100
AcDbEntity
  8
IMP_EC_PLATE-EDGE_CUTS_GBR
  6
BYLAYER
370
   211
 62
   256
100
AcDbPolyline
 90
     2
 70
     0
 43
0.2
 10
260.83506
 20
-134.123332
 10
248.23506
 20
-134.123332
  0
LWPOLYLINE
  5
16A
330
15
100
AcDbEntity
  8
IMP_EC_PLATE-EDGE_CUTS_GBR
  6
BYLAYER
370
   211
 62
   256
100
AcDbPolyline
 90
     2
 70
     0
 43
0.2
 10
261.83506
 20
-133.123332
 10
260.83506
 20
-134.123332
  0
LWPOLYLINE
  5
16B
330
15
100
AcDbEntity
  8
IMP_EC_PLATE-EDGE_CUTS_GBR
  6
BYLAYER
370
   211
 62
   256
100
AcDbPolyline
 90
     2
 70
     0
 43
0.2
 10
261.83506
 20
-121.123332
 10
261.83506
 20
-133.123332
  0
LWPOLYLINE
  5
16C
330
15
100
AcDbEntity
  8
IMP_EC_PLATE-EDGE_CUTS_GBR
  6
BYLAYER
370
   211
 62
   256
100
AcDbPolyline
 90
     2
 70
     0
 43
0.2
 10
260.83506
 20
-120.123332
 10
261.83506
 20
-121.123332
  0
LWPOLYLINE
  5
16D
330
15
100
AcDbEntity
  8
IMP_EC_PLATE-EDGE_CUTS_GBR
  6
BYLAYER
370
   211
 62
   256
100
AcDbPolyline
 90
     2
 70
     0
 43
0.2
 10
248.23506
 20
-120.123332
 10
260.83506
 20
-120.123332
  0
LWPOLYLINE
  5
16E
330
15
100
AcDbEntity
  8
IMP_EC_PLATE-EDGE_CUTS_GBR
  6
BYLAYER
370
   211
 62
   256
100
AcDbPolyline
 90
     2
 70
     0
 43
0.2
 10
228.21506
 20
-121.123332
 10
229.21506
 20
-120.123332
  0
LWPOLYLINE
  5
16F
330
15
100
AcDbEntity
  8
IMP_EC_PLATE-EDGE_CUTS_GBR
  6
BYLAYER
370
   211
 62
   256
100
AcDbPolyline
 90
     2
 70
     0
 43
0.2
 10
228.21506
 20
-133.123332
 10
228.21506
 20
-121.123332
  0
LWPOLYLINE
  5
170
330
15
100
AcDbEntity
  8
IMP_EC_PLATE-EDGE_CUTS_GBR
  6
BYLAYER
370
   211
 62
   256
100
AcDbPolyline
 90
     2
 70
     0
 43
0.2
 10
229.21506
 20
-134.123332
 10
228.21506
 20
-133.123332
  0
LWPOLYLINE
  5
171
330
15
100
AcDbEntity
  8
IMP_EC_PLATE-EDGE_CUTS_GBR
  6
BYLAYER
370
   211
 62
   256
100
AcDbPolyline
 90
     2
 70
     0
 43
0.2
 10
241.81506
 20
-134.123332
 10
229.21506
 20
-134.123332
  0
LWPOLYLINE
  5
172
330
15
100
AcDbEntity
  8
IMP_EC_PLATE-EDGE_CUTS_GBR
  6
BYLAYER
370
   211
 62
   256
100
AcDbPolyline
 90
     2
 70
     0
 43
0.2
 10
242.81506
 20
-133.123332
 10
241.81506
 20
-134.123332
  0
LWPOLYLINE
  5
173
330
15
100
AcDbEntity
  8
IMP_EC_PLATE-EDGE_CUTS_GBR
  6
BYLAYER
370
   211
 62
   256
100
AcDbPolyline
 90
     2
 70
     0
 43
0.2
 10
242.81506
 20
-121.123332
 10
242.81506
 20
-133.123332
  0
LWPOLYLINE
  5
174
330
15
100
AcDbEntity
  8
IMP_EC_PLATE-EDGE_CUTS_GBR
  6
BYLAYER
370
   211
 62
   256
100
AcDbPolyline
 90
     2
 70
     0
 43
0.2
 10
241.81506
 20
-120.123332
 10
242.81506
 20
-121.123332
  0
LWPOLYLINE
  5
175
330
15
100
AcDbEntity
  8
IMP_EC_PLATE-EDGE_CUTS_GBR
  6
BYLAYER
370
   211
 62
   256
100
AcDbPolyline
 90
     2
 70
     0
 43
0.2
 10
229.21506
 20
-120.123332
 10
241.81506
 20
-120.123332
  0
LWPOLYLINE
  5
176
330
15
100
AcDbEntity
  8
IMP_EC_PLATE-EDGE_CUTS_GBR
  6
BYLAYER
370
   211
 62
   256
100
AcDbPolyline
 90
     2
 70
     0
 43
0.2
 10
374.684268
 20
-102.126884
 10
375.684268
 20
-101.126884
  0
LWPOLYLINE
  5
177
330
15
100
AcDbEntity
  8
IMP_EC_PLATE-EDGE_CUTS_GBR
  6
BYLAYER
370
   211
 62
   256
100
AcDbPolyline
 90
     2
 70
     0
 43
0.2
 10
374.684268
 20
-114.126884
 10
374.684268
 20
-102.126884
  0
LWPOLYLINE
  5
178
330
15
100
AcDbEntity
  8
IMP_EC_PLATE-EDGE_CUTS_GBR
  6
BYLAYER
370
   211
 62
   256
100
AcDbPolyline
 90
     2
 70
     0
 43
0.2
 10
375.684268
 20
-115.126884
 10
374.684268
 20
-114.126884
  0
LWPOLYLINE
  5
179
330
15
100
AcDbEntity
  8
IMP_EC_PLATE-EDGE_CUTS_GBR
  6
BYLAYER
370
   211
 62
   256
100
AcDbPolyline
 90
     2
 70
     0
 43
0.2
 10
388.284268
 20
-115.126884
 10
375.684268
 20
-115.126884
  0
LWPOLYLINE
  5
17A
330
15
100
AcDbEntity
  8
IMP_EC_PLATE-EDGE_CUTS_GBR
  6
BYLAYER
370
   211
 62
   256
100
AcDbPolyline
 90
     2
 70
     0
 43
0.2
 10
389.284268
 20
-114.126884
 10
388.284268
 20
-115.126884
  0
LWPOLYLINE
  5
17B
330
15
100
AcDbEntity
  8
IMP_EC_PLATE-EDGE_CUTS_GBR
  6
BYLAYER
370
   211
 62
   256
100
AcDbPolyline
 90
     2
 70
     0
 43
0.2
 10
389.284268
 20
-102.126884
 10
389.284268
 20
-114.126884
  0
LWPOLYLINE
  5
17C
330
15
100
AcDbEntity
  8
IMP_EC_PLATE-EDGE_CUTS_GBR
  6
BYLAYER
370
   211
 62
   256
100
AcDbPolyline
 90
     2
 70
     0
 43
0.2
 10
388.284268
 20
-101.126884
 10
389.284268
 20
-102.126884
  0
LWPOLYLINE
  5
17D
330
15
100
AcDbEntity
  8
IMP_EC_PLATE-EDGE_CUTS_GBR
  6
BYLAYER
370
   211
 62
   256
100
AcDbPolyline
 90
     2
 70
     0
 43
0.2
 10
375.684268
 20
-101.126884
 10
388.284268
 20
-101.126884
  0
LWPOLYLINE
  5
17E
330
15
100
AcDbEntity
  8
IMP_EC_PLATE-EDGE_CUTS_GBR
  6
BYLAYER
370
   211
 62
   256
100
AcDbPolyline
 90
     2
 70
     0
 43
0.2
 10
355.664268
 20
-102.126884
 10
356.664268
 20
-101.126884
  0
LWPOLYLINE
  5
17F
330
15
100
AcDbEntity
  8
IMP_EC_PLATE-EDGE_CUTS_GBR
  6
BYLAYER
370
   211
 62
   256
100
AcDbPolyline
 90
     2
 70
     0
 43
0.2
 10
355.664268
 20
-114.126884
 10
355.664268
 20
-102.126884
  0
LWPOLYLINE
  5
180
330
15
100
AcDbEntity
  8
IMP_EC_PLATE-EDGE_CUTS_GBR
  6
BYLAYER
370
   211
 62
   256
100
AcDbPolyline
 90
     2
 70
     0
 43
0.2
 10
356.664268
 20
-115.126884
 10
355.664268
 20
-114.126884
  0
LWPOLYLINE
  5
181
330
15
100
AcDbEntity
  8
IMP_EC_PLATE-EDGE_CUTS_GBR
  6
BYLAYER
370
   211
 62
   256
100
AcDbPolyline
 90
     2
 70
     0
 43
0.2
 10
369.264268
 20
-115.126884
 10
356.664268
 20
-115.126884
  0
LWPOLYLINE
  5
182
330
15
100
AcDbEntity
  8
IMP_EC_PLATE-EDGE_CUTS_GBR
  6
BYLAYER
370
   211
 62
   256
100
AcDbPolyline
 90
     2
 70
     0
 43
0.2
 10
370.264268
 20
-114.126884
 10
369.264268
 20
-115.126884
  0
LWPOLYLINE
  5
183
330
15
100
AcDbEntity
  8
IMP_EC_PLATE-EDGE_CUTS_GBR
  6
BYLAYER
370
   211
 62
   256
100
AcDbPolyline
 90
     2
 70
     0
 43
0.2
 10
370.264268
 20
-102.126884
 10
370.264268
 20
-114.126884
  0
LWPOLYLINE
  5
184
330
15
100
AcDbEntity
  8
IMP_EC_PLATE-EDGE_CUTS_GBR
  6
BYLAYER
370
   211
 62
   256
100
AcDbPolyline
 90
     2
 70
     0
 43
0.2
 10
369.264268
 20
-101.126884
 10
370.264268
 20
-102.126884
  0
LWPOLYLINE
  5
185
330
15
100
AcDbEntity
  8
IMP_EC_PLATE-EDGE_CUTS_GBR
  6
BYLAYER
370
   211
 62
   256
100
AcDbPolyline
 90
     2
 70
     0
 43
0.2
 10
356.664268
 20
-101.126884
 10
369.264268
 20
-101.126884
  0
LWPOLYLINE
  5
186
330
15
100
AcDbEntity
  8
IMP_EC_PLATE-EDGE_CUTS_GBR
  6
BYLAYER
370
   211
 62
   256
100
AcDbPolyline
 90
     2
 70
     0
 43
0.2
 10
336.644268
 20
-102.126884
 10
337.644268
 20
-101.126884
  0
LWPOLYLINE
  5
187
330
15
100
AcDbEntity
  8
IMP_EC_PLATE-EDGE_CUTS_GBR
  6
BYLAYER
370
   211
 62
   256
100
AcDbPolyline
 90
     2
 70
     0
 43
0.2
 10
336.644268
 20
-114.126884
 10
336.644268
 20
-102.126884
  0
LWPOLYLINE
  5
188
330
15
100
AcDbEntity
  8
IMP_EC_PLATE-EDGE_CUTS_GBR
  6
BYLAYER
370
   211
 62
   256
100
AcDbPolyline
 90
     2
 70
     0
 43
0.2
 10
337.644268
 20
-115.126884
 10
336.644268
 20
-114.126884
  0
LWPOLYLINE
  5
189
330
15
100
AcDbEntity
  8
IMP_EC_PLATE-EDGE_CUTS_GBR
  6
BYLAYER
370
   211
 62
   256
100
AcDbPolyline
 90
     2
 70
     0
 43
0.2
 10
350.244268
 20
-115.126884
 10
337.644268
 20
-115.126884
  0
LWPOLYLINE
  5
18A
330
15
100
AcDbEntity
  8
IMP_EC_PLATE-EDGE_CUTS_GBR
  6
BYLAYER
370
   211
 62
   256
100
AcDbPolyline
 90
     2
 70
     0
 43
0.2
 10
351.244268
 20
-114.126884
 10
350.244268
 20
-115.126884
  0
LWPOLYLINE
  5
18B
330
15
100
AcDbEntity
  8
IMP_EC_PLATE-EDGE_CUTS_GBR
  6
BYLAYER
370
   211
 62
   256
100
AcDbPolyline
 90
     2
 70
     0
 43
0.2
 10
351.244268
 20
-102.126884
 10
351.244268
 20
-114.126884
  0
LWPOLYLINE
  5
18C
330
15
100
AcDbEntity
  8
IMP_EC_PLATE-EDGE_CUTS_GBR
  6
BYLAYER
370
   211
 62
   256
100
AcDbPolyline
 90
     2
 70
     0
 43
0.2
 10
350.244268
 20
-101.126884
 10
351.244268
 20
-102.126884
  0
LWPOLYLINE
  5
18D
330
15
100
AcDbEntity
  8
IMP_EC_PLATE-EDGE_CUTS_GBR
  6
BYLAYER
370
   211
 62
   256
100
AcDbPolyline
 90
     2
 70
     0
 43
0.2
 10
337.644268
 20
-101.126884
 10
350.244268
 20
-101.126884
  0
LWPOLYLINE
  5
18E
330
15
100
AcDbEntity
  8
IMP_EC_PLATE-EDGE_CUTS_GBR
  6
BYLAYER
370
   211
 62
   256
100
AcDbPolyline
 90
     2
 70
     0
 43
0.2
 10
275.81506
 20
-102.103332
 10
276.81506
 20
-101.103332
  0
LWPOLYLINE
  5
18F
330
15
100
AcDbEntity
  8
IMP_EC_PLATE-EDGE_CUTS_GBR
  6
BYLAYER
370
   211
 62
   256
100
AcDbPolyline
 90
     2
 70
     0
 43
0.2
 10
275.81506
 20
-114.103332
 10
275.81506
 20
-102.103332
  0
LWPOLYLINE
  5
190
330
15
100
AcDbEntity
  8
IMP_EC_PLATE-EDGE_CUTS_GBR
  6
BYLAYER
370
   211
 62
   256
100
AcDbPolyline
 90
     2
 70
     0
 43
0.2
 10
276.81506
 20
-115.103332
 10
275.81506
 20
-114.103332
  0
LWPOLYLINE
  5
191
330
15
100
AcDbEntity
  8
IMP_EC_PLATE-EDGE_CUTS_GBR
  6
BYLAYER
370
   211
 62
   256
100
AcDbPolyline
 90
     2
 70
     0
 43
0.2
 10
289.41506
 20
-115.103332
 10
276.81506
 20
-115.103332
  0
LWPOLYLINE
  5
192
330
15
100
AcDbEntity
  8
IMP_EC_PLATE-EDGE_CUTS_GBR
  6
BYLAYER
370
   211
 62
   256
100
AcDbPolyline
 90
     2
 70
     0
 43
0.2
 10
290.41506
 20
-114.103332
 10
289.41506
 20
-115.103332
  0
LWPOLYLINE
  5
193
330
15
100
AcDbEntity
  8
IMP_EC_PLATE-EDGE_CUTS_GBR
  6
BYLAYER
370
   211
 62
   256
100
AcDbPolyline
 90
     2
 70
     0
 43
0.2
 10
290.41506
 20
-102.103332
 10
290.41506
 20
-114.103332
  0
LWPOLYLINE
  5
194
330
15
100
AcDbEntity
  8
IMP_EC_PLATE-EDGE_CUTS_GBR
  6
BYLAYER
370
   211
 62
   256
100
AcDbPolyline
 90
     2
 70
     0
 43
0.2
 10
289.41506
 20
-101.103332
 10
290.41506
 20
-102.103332
  0
LWPOLYLINE
  5
195
330
15
100
AcDbEntity
  8
IMP_EC_PLATE-EDGE_CUTS_GBR
  6
BYLAYER
370
   211
 62
   256
100
AcDbPolyline
 90
     2
 70
     0
 43
0.2
 10
276.81506
 20
-101.103332
 10
289.41506
 20
-101.103332
  0
LWPOLYLINE
  5
196
330
15
100
AcDbEntity
  8
IMP_EC_PLATE-EDGE_CUTS_GBR
  6
BYLAYER
370
   211
 62
   256
100
AcDbPolyline
 90
     2
 70
     0
 43
0.2
 10
256.79506
 20
-102.103332
 10
257.79506
 20
-101.103332
  0
LWPOLYLINE
  5
197
330
15
100
AcDbEntity
  8
IMP_EC_PLATE-EDGE_CUTS_GBR
  6
BYLAYER
370
   211
 62
   256
100
AcDbPolyline
 90
     2
 70
     0
 43
0.2
 10
256.79506
 20
-114.103332
 10
256.79506
 20
-102.103332
  0
LWPOLYLINE
  5
198
330
15
100
AcDbEntity
  8
IMP_EC_PLATE-EDGE_CUTS_GBR
  6
BYLAYER
370
   211
 62
   256
100
AcDbPolyline
 90
     2
 70
     0
 43
0.2
 10
257.79506
 20
-115.103332
 10
256.79506
 20
-114.103332
  0
LWPOLYLINE
  5
199
330
15
100
AcDbEntity
  8
IMP_EC_PLATE-EDGE_CUTS_GBR
  6
BYLAYER
370
   211
 62
   256
100
AcDbPolyline
 90
     2
 70
     0
 43
0.2
 10
270.39506
 20
-115.103332
 10
257.79506
 20
-115.103332
  0
LWPOLYLINE
  5
19A
330
15
100
AcDbEntity
  8
IMP_EC_PLATE-EDGE_CUTS_GBR
  6
BYLAYER
370
   211
 62
   256
100
AcDbPolyline
 90
     2
 70
     0
 43
0.2
 10
271.39506
 20
-114.103332
 10
270.39506
 20
-115.103332
  0
LWPOLYLINE
  5
19B
330
15
100
AcDbEntity
  8
IMP_EC_PLATE-EDGE_CUTS_GBR
  6
BYLAYER
370
   211
 62
   256
100
AcDbPolyline
 90
     2
 70
     0
 43
0.2
 10
271.39506
 20
-102.103332
 10
271.39506
 20
-114.103332
  0
LWPOLYLINE
  5
19C
330
15
100
AcDbEntity
  8
IMP_EC_PLATE-EDGE_CUTS_GBR
  6
BYLAYER
370
   211
 62
   256
100
AcDbPolyline
 90
     2
 70
     0
 43
0.2
 10
270.39506
 20
-101.103332
 10
271.39506
 20
-102.103332
  0
LWPOLYLINE
  5
19D
330
15
100
AcDbEntity
  8
IMP_EC_PLATE-EDGE_CUTS_GBR
  6
BYLAYER
370
   211
 62
   256
100
AcDbPolyline
 90
     2
 70
     0
 43
0.2
 10
257.79506
 20
-101.103332
 10
270.39506
 20
-101.103332
  0
LWPOLYLINE
  5
19E
330
15
100
AcDbEntity
  8
IMP_EC_PLATE-EDGE_CUTS_GBR
  6
BYLAYER
370
   211
 62
   256
100
AcDbPolyline
 90
     2
 70
     0
 43
0.2
 10
237.77506
 20
-102.103332
 10
238.77506
 20
-101.103332
  0
LWPOLYLINE
  5
19F
330
15
100
AcDbEntity
  8
IMP_EC_PLATE-EDGE_CUTS_GBR
  6
BYLAYER
370
   211
 62
   256
100
AcDbPolyline
 90
     2
 70
     0
 43
0.2
 10
237.77506
 20
-114.103332
 10
237.77506
 20
-102.103332
  0
LWPOLYLINE
  5
1A0
330
15
100
AcDbEntity
  8
IMP_EC_PLATE-EDGE_CUTS_GBR
  6
BYLAYER
370
   211
 62
   256
100
AcDbPolyline
 90
     2
 70
     0
 43
0.2
 10
238.77506
 20
-115.103332
 10
237.77506
 20
-114.103332
  0
LWPOLYLINE
  5
1A1
330
15
100
AcDbEntity
  8
IMP_EC_PLATE-EDGE_CUTS_GBR
  6
BYLAYER
370
   211
 62
   256
100
AcDbPolyline
 90
     2
 70
     0
 43
0.2
 10
251.37506
 20
-115.103332
 10
238.77506
 20
-115.103332
  0
LWPOLYLINE
  5
1A2
330
15
100
AcDbEntity
  8
IMP_EC_PLATE-EDGE_CUTS_GBR
  6
BYLAYER
370
   211
 62
   256
100
AcDbPolyline
 90
     2
 70
     0
 43
0.2
 10
252.37506
 20
-114.103332
 10
251.37506
 20
-115.103332
  0
LWPOLYLINE
  5
1A3
330
15
100
AcDbEntity
  8
IMP_EC_PLATE-EDGE_CUTS_GBR
  6
BYLAYER
370
   211
 62
   256
100
AcDbPolyline
 90
     2
 70
     0
 43
0.2
 10
252.37506
 20
-102.103332
 10
252.37506
 20
-114.103332
  0
LWPOLYLINE
  5
1A4
330
15
100
AcDbEntity
  8
IMP_EC_PLATE-EDGE_CUTS_GBR
  6
BYLAYER
370
   211
 62
   256
100
AcDbPolyline
 90
     2
 70
     0
 43
0.2
 10
251.37506
 20
-101.103332
 10
252.37506
 20
-102.103332
  0
LWPOLYLINE
  5
1A5
330
15
100
AcDbEntity
  8
IMP_EC_PLATE-EDGE_CUTS_GBR
  6
BYLAYER
370
   211
 62
   256
100
AcDbPolyline
 90
     2
 70
     0
 43
0.2
 10
238.77506
 20
-101.103332
 10
251.37506
 20
-101.103332
  0
LWPOLYLINE
  5
1A6
330
15
100
AcDbEntity
  8
IMP_EC_PLATE-EDGE_CUTS_GBR
  6
BYLAYER
370
   211
 62
   256
100
AcDbPolyline
 90
     2
 70
     0
 43
0.2
 10
218.75506
 20
-102.103332
 10
219.75506
 20
-101.103332
  0
LWPOLYLINE
  5
1A7
330
15
100
AcDbEntity
  8
IMP_EC_PLATE-EDGE_CUTS_GBR
  6
BYLAYER
370
   211
 62
   256
100
AcDbPolyline
 90
     2
 70
     0
 43
0.2
 10
218.75506
 20
-114.103332
 10
218.75506
 20
-102.103332
  0
LWPOLYLINE
  5
1A8
330
15
100
AcDbEntity
  8
IMP_EC_PLATE-EDGE_CUTS_GBR
  6
BYLAYER
370
   211
 62
   256
100
AcDbPolyline
 90
     2
 70
     0
 43
0.2
 10
219.75506
 20
-115.103332
 10
218.75506
 20
-114.103332
  0
LWPOLYLINE
  5
1A9
330
15
100
AcDbEntity
  8
IMP_EC_PLATE-EDGE_CUTS_GBR
  6
BYLAYER
370
   211
 62
   256
100
AcDbPolyline
 90
     2
 70
     0
 43
0.2
 10
232.35506
 20
-115.103332
 10
219.75506
 20
-115.103332
  0
LWPOLYLINE
  5
1AA
330
15
100
AcDbEntity
  8
IMP_EC_PLATE-EDGE_CUTS_GBR
  6
BYLAYER
370
   211
 62
   256
100
AcDbPolyline
 90
     2
 70
     0
 43
0.2
 10
233.35506
 20
-114.103332
 10
232.35506
 20
-115.103332
  0
LWPOLYLINE
  5
1AB
330
15
100
AcDbEntity
  8
IMP_EC_PLATE-EDGE_CUTS_GBR
  6
BYLAYER
370
   211
 62
   256
100
AcDbPolyline
 90
     2
 70
     0
 43
0.2
 10
233.35506
 20
-102.103332
 10
233.35506
 20
-114.103332
  0
LWPOLYLINE
  5
1AC
330
15
100
AcDbEntity
  8
IMP_EC_PLATE-EDGE_CUTS_GBR
  6
BYLAYER
370
   211
 62
   256
100
AcDbPolyline
 90
     2
 70
     0
 43
0.2
 10
232.35506
 20
-101.103332
 10
233.35506
 20
-102.103332
  0
LWPOLYLINE
  5
1AD
330
15
100
AcDbEntity
  8
IMP_EC_PLATE-EDGE_CUTS_GBR
  6
BYLAYER
370
   211
 62
   256
100
AcDbPolyline
 90
     2
 70
     0
 43
0.2
 10
219.75506
 20
-101.103332
 10
232.35506
 20
-101.103332
  0
LWPOLYLINE
  5
1AE
330
15
100
AcDbEntity
  8
IMP_EC_PLATE-EDGE_CUTS_GBR
  6
BYLAYER
370
   211
 62
   256
100
AcDbPolyline
 90
     2
 70
     0
 43
0.2
 10
209.08506
 20
-79.003332
 10
210.08506
 20
-78.003332
  0
LWPOLYLINE
  5
1AF
330
15
100
AcDbEntity
  8
IMP_EC_PLATE-EDGE_CUTS_GBR
  6
BYLAYER
370
   211
 62
   256
100
AcDbPolyline
 90
     2
 70
     0
 43
0.2
 10
209.08506
 20
-91.003332
 10
209.08506
 20
-79.003332
  0
LWPOLYLINE
  5
1B0
330
15
100
AcDbEntity
  8
IMP_EC_PLATE-EDGE_CUTS_GBR
  6
BYLAYER
370
   211
 62
   256
100
AcDbPolyline
 90
     2
 70
     0
 43
0.2
 10
210.08506
 20
-92.003332
 10
209.08506
 20
-91.003332
  0
LWPOLYLINE
  5
1B1
330
15
100
AcDbEntity
  8
IMP_EC_PLATE-EDGE_CUTS_GBR
  6
BYLAYER
370
   211
 62
   256
100
AcDbPolyline
 90
     2
 70
     0
 43
0.2
 10
222.68506
 20
-92.003332
 10
210.08506
 20
-92.003332
  0
LWPOLYLINE
  5
1B2
330
15
100
AcDbEntity
  8
IMP_EC_PLATE-EDGE_CUTS_GBR
  6
BYLAYER
370
   211
 62
   256
100
AcDbPolyline
 90
     2
 70
     0
 43
0.2
 10
223.68506
 20
-91.003332
 10
222.68506
 20
-92.003332
  0
LWPOLYLINE
  5
1B3
330
15
100
AcDbEntity
  8
IMP_EC_PLATE-EDGE_CUTS_GBR
  6
BYLAYER
370
   211
 62
   256
100
AcDbPolyline
 90
     2
 70
     0
 43
0.2
 10
223.68506
 20
-79.003332
 10
223.68506
 20
-91.003332
  0
LWPOLYLINE
  5
1B4
330
15
100
AcDbEntity
  8
IMP_EC_PLATE-EDGE_CUTS_GBR
  6
BYLAYER
370
   211
 62
   256
100
AcDbPolyline
 90
     2
 70
     0
 43
0.2
 10
222.68506
 20
-78.003332
 10
223.68506
 20
-79.003332
  0
LWPOLYLINE
  5
1B5
330
15
100
AcDbEntity
  8
IMP_EC_PLATE-EDGE_CUTS_GBR
  6
BYLAYER
370
   211
 62
   256
100
AcDbPolyline
 90
     2
 70
     0
 43
0.2
 10
210.08506
 20
-78.003332
 10
222.68506
 20
-78.003332
  0
LWPOLYLINE
  5
1B6
330
15
100
AcDbEntity
  8
IMP_EC_PLATE-EDGE_CUTS_GBR
  6
BYLAYER
370
   211
 62
   256
100
AcDbPolyline
 90
     2
 70
     0
 43
0.2
 10
190.06506
 20
-79.003332
 10
191.06506
 20
-78.003332
  0
LWPOLYLINE
  5
1B7
330
15
100
AcDbEntity
  8
IMP_EC_PLATE-EDGE_CUTS_GBR
  6
BYLAYER
370
   211
 62
   256
100
AcDbPolyline
 90
     2
 70
     0
 43
0.2
 10
190.06506
 20
-91.003332
 10
190.06506
 20
-79.003332
  0
LWPOLYLINE
  5
1B8
330
15
100
AcDbEntity
  8
IMP_EC_PLATE-EDGE_CUTS_GBR
  6
BYLAYER
370
   211
 62
   256
100
AcDbPolyline
 90
     2
 70
     0
 43
0.2
 10
191.06506
 20
-92.003332
 10
190.06506
 20
-91.003332
  0
LWPOLYLINE
  5
1B9
330
15
100
AcDbEntity
  8
IMP_EC_PLATE-EDGE_CUTS_GBR
  6
BYLAYER
370
   211
 62
   256
100
AcDbPolyline
 90
     2
 70
     0
 43
0.2
 10
203.66506
 20
-92.003332
 10
191.06506
 20
-92.003332
  0
LWPOLYLINE
  5
1BA
330
15
100
AcDbEntity
  8
IMP_EC_PLATE-EDGE_CUTS_GBR
  6
BYLAYER
370
   211
 62
   256
100
AcDbPolyline
 90
     2
 70
     0
 43
0.2
 10
204.66506
 20
-91.003332
 10
203.66506
 20
-92.003332
  0
LWPOLYLINE
  5
1BB
330
15
100
AcDbEntity
  8
IMP_EC_PLATE-EDGE_CUTS_GBR
  6
BYLAYER
370
   211
 62
   256
100
AcDbPolyline
 90
     2
 70
     0
 43
0.2
 10
204.66506
 20
-79.003332
 10
204.66506
 20
-91.003332
  0
LWPOLYLINE
  5
1BC
330
15
100
AcDbEntity
  8
IMP_EC_PLATE-EDGE_CUTS_GBR
  6
BYLAYER
370
   211
 62
   256
100
AcDbPolyline
 90
     2
 70
     0
 43
0.2
 10
203.66506
 20
-78.003332
 10
204.66506
 20
-79.003332
  0
LWPOLYLINE
  5
1BD
330
15
100
AcDbEntity
  8
IMP_EC_PLATE-EDGE_CUTS_GBR
  6
BYLAYER
370
   211
 62
   256
100
AcDbPolyline
 90
     2
 70
     0
 43
0.2
 10
191.06506
 20
-78.003332
 10
203.66506
 20
-78.003332
  0
LWPOLYLINE
  5
1BE
330
15
100
AcDbEntity
  8
IMP_EC_PLATE-EDGE_CUTS_GBR
  6
BYLAYER
370
   211
 62
   256
100
AcDbPolyline
 90
     2
 70
     0
 43
0.2
 10
171.04506
 20
-79.003332
 10
172.04506
 20
-78.003332
  0
LWPOLYLINE
  5
1BF
330
15
100
AcDbEntity
  8
IMP_EC_PLATE-EDGE_CUTS_GBR
  6
BYLAYER
370
   211
 62
   256
100
AcDbPolyline
 90
     2
 70
     0
 43
0.2
 10
171.04506
 20
-91.003332
 10
171.04506
 20
-79.003332
  0
LWPOLYLINE
  5
1C0
330
15
100
AcDbEntity
  8
IMP_EC_PLATE-EDGE_CUTS_GBR
  6
BYLAYER
370
   211
 62
   256
100
AcDbPolyline
 90
     2
 70
     0
 43
0.2
 10
172.04506
 20
-92.003332
 10
171.04506
 20
-91.003332
  0
LWPOLYLINE
  5
1C1
330
15
100
AcDbEntity
  8
IMP_EC_PLATE-EDGE_CUTS_GBR
  6
BYLAYER
370
   211
 62
   256
100
AcDbPolyline
 90
     2
 70
     0
 43
0.2
 10
184.64506
 20
-92.003332
 10
172.04506
 20
-92.003332
  0
LWPOLYLINE
  5
1C2
330
15
100
AcDbEntity
  8
IMP_EC_PLATE-EDGE_CUTS_GBR
  6
BYLAYER
370
   211
 62
   256
100
AcDbPolyline
 90
     2
 70
     0
 43
0.2
 10
185.64506
 20
-91.003332
 10
184.64506
 20
-92.003332
  0
LWPOLYLINE
  5
1C3
330
15
100
AcDbEntity
  8
IMP_EC_PLATE-EDGE_CUTS_GBR
  6
BYLAYER
370
   211
 62
   256
100
AcDbPolyline
 90
     2
 70
     0
 43
0.2
 10
185.64506
 20
-79.003332
 10
185.64506
 20
-91.003332
  0
LWPOLYLINE
  5
1C4
330
15
100
AcDbEntity
  8
IMP_EC_PLATE-EDGE_CUTS_GBR
  6
BYLAYER
370
   211
 62
   256
100
AcDbPolyline
 90
     2
 70
     0
 43
0.2
 10
184.64506
 20
-78.003332
 10
185.64506
 20
-79.003332
  0
LWPOLYLINE
  5
1C5
330
15
100
AcDbEntity
  8
IMP_EC_PLATE-EDGE_CUTS_GBR
  6
BYLAYER
370
   211
 62
   256
100
AcDbPolyline
 90
     2
 70
     0
 43
0.2
 10
172.04506
 20
-78.003332
 10
184.64506
 20
-78.003332
  0
LWPOLYLINE
  5
1C6
330
15
100
AcDbEntity
  8
IMP_EC_PLATE-EDGE_CUTS_GBR
  6
BYLAYER
370
   211
 62
   256
100
AcDbPolyline
 90
     2
 70
     0
 43
0.2
 10
152.02506
 20
-79.003332
 10
153.02506
 20
-78.003332
  0
LWPOLYLINE
  5
1C7
330
15
100
AcDbEntity
  8
IMP_EC_PLATE-EDGE_CUTS_GBR
  6
BYLAYER
370
   211
 62
   256
100
AcDbPolyline
 90
     2
 70
     0
 43
0.2
 10
152.02506
 20
-91.003332
 10
152.02506
 20
-79.003332
  0
LWPOLYLINE
  5
1C8
330
15
100
AcDbEntity
  8
IMP_EC_PLATE-EDGE_CUTS_GBR
  6
BYLAYER
370
   211
 62
   256
100
AcDbPolyline
 90
     2
 70
     0
 43
0.2
 10
153.02506
 20
-92.003332
 10
152.02506
 20
-91.003332
  0
LWPOLYLINE
  5
1C9
330
15
100
AcDbEntity
  8
IMP_EC_PLATE-EDGE_CUTS_GBR
  6
BYLAYER
370
   211
 62
   256
100
AcDbPolyline
 90
     2
 70
     0
 43
0.2
 10
165.62506
 20
-92.003332
 10
153.02506
 20
-92.003332
  0
LWPOLYLINE
  5
1CA
330
15
100
AcDbEntity
  8
IMP_EC_PLATE-EDGE_CUTS_GBR
  6
BYLAYER
370
   211
 62
   256
100
AcDbPolyline
 90
     2
 70
     0
 43
0.2
 10
166.62506
 20
-91.003332
 10
165.62506
 20
-92.003332
  0
LWPOLYLINE
  5
1CB
330
15
100
AcDbEntity
  8
IMP_EC_PLATE-EDGE_CUTS_GBR
  6
BYLAYER
370
   211
 62
   256
100
AcDbPolyline
 90
     2
 70
     0
 43
0.2
 10
166.62506
 20
-79.003332
 10
166.62506
 20
-91.003332
  0
LWPOLYLINE
  5
1CC
330
15
100
AcDbEntity
  8
IMP_EC_PLATE-EDGE_CUTS_GBR
  6
BYLAYER
370
   211
 62
   256
100
AcDbPolyline
 90
     2
 70
     0
 43
0.2
 10
165.62506
 20
-78.003332
 10
166.62506
 20
-79.003332
  0
LWPOLYLINE
  5
1CD
330
15
100
AcDbEntity
  8
IMP_EC_PLATE-EDGE_CUTS_GBR
  6
BYLAYER
370
   211
 62
   256
100
AcDbPolyline
 90
     2
 70
     0
 43
0.2
 10
153.02506
 20
-78.003332
 10
165.62506
 20
-78.003332
  0
LWPOLYLINE
  5
1CE
330
15
100
AcDbEntity
  8
IMP_EC_PLATE-EDGE_CUTS_GBR
  6
BYLAYER
370
   211
 62
   256
100
AcDbPolyline
 90
     2
 70
     0
 43
0.2
 10
128.35506
 20
-79.003332
 10
129.35506
 20
-78.003332
  0
LWPOLYLINE
  5
1CF
330
15
100
AcDbEntity
  8
IMP_EC_PLATE-EDGE_CUTS_GBR
  6
BYLAYER
370
   211
 62
   256
100
AcDbPolyline
 90
     2
 70
     0
 43
0.2
 10
128.35506
 20
-91.003332
 10
128.35506
 20
-79.003332
  0
LWPOLYLINE
  5
1D0
330
15
100
AcDbEntity
  8
IMP_EC_PLATE-EDGE_CUTS_GBR
  6
BYLAYER
370
   211
 62
   256
100
AcDbPolyline
 90
     2
 70
     0
 43
0.2
 10
129.35506
 20
-92.003332
 10
128.35506
 20
-91.003332
  0
LWPOLYLINE
  5
1D1
330
15
100
AcDbEntity
  8
IMP_EC_PLATE-EDGE_CUTS_GBR
  6
BYLAYER
370
   211
 62
   256
100
AcDbPolyline
 90
     2
 70
     0
 43
0.2
 10
141.95506
 20
-92.003332
 10
129.35506
 20
-92.003332
  0
LWPOLYLINE
  5
1D2
330
15
100
AcDbEntity
  8
IMP_EC_PLATE-EDGE_CUTS_GBR
  6
BYLAYER
370
   211
 62
   256
100
AcDbPolyline
 90
     2
 70
     0
 43
0.2
 10
142.95506
 20
-91.003332
 10
141.95506
 20
-92.003332
  0
LWPOLYLINE
  5
1D3
330
15
100
AcDbEntity
  8
IMP_EC_PLATE-EDGE_CUTS_GBR
  6
BYLAYER
370
   211
 62
   256
100
AcDbPolyline
 90
     2
 70
     0
 43
0.2
 10
142.95506
 20
-79.003332
 10
142.95506
 20
-91.003332
  0
LWPOLYLINE
  5
1D4
330
15
100
AcDbEntity
  8
IMP_EC_PLATE-EDGE_CUTS_GBR
  6
BYLAYER
370
   211
 62
   256
100
AcDbPolyline
 90
     2
 70
     0
 43
0.2
 10
141.95506
 20
-78.003332
 10
142.95506
 20
-79.003332
  0
LWPOLYLINE
  5
1D5
330
15
100
AcDbEntity
  8
IMP_EC_PLATE-EDGE_CUTS_GBR
  6
BYLAYER
370
   211
 62
   256
100
AcDbPolyline
 90
     2
 70
     0
 43
0.2
 10
129.35506
 20
-78.003332
 10
141.95506
 20
-78.003332
  0
LWPOLYLINE
  5
1D6
330
15
100
AcDbEntity
  8
IMP_EC_PLATE-EDGE_CUTS_GBR
  6
BYLAYER
370
   211
 62
   256
100
AcDbPolyline
 90
     2
 70
     0
 43
0.2
 10
109.33506
 20
-79.003332
 10
110.33506
 20
-78.003332
  0
LWPOLYLINE
  5
1D7
330
15
100
AcDbEntity
  8
IMP_EC_PLATE-EDGE_CUTS_GBR
  6
BYLAYER
370
   211
 62
   256
100
AcDbPolyline
 90
     2
 70
     0
 43
0.2
 10
109.33506
 20
-91.003332
 10
109.33506
 20
-79.003332
  0
LWPOLYLINE
  5
1D8
330
15
100
AcDbEntity
  8
IMP_EC_PLATE-EDGE_CUTS_GBR
  6
BYLAYER
370
   211
 62
   256
100
AcDbPolyline
 90
     2
 70
     0
 43
0.2
 10
110.33506
 20
-92.003332
 10
109.33506
 20
-91.003332
  0
LWPOLYLINE
  5
1D9
330
15
100
AcDbEntity
  8
IMP_EC_PLATE-EDGE_CUTS_GBR
  6
BYLAYER
370
   211
 62
   256
100
AcDbPolyline
 90
     2
 70
     0
 43
0.2
 10
122.93506
 20
-92.003332
 10
110.33506
 20
-92.003332
  0
LWPOLYLINE
  5
1DA
330
15
100
AcDbEntity
  8
IMP_EC_PLATE-EDGE_CUTS_GBR
  6
BYLAYER
370
   211
 62
   256
100
AcDbPolyline
 90
     2
 70
     0
 43
0.2
 10
123.93506
 20
-91.003332
 10
122.93506
 20
-92.003332
  0
LWPOLYLINE
  5
1DB
330
15
100
AcDbEntity
  8
IMP_EC_PLATE-EDGE_CUTS_GBR
  6
BYLAYER
370
   211
 62
   256
100
AcDbPolyline
 90
     2
 70
     0
 43
0.2
 10
123.93506
 20
-79.003332
 10
123.93506
 20
-91.003332
  0
LWPOLYLINE
  5
1DC
330
15
100
AcDbEntity
  8
IMP_EC_PLATE-EDGE_CUTS_GBR
  6
BYLAYER
370
   211
 62
   256
100
AcDbPolyline
 90
     2
 70
     0
 43
0.2
 10
122.93506
 20
-78.003332
 10
123.93506
 20
-79.003332
  0
LWPOLYLINE
  5
1DD
330
15
100
AcDbEntity
  8
IMP_EC_PLATE-EDGE_CUTS_GBR
  6
BYLAYER
370
   211
 62
   256
100
AcDbPolyline
 90
     2
 70
     0
 43
0.2
 10
110.33506
 20
-78.003332
 10
122.93506
 20
-78.003332
  0
LWPOLYLINE
  5
1DE
330
15
100
AcDbEntity
  8
IMP_EC_PLATE-EDGE_CUTS_GBR
  6
BYLAYER
370
   211
 62
   256
100
AcDbPolyline
 90
     2
 70
     0
 43
0.2
 10
90.31506
 20
-79.003332
 10
91.31506
 20
-78.003332
  0
LWPOLYLINE
  5
1DF
330
15
100
AcDbEntity
  8
IMP_EC_PLATE-EDGE_CUTS_GBR
  6
BYLAYER
370
   211
 62
   256
100
AcDbPolyline
 90
     2
 70
     0
 43
0.2
 10
90.31506
 20
-91.003332
 10
90.31506
 20
-79.003332
  0
LWPOLYLINE
  5
1E0
330
15
100
AcDbEntity
  8
IMP_EC_PLATE-EDGE_CUTS_GBR
  6
BYLAYER
370
   211
 62
   256
100
AcDbPolyline
 90
     2
 70
     0
 43
0.2
 10
91.31506
 20
-92.003332
 10
90.31506
 20
-91.003332
  0
LWPOLYLINE
  5
1E1
330
15
100
AcDbEntity
  8
IMP_EC_PLATE-EDGE_CUTS_GBR
  6
BYLAYER
370
   211
 62
   256
100
AcDbPolyline
 90
     2
 70
     0
 43
0.2
 10
103.91506
 20
-92.003332
 10
91.31506
 20
-92.003332
  0
LWPOLYLINE
  5
1E2
330
15
100
AcDbEntity
  8
IMP_EC_PLATE-EDGE_CUTS_GBR
  6
BYLAYER
370
   211
 62
   256
100
AcDbPolyline
 90
     2
 70
     0
 43
0.2
 10
104.91506
 20
-91.003332
 10
103.91506
 20
-92.003332
  0
LWPOLYLINE
  5
1E3
330
15
100
AcDbEntity
  8
IMP_EC_PLATE-EDGE_CUTS_GBR
  6
BYLAYER
370
   211
 62
   256
100
AcDbPolyline
 90
     2
 70
     0
 43
0.2
 10
104.91506
 20
-79.003332
 10
104.91506
 20
-91.003332
  0
LWPOLYLINE
  5
1E4
330
15
100
AcDbEntity
  8
IMP_EC_PLATE-EDGE_CUTS_GBR
  6
BYLAYER
370
   211
 62
   256
100
AcDbPolyline
 90
     2
 70
     0
 43
0.2
 10
103.91506
 20
-78.003332
 10
104.91506
 20
-79.003332
  0
LWPOLYLINE
  5
1E5
330
15
100
AcDbEntity
  8
IMP_EC_PLATE-EDGE_CUTS_GBR
  6
BYLAYER
370
   211
 62
   256
100
AcDbPolyline
 90
     2
 70
     0
 43
0.2
 10
91.31506
 20
-78.003332
 10
103.91506
 20
-78.003332
  0
LWPOLYLINE
  5
1E6
330
15
100
AcDbEntity
  8
IMP_EC_PLATE-EDGE_CUTS_GBR
  6
BYLAYER
370
   211
 62
   256
100
AcDbPolyline
 90
     2
 70
     0
 43
0.2
 10
71.29506
 20
-79.003332
 10
72.29506
 20
-78.003332
  0
LWPOLYLINE
  5
1E7
330
15
100
AcDbEntity
  8
IMP_EC_PLATE-EDGE_CUTS_GBR
  6
BYLAYER
370
   211
 62
   256
100
AcDbPolyline
 90
     2
 70
     0
 43
0.2
 10
71.29506
 20
-91.003332
 10
71.29506
 20
-79.003332
  0
LWPOLYLINE
  5
1E8
330
15
100
AcDbEntity
  8
IMP_EC_PLATE-EDGE_CUTS_GBR
  6
BYLAYER
370
   211
 62
   256
100
AcDbPolyline
 90
     2
 70
     0
 43
0.2
 10
72.29506
 20
-92.003332
 10
71.29506
 20
-91.003332
  0
LWPOLYLINE
  5
1E9
330
15
100
AcDbEntity
  8
IMP_EC_PLATE-EDGE_CUTS_GBR
  6
BYLAYER
370
   211
 62
   256
100
AcDbPolyline
 90
     2
 70
     0
 43
0.2
 10
84.89506
 20
-92.003332
 10
72.29506
 20
-92.003332
  0
LWPOLYLINE
  5
1EA
330
15
100
AcDbEntity
  8
IMP_EC_PLATE-EDGE_CUTS_GBR
  6
BYLAYER
370
   211
 62
   256
100
AcDbPolyline
 90
     2
 70
     0
 43
0.2
 10
85.89506
 20
-91.003332
 10
84.89506
 20
-92.003332
  0
LWPOLYLINE
  5
1EB
330
15
100
AcDbEntity
  8
IMP_EC_PLATE-EDGE_CUTS_GBR
  6
BYLAYER
370
   211
 62
   256
100
AcDbPolyline
 90
     2
 70
     0
 43
0.2
 10
85.89506
 20
-79.003332
 10
85.89506
 20
-91.003332
  0
LWPOLYLINE
  5
1EC
330
15
100
AcDbEntity
  8
IMP_EC_PLATE-EDGE_CUTS_GBR
  6
BYLAYER
370
   211
 62
   256
100
AcDbPolyline
 90
     2
 70
     0
 43
0.2
 10
84.89506
 20
-78.003332
 10
85.89506
 20
-79.003332
  0
LWPOLYLINE
  5
1ED
330
15
100
AcDbEntity
  8
IMP_EC_PLATE-EDGE_CUTS_GBR
  6
BYLAYER
370
   211
 62
   256
100
AcDbPolyline
 90
     2
 70
     0
 43
0.2
 10
72.29506
 20
-78.003332
 10
84.89506
 20
-78.003332
  0
LWPOLYLINE
  5
1EE
330
15
100
AcDbEntity
  8
IMP_EC_PLATE-EDGE_CUTS_GBR
  6
BYLAYER
370
   211
 62
   256
100
AcDbPolyline
 90
     2
 70
     0
 43
0.2
 10
99.618596
 20
-178.173332
 10
100.618596
 20
-177.173332
  0
LWPOLYLINE
  5
1EF
330
15
100
AcDbEntity
  8
IMP_EC_PLATE-EDGE_CUTS_GBR
  6
BYLAYER
370
   211
 62
   256
100
AcDbPolyline
 90
     2
 70
     0
 43
0.2
 10
99.618596
 20
-190.173332
 10
99.618596
 20
-178.173332
  0
LWPOLYLINE
  5
1F0
330
15
100
AcDbEntity
  8
IMP_EC_PLATE-EDGE_CUTS_GBR
  6
BYLAYER
370
   211
 62
   256
100
AcDbPolyline
 90
     2
 70
     0
 43
0.2
 10
100.618596
 20
-191.173332
 10
99.618596
 20
-190.173332
  0
LWPOLYLINE
  5
1F1
330
15
100
AcDbEntity
  8
IMP_EC_PLATE-EDGE_CUTS_GBR
  6
BYLAYER
370
   211
 62
   256
100
AcDbPolyline
 90
     2
 70
     0
 43
0.2
 10
113.218596
 20
-191.173332
 10
100.618596
 20
-191.173332
  0
LWPOLYLINE
  5
1F2
330
15
100
AcDbEntity
  8
IMP_EC_PLATE-EDGE_CUTS_GBR
  6
BYLAYER
370
   211
 62
   256
100
AcDbPolyline
 90
     2
 70
     0
 43
0.2
 10
114.218596
 20
-190.173332
 10
113.218596
 20
-191.173332
  0
LWPOLYLINE
  5
1F3
330
15
100
AcDbEntity
  8
IMP_EC_PLATE-EDGE_CUTS_GBR
  6
BYLAYER
370
   211
 62
   256
100
AcDbPolyline
 90
     2
 70
     0
 43
0.2
 10
114.218596
 20
-178.173332
 10
114.218596
 20
-190.173332
  0
LWPOLYLINE
  5
1F4
330
15
100
AcDbEntity
  8
IMP_EC_PLATE-EDGE_CUTS_GBR
  6
BYLAYER
370
   211
 62
   256
100
AcDbPolyline
 90
     2
 70
     0
 43
0.2
 10
113.218596
 20
-177.173332
 10
114.218596
 20
-178.173332
  0
LWPOLYLINE
  5
1F5
330
15
100
AcDbEntity
  8
IMP_EC_PLATE-EDGE_CUTS_GBR
  6
BYLAYER
370
   211
 62
   256
100
AcDbPolyline
 90
     2
 70
     0
 43
0.2
 10
100.618596
 20
-177.173332
 10
113.218596
 20
-177.173332
  0
LWPOLYLINE
  5
1F6
330
15
100
AcDbEntity
  8
IMP_EC_PLATE-EDGE_CUTS_GBR
  6
BYLAYER
370
   211
 62
   256
100
AcDbPolyline
 90
     2
 70
     0
 43
0.2
 10
76.031008
 20
-178.173332
 10
77.031008
 20
-177.173332
  0
LWPOLYLINE
  5
1F7
330
15
100
AcDbEntity
  8
IMP_EC_PLATE-EDGE_CUTS_GBR
  6
BYLAYER
370
   211
 62
   256
100
AcDbPolyline
 90
     2
 70
     0
 43
0.2
 10
76.031008
 20
-190.173332
 10
76.031008
 20
-178.173332
  0
LWPOLYLINE
  5
1F8
330
15
100
AcDbEntity
  8
IMP_EC_PLATE-EDGE_CUTS_GBR
  6
BYLAYER
370
   211
 62
   256
100
AcDbPolyline
 90
     2
 70
     0
 43
0.2
 10
77.031008
 20
-191.173332
 10
76.031008
 20
-190.173332
  0
LWPOLYLINE
  5
1F9
330
15
100
AcDbEntity
  8
IMP_EC_PLATE-EDGE_CUTS_GBR
  6
BYLAYER
370
   211
 62
   256
100
AcDbPolyline
 90
     2
 70
     0
 43
0.2
 10
89.631008
 20
-191.173332
 10
77.031008
 20
-191.173332
  0
LWPOLYLINE
  5
1FA
330
15
100
AcDbEntity
  8
IMP_EC_PLATE-EDGE_CUTS_GBR
  6
BYLAYER
370
   211
 62
   256
100
AcDbPolyline
 90
     2
 70
     0
 43
0.2
 10
90.631008
 20
-190.173332
 10
89.631008
 20
-191.173332
  0
LWPOLYLINE
  5
1FB
330
15
100
AcDbEntity
  8
IMP_EC_PLATE-EDGE_CUTS_GBR
  6
BYLAYER
370
   211
 62
   256
100
AcDbPolyline
 90
     2
 70
     0
 43
0.2
 10
90.631008
 20
-178.173332
 10
90.631008
 20
-190.173332
  0
LWPOLYLINE
  5
1FC
330
15
100
AcDbEntity
  8
IMP_EC_PLATE-EDGE_CUTS_GBR
  6
BYLAYER
370
   211
 62
   256
100
AcDbPolyline
 90
     2
 70
     0
 43
0.2
 10
89.631008
 20
-177.173332
 10
90.631008
 20
-178.173332
  0
LWPOLYLINE
  5
1FD
330
15
100
AcDbEntity
  8
IMP_EC_PLATE-EDGE_CUTS_GBR
  6
BYLAYER
370
   211
 62
   256
100
AcDbPolyline
 90
     2
 70
     0
 43
0.2
 10
77.031008
 20
-177.173332
 10
89.631008
 20
-177.173332
  0
LWPOLYLINE
  5
1FE
330
15
100
AcDbEntity
  8
IMP_EC_PLATE-EDGE_CUTS_GBR
  6
BYLAYER
370
   211
 62
   256
100
AcDbPolyline
 90
     2
 70
     0
 43
0.2
 10
52.286592
 20
-177.873332
 10
53.286592
 20
-176.873332
  0
LWPOLYLINE
  5
1FF
330
15
100
AcDbEntity
  8
IMP_EC_PLATE-EDGE_CUTS_GBR
  6
BYLAYER
370
   211
 62
   256
100
AcDbPolyline
 90
     2
 70
     0
 43
0.2
 10
53.286592
 20
-191.473332
 10
52.286592
 20
-190.473332
  0
LWPOLYLINE
  5
200
330
15
100
AcDbEntity
  8
IMP_EC_PLATE-EDGE_CUTS_GBR
  6
BYLAYER
370
   211
 62
   256
100
AcDbPolyline
 90
     2
 70
     0
 43
0.2
 10
65.886592
 20
-191.473332
 10
53.286592
 20
-191.473332
  0
LWPOLYLINE
  5
201
330
15
100
AcDbEntity
  8
IMP_EC_PLATE-EDGE_CUTS_GBR
  6
BYLAYER
370
   211
 62
   256
100
AcDbPolyline
 90
     2
 70
     0
 43
0.2
 10
66.886592
 20
-190.473332
 10
65.886592
 20
-191.473332
  0
LWPOLYLINE
  5
202
330
15
100
AcDbEntity
  8
IMP_EC_PLATE-EDGE_CUTS_GBR
  6
BYLAYER
370
   211
 62
   256
100
AcDbPolyline
 90
     2
 70
     0
 43
0.2
 10
65.886592
 20
-176.873332
 10
66.886592
 20
-177.873332
  0
LWPOLYLINE
  5
203
330
15
100
AcDbEntity
  8
IMP_EC_PLATE-EDGE_CUTS_GBR
  6
BYLAYER
370
   211
 62
   256
100
AcDbPolyline
 90
     2
 70
     0
 43
0.2
 10
53.286592
 20
-176.873332
 10
65.886592
 20
-176.873332
  0
LWPOLYLINE
  5
204
330
15
100
AcDbEntity
  8
IMP_EC_PLATE-EDGE_CUTS_GBR
  6
BYLAYER
370
   211
 62
   256
100
AcDbPolyline
 90
     2
 70
     0
 43
0.2
 10
204.39506
 20
-159.163332
 10
205.39506
 20
-158.163332
  0
LWPOLYLINE
  5
205
330
15
100
AcDbEntity
  8
IMP_EC_PLATE-EDGE_CUTS_GBR
  6
BYLAYER
370
   211
 62
   256
100
AcDbPolyline
 90
     2
 70
     0
 43
0.2
 10
204.39506
 20
-171.163332
 10
204.39506
 20
-159.163332
  0
LWPOLYLINE
  5
206
330
15
100
AcDbEntity
  8
IMP_EC_PLATE-EDGE_CUTS_GBR
  6
BYLAYER
370
   211
 62
   256
100
AcDbPolyline
 90
     2
 70
     0
 43
0.2
 10
205.39506
 20
-172.163332
 10
204.39506
 20
-171.163332
  0
LWPOLYLINE
  5
207
330
15
100
AcDbEntity
  8
IMP_EC_PLATE-EDGE_CUTS_GBR
  6
BYLAYER
370
   211
 62
   256
100
AcDbPolyline
 90
     2
 70
     0
 43
0.2
 10
217.99506
 20
-172.163332
 10
205.39506
 20
-172.163332
  0
LWPOLYLINE
  5
208
330
15
100
AcDbEntity
  8
IMP_EC_PLATE-EDGE_CUTS_GBR
  6
BYLAYER
370
   211
 62
   256
100
AcDbPolyline
 90
     2
 70
     0
 43
0.2
 10
218.99506
 20
-171.163332
 10
217.99506
 20
-172.163332
  0
LWPOLYLINE
  5
209
330
15
100
AcDbEntity
  8
IMP_EC_PLATE-EDGE_CUTS_GBR
  6
BYLAYER
370
   211
 62
   256
100
AcDbPolyline
 90
     2
 70
     0
 43
0.2
 10
218.99506
 20
-159.163332
 10
218.99506
 20
-171.163332
  0
LWPOLYLINE
  5
20A
330
15
100
AcDbEntity
  8
IMP_EC_PLATE-EDGE_CUTS_GBR
  6
BYLAYER
370
   211
 62
   256
100
AcDbPolyline
 90
     2
 70
     0
 43
0.2
 10
217.99506
 20
-158.163332
 10
218.99506
 20
-159.163332
  0
LWPOLYLINE
  5
20B
330
15
100
AcDbEntity
  8
IMP_EC_PLATE-EDGE_CUTS_GBR
  6
BYLAYER
370
   211
 62
   256
100
AcDbPolyline
 90
     2
 70
     0
 43
0.2
 10
205.39506
 20
-158.163332
 10
217.99506
 20
-158.163332
  0
LWPOLYLINE
  5
20C
330
15
100
AcDbEntity
  8
IMP_EC_PLATE-EDGE_CUTS_GBR
  6
BYLAYER
370
   211
 62
   256
100
AcDbPolyline
 90
     2
 70
     0
 43
0.2
 10
185.39506
 20
-159.163332
 10
186.39506
 20
-158.163332
  0
LWPOLYLINE
  5
20D
330
15
100
AcDbEntity
  8
IMP_EC_PLATE-EDGE_CUTS_GBR
  6
BYLAYER
370
   211
 62
   256
100
AcDbPolyline
 90
     2
 70
     0
 43
0.2
 10
185.39506
 20
-171.163332
 10
185.39506
 20
-159.163332
  0
LWPOLYLINE
  5
20E
330
15
100
AcDbEntity
  8
IMP_EC_PLATE-EDGE_CUTS_GBR
  6
BYLAYER
370
   211
 62
   256
100
AcDbPolyline
 90
     2
 70
     0
 43
0.2
 10
186.39506
 20
-172.163332
 10
185.39506
 20
-171.163332
  0
LWPOLYLINE
  5
20F
330
15
100
AcDbEntity
  8
IMP_EC_PLATE-EDGE_CUTS_GBR
  6
BYLAYER
370
   211
 62
   256
100
AcDbPolyline
 90
     2
 70
     0
 43
0.2
 10
198.99506
 20
-172.163332
 10
186.39506
 20
-172.163332
  0
LWPOLYLINE
  5
210
330
15
100
AcDbEntity
  8
IMP_EC_PLATE-EDGE_CUTS_GBR
  6
BYLAYER
370
   211
 62
   256
100
AcDbPolyline
 90
     2
 70
     0
 43
0.2
 10
199.99506
 20
-171.163332
 10
198.99506
 20
-172.163332
  0
LWPOLYLINE
  5
211
330
15
100
AcDbEntity
  8
IMP_EC_PLATE-EDGE_CUTS_GBR
  6
BYLAYER
370
   211
 62
   256
100
AcDbPolyline
 90
     2
 70
     0
 43
0.2
 10
199.99506
 20
-159.163332
 10
199.99506
 20
-171.163332
  0
LWPOLYLINE
  5
212
330
15
100
AcDbEntity
  8
IMP_EC_PLATE-EDGE_CUTS_GBR
  6
BYLAYER
370
   211
 62
   256
100
AcDbPolyline
 90
     2
 70
     0
 43
0.2
 10
198.99506
 20
-158.163332
 10
199.99506
 20
-159.163332
  0
LWPOLYLINE
  5
213
330
15
100
AcDbEntity
  8
IMP_EC_PLATE-EDGE_CUTS_GBR
  6
BYLAYER
370
   211
 62
   256
100
AcDbPolyline
 90
     2
 70
     0
 43
0.2
 10
186.39506
 20
-158.163332
 10
198.99506
 20
-158.163332
  0
LWPOLYLINE
  5
214
330
15
100
AcDbEntity
  8
IMP_EC_PLATE-EDGE_CUTS_GBR
  6
BYLAYER
370
   211
 62
   256
100
AcDbPolyline
 90
     2
 70
     0
 43
0.2
 10
166.39506
 20
-159.163332
 10
167.39506
 20
-158.163332
  0
LWPOLYLINE
  5
215
330
15
100
AcDbEntity
  8
IMP_EC_PLATE-EDGE_CUTS_GBR
  6
BYLAYER
370
   211
 62
   256
100
AcDbPolyline
 90
     2
 70
     0
 43
0.2
 10
166.39506
 20
-171.163332
 10
166.39506
 20
-159.163332
  0
LWPOLYLINE
  5
216
330
15
100
AcDbEntity
  8
IMP_EC_PLATE-EDGE_CUTS_GBR
  6
BYLAYER
370
   211
 62
   256
100
AcDbPolyline
 90
     2
 70
     0
 43
0.2
 10
167.39506
 20
-172.163332
 10
166.39506
 20
-171.163332
  0
LWPOLYLINE
  5
217
330
15
100
AcDbEntity
  8
IMP_EC_PLATE-EDGE_CUTS_GBR
  6
BYLAYER
370
   211
 62
   256
100
AcDbPolyline
 90
     2
 70
     0
 43
0.2
 10
179.99506
 20
-172.163332
 10
167.39506
 20
-172.163332
  0
LWPOLYLINE
  5
218
330
15
100
AcDbEntity
  8
IMP_EC_PLATE-EDGE_CUTS_GBR
  6
BYLAYER
370
   211
 62
   256
100
AcDbPolyline
 90
     2
 70
     0
 43
0.2
 10
180.99506
 20
-171.163332
 10
179.99506
 20
-172.163332
  0
LWPOLYLINE
  5
219
330
15
100
AcDbEntity
  8
IMP_EC_PLATE-EDGE_CUTS_GBR
  6
BYLAYER
370
   211
 62
   256
100
AcDbPolyline
 90
     2
 70
     0
 43
0.2
 10
180.99506
 20
-159.163332
 10
180.99506
 20
-171.163332
  0
LWPOLYLINE
  5
21A
330
15
100
AcDbEntity
  8
IMP_EC_PLATE-EDGE_CUTS_GBR
  6
BYLAYER
370
   211
 62
   256
100
AcDbPolyline
 90
     2
 70
     0
 43
0.2
 10
179.99506
 20
-158.163332
 10
180.99506
 20
-159.163332
  0
LWPOLYLINE
  5
21B
330
15
100
AcDbEntity
  8
IMP_EC_PLATE-EDGE_CUTS_GBR
  6
BYLAYER
370
   211
 62
   256
100
AcDbPolyline
 90
     2
 70
     0
 43
0.2
 10
167.39506
 20
-158.163332
 10
179.99506
 20
-158.163332
  0
LWPOLYLINE
  5
21C
330
15
100
AcDbEntity
  8
IMP_EC_PLATE-EDGE_CUTS_GBR
  6
BYLAYER
370
   211
 62
   256
100
AcDbPolyline
 90
     2
 70
     0
 43
0.2
 10
147.39506
 20
-159.163332
 10
148.39506
 20
-158.163332
  0
LWPOLYLINE
  5
21D
330
15
100
AcDbEntity
  8
IMP_EC_PLATE-EDGE_CUTS_GBR
  6
BYLAYER
370
   211
 62
   256
100
AcDbPolyline
 90
     2
 70
     0
 43
0.2
 10
147.39506
 20
-171.163332
 10
147.39506
 20
-159.163332
  0
LWPOLYLINE
  5
21E
330
15
100
AcDbEntity
  8
IMP_EC_PLATE-EDGE_CUTS_GBR
  6
BYLAYER
370
   211
 62
   256
100
AcDbPolyline
 90
     2
 70
     0
 43
0.2
 10
148.39506
 20
-172.163332
 10
147.39506
 20
-171.163332
  0
LWPOLYLINE
  5
21F
330
15
100
AcDbEntity
  8
IMP_EC_PLATE-EDGE_CUTS_GBR
  6
BYLAYER
370
   211
 62
   256
100
AcDbPolyline
 90
     2
 70
     0
 43
0.2
 10
160.99506
 20
-172.163332
 10
148.39506
 20
-172.163332
  0
LWPOLYLINE
  5
220
330
15
100
AcDbEntity
  8
IMP_EC_PLATE-EDGE_CUTS_GBR
  6
BYLAYER
370
   211
 62
   256
100
AcDbPolyline
 90
     2
 70
     0
 43
0.2
 10
161.99506
 20
-171.163332
 10
160.99506
 20
-172.163332
  0
LWPOLYLINE
  5
221
330
15
100
AcDbEntity
  8
IMP_EC_PLATE-EDGE_CUTS_GBR
  6
BYLAYER
370
   211
 62
   256
100
AcDbPolyline
 90
     2
 70
     0
 43
0.2
 10
161.99506
 20
-159.163332
 10
161.99506
 20
-171.163332
  0
LWPOLYLINE
  5
222
330
15
100
AcDbEntity
  8
IMP_EC_PLATE-EDGE_CUTS_GBR
  6
BYLAYER
370
   211
 62
   256
100
AcDbPolyline
 90
     2
 70
     0
 43
0.2
 10
160.99506
 20
-158.163332
 10
161.99506
 20
-159.163332
  0
LWPOLYLINE
  5
223
330
15
100
AcDbEntity
  8
IMP_EC_PLATE-EDGE_CUTS_GBR
  6
BYLAYER
370
   211
 62
   256
100
AcDbPolyline
 90
     2
 70
     0
 43
0.2
 10
148.39506
 20
-158.163332
 10
160.99506
 20
-158.163332
  0
LWPOLYLINE
  5
224
330
15
100
AcDbEntity
  8
IMP_EC_PLATE-EDGE_CUTS_GBR
  6
BYLAYER
370
   211
 62
   256
100
AcDbPolyline
 90
     2
 70
     0
 43
0.2
 10
128.39506
 20
-159.163332
 10
129.39506
 20
-158.163332
  0
LWPOLYLINE
  5
225
330
15
100
AcDbEntity
  8
IMP_EC_PLATE-EDGE_CUTS_GBR
  6
BYLAYER
370
   211
 62
   256
100
AcDbPolyline
 90
     2
 70
     0
 43
0.2
 10
128.39506
 20
-171.163332
 10
128.39506
 20
-159.163332
  0
LWPOLYLINE
  5
226
330
15
100
AcDbEntity
  8
IMP_EC_PLATE-EDGE_CUTS_GBR
  6
BYLAYER
370
   211
 62
   256
100
AcDbPolyline
 90
     2
 70
     0
 43
0.2
 10
129.39506
 20
-172.163332
 10
128.39506
 20
-171.163332
  0
LWPOLYLINE
  5
227
330
15
100
AcDbEntity
  8
IMP_EC_PLATE-EDGE_CUTS_GBR
  6
BYLAYER
370
   211
 62
   256
100
AcDbPolyline
 90
     2
 70
     0
 43
0.2
 10
141.99506
 20
-172.163332
 10
129.39506
 20
-172.163332
  0
LWPOLYLINE
  5
228
330
15
100
AcDbEntity
  8
IMP_EC_PLATE-EDGE_CUTS_GBR
  6
BYLAYER
370
   211
 62
   256
100
AcDbPolyline
 90
     2
 70
     0
 43
0.2
 10
142.99506
 20
-171.163332
 10
141.99506
 20
-172.163332
  0
LWPOLYLINE
  5
229
330
15
100
AcDbEntity
  8
IMP_EC_PLATE-EDGE_CUTS_GBR
  6
BYLAYER
370
   211
 62
   256
100
AcDbPolyline
 90
     2
 70
     0
 43
0.2
 10
142.99506
 20
-159.163332
 10
142.99506
 20
-171.163332
  0
LWPOLYLINE
  5
22A
330
15
100
AcDbEntity
  8
IMP_EC_PLATE-EDGE_CUTS_GBR
  6
BYLAYER
370
   211
 62
   256
100
AcDbPolyline
 90
     2
 70
     0
 43
0.2
 10
141.99506
 20
-158.163332
 10
142.99506
 20
-159.163332
  0
LWPOLYLINE
  5
22B
330
15
100
AcDbEntity
  8
IMP_EC_PLATE-EDGE_CUTS_GBR
  6
BYLAYER
370
   211
 62
   256
100
AcDbPolyline
 90
     2
 70
     0
 43
0.2
 10
129.39506
 20
-158.163332
 10
141.99506
 20
-158.163332
  0
LWPOLYLINE
  5
22C
330
15
100
AcDbEntity
  8
IMP_EC_PLATE-EDGE_CUTS_GBR
  6
BYLAYER
370
   211
 62
   256
100
AcDbPolyline
 90
     2
 70
     0
 43
0.2
 10
109.39506
 20
-159.163332
 10
110.39506
 20
-158.163332
  0
LWPOLYLINE
  5
22D
330
15
100
AcDbEntity
  8
IMP_EC_PLATE-EDGE_CUTS_GBR
  6
BYLAYER
370
   211
 62
   256
100
AcDbPolyline
 90
     2
 70
     0
 43
0.2
 10
109.39506
 20
-171.163332
 10
109.39506
 20
-159.163332
  0
LWPOLYLINE
  5
22E
330
15
100
AcDbEntity
  8
IMP_EC_PLATE-EDGE_CUTS_GBR
  6
BYLAYER
370
   211
 62
   256
100
AcDbPolyline
 90
     2
 70
     0
 43
0.2
 10
110.39506
 20
-172.163332
 10
109.39506
 20
-171.163332
  0
LWPOLYLINE
  5
22F
330
15
100
AcDbEntity
  8
IMP_EC_PLATE-EDGE_CUTS_GBR
  6
BYLAYER
370
   211
 62
   256
100
AcDbPolyline
 90
     2
 70
     0
 43
0.2
 10
122.99506
 20
-172.163332
 10
110.39506
 20
-172.163332
  0
LWPOLYLINE
  5
230
330
15
100
AcDbEntity
  8
IMP_EC_PLATE-EDGE_CUTS_GBR
  6
BYLAYER
370
   211
 62
   256
100
AcDbPolyline
 90
     2
 70
     0
 43
0.2
 10
123.99506
 20
-171.163332
 10
122.99506
 20
-172.163332
  0
LWPOLYLINE
  5
231
330
15
100
AcDbEntity
  8
IMP_EC_PLATE-EDGE_CUTS_GBR
  6
BYLAYER
370
   211
 62
   256
100
AcDbPolyline
 90
     2
 70
     0
 43
0.2
 10
123.99506
 20
-159.163332
 10
123.99506
 20
-171.163332
  0
LWPOLYLINE
  5
232
330
15
100
AcDbEntity
  8
IMP_EC_PLATE-EDGE_CUTS_GBR
  6
BYLAYER
370
   211
 62
   256
100
AcDbPolyline
 90
     2
 70
     0
 43
0.2
 10
122.99506
 20
-158.163332
 10
123.99506
 20
-159.163332
  0
LWPOLYLINE
  5
233
330
15
100
AcDbEntity
  8
IMP_EC_PLATE-EDGE_CUTS_GBR
  6
BYLAYER
370
   211
 62
   256
100
AcDbPolyline
 90
     2
 70
     0
 43
0.2
 10
110.39506
 20
-158.163332
 10
122.99506
 20
-158.163332
  0
LWPOLYLINE
  5
234
330
15
100
AcDbEntity
  8
IMP_EC_PLATE-EDGE_CUTS_GBR
  6
BYLAYER
370
   211
 62
   256
100
AcDbPolyline
 90
     2
 70
     0
 43
0.2
 10
90.39506
 20
-159.163332
 10
91.39506
 20
-158.163332
  0
LWPOLYLINE
  5
235
330
15
100
AcDbEntity
  8
IMP_EC_PLATE-EDGE_CUTS_GBR
  6
BYLAYER
370
   211
 62
   256
100
AcDbPolyline
 90
     2
 70
     0
 43
0.2
 10
90.39506
 20
-171.163332
 10
90.39506
 20
-159.163332
  0
LWPOLYLINE
  5
236
330
15
100
AcDbEntity
  8
IMP_EC_PLATE-EDGE_CUTS_GBR
  6
BYLAYER
370
   211
 62
   256
100
AcDbPolyline
 90
     2
 70
     0
 43
0.2
 10
91.39506
 20
-172.163332
 10
90.39506
 20
-171.163332
  0
LWPOLYLINE
  5
237
330
15
100
AcDbEntity
  8
IMP_EC_PLATE-EDGE_CUTS_GBR
  6
BYLAYER
370
   211
 62
   256
100
AcDbPolyline
 90
     2
 70
     0
 43
0.2
 10
103.99506
 20
-172.163332
 10
91.39506
 20
-172.163332
  0
LWPOLYLINE
  5
238
330
15
100
AcDbEntity
  8
IMP_EC_PLATE-EDGE_CUTS_GBR
  6
BYLAYER
370
   211
 62
   256
100
AcDbPolyline
 90
     2
 70
     0
 43
0.2
 10
104.99506
 20
-171.163332
 10
103.99506
 20
-172.163332
  0
LWPOLYLINE
  5
239
330
15
100
AcDbEntity
  8
IMP_EC_PLATE-EDGE_CUTS_GBR
  6
BYLAYER
370
   211
 62
   256
100
AcDbPolyline
 90
     2
 70
     0
 43
0.2
 10
104.99506
 20
-159.163332
 10
104.99506
 20
-171.163332
  0
LWPOLYLINE
  5
23A
330
15
100
AcDbEntity
  8
IMP_EC_PLATE-EDGE_CUTS_GBR
  6
BYLAYER
370
   211
 62
   256
100
AcDbPolyline
 90
     2
 70
     0
 43
0.2
 10
103.99506
 20
-158.163332
 10
104.99506
 20
-159.163332
  0
LWPOLYLINE
  5
23B
330
15
100
AcDbEntity
  8
IMP_EC_PLATE-EDGE_CUTS_GBR
  6
BYLAYER
370
   211
 62
   256
100
AcDbPolyline
 90
     2
 70
     0
 43
0.2
 10
91.39506
 20
-158.163332
 10
103.99506
 20
-158.163332
  0
LWPOLYLINE
  5
23C
330
15
100
AcDbEntity
  8
IMP_EC_PLATE-EDGE_CUTS_GBR
  6
BYLAYER
370
   211
 62
   256
100
AcDbPolyline
 90
     2
 70
     0
 43
0.2
 10
213.98506
 20
-140.143332
 10
214.98506
 20
-139.143332
  0
LWPOLYLINE
  5
23D
330
15
100
AcDbEntity
  8
IMP_EC_PLATE-EDGE_CUTS_GBR
  6
BYLAYER
370
   211
 62
   256
100
AcDbPolyline
 90
     2
 70
     0
 43
0.2
 10
213.98506
 20
-152.143332
 10
213.98506
 20
-140.143332
  0
LWPOLYLINE
  5
23E
330
15
100
AcDbEntity
  8
IMP_EC_PLATE-EDGE_CUTS_GBR
  6
BYLAYER
370
   211
 62
   256
100
AcDbPolyline
 90
     2
 70
     0
 43
0.2
 10
214.98506
 20
-153.143332
 10
213.98506
 20
-152.143332
  0
LWPOLYLINE
  5
23F
330
15
100
AcDbEntity
  8
IMP_EC_PLATE-EDGE_CUTS_GBR
  6
BYLAYER
370
   211
 62
   256
100
AcDbPolyline
 90
     2
 70
     0
 43
0.2
 10
227.58506
 20
-153.143332
 10
214.98506
 20
-153.143332
  0
LWPOLYLINE
  5
240
330
15
100
AcDbEntity
  8
IMP_EC_PLATE-EDGE_CUTS_GBR
  6
BYLAYER
370
   211
 62
   256
100
AcDbPolyline
 90
     2
 70
     0
 43
0.2
 10
228.58506
 20
-152.143332
 10
227.58506
 20
-153.143332
  0
LWPOLYLINE
  5
241
330
15
100
AcDbEntity
  8
IMP_EC_PLATE-EDGE_CUTS_GBR
  6
BYLAYER
370
   211
 62
   256
100
AcDbPolyline
 90
     2
 70
     0
 43
0.2
 10
228.58506
 20
-140.143332
 10
228.58506
 20
-152.143332
  0
LWPOLYLINE
  5
242
330
15
100
AcDbEntity
  8
IMP_EC_PLATE-EDGE_CUTS_GBR
  6
BYLAYER
370
   211
 62
   256
100
AcDbPolyline
 90
     2
 70
     0
 43
0.2
 10
227.58506
 20
-139.143332
 10
228.58506
 20
-140.143332
  0
LWPOLYLINE
  5
243
330
15
100
AcDbEntity
  8
IMP_EC_PLATE-EDGE_CUTS_GBR
  6
BYLAYER
370
   211
 62
   256
100
AcDbPolyline
 90
     2
 70
     0
 43
0.2
 10
214.98506
 20
-139.143332
 10
227.58506
 20
-139.143332
  0
LWPOLYLINE
  5
244
330
15
100
AcDbEntity
  8
IMP_EC_PLATE-EDGE_CUTS_GBR
  6
BYLAYER
370
   211
 62
   256
100
AcDbPolyline
 90
     2
 70
     0
 43
0.2
 10
194.96506
 20
-140.143332
 10
195.96506
 20
-139.143332
  0
LWPOLYLINE
  5
245
330
15
100
AcDbEntity
  8
IMP_EC_PLATE-EDGE_CUTS_GBR
  6
BYLAYER
370
   211
 62
   256
100
AcDbPolyline
 90
     2
 70
     0
 43
0.2
 10
194.96506
 20
-152.143332
 10
194.96506
 20
-140.143332
  0
LWPOLYLINE
  5
246
330
15
100
AcDbEntity
  8
IMP_EC_PLATE-EDGE_CUTS_GBR
  6
BYLAYER
370
   211
 62
   256
100
AcDbPolyline
 90
     2
 70
     0
 43
0.2
 10
195.96506
 20
-153.143332
 10
194.96506
 20
-152.143332
  0
LWPOLYLINE
  5
247
330
15
100
AcDbEntity
  8
IMP_EC_PLATE-EDGE_CUTS_GBR
  6
BYLAYER
370
   211
 62
   256
100
AcDbPolyline
 90
     2
 70
     0
 43
0.2
 10
208.56506
 20
-153.143332
 10
195.96506
 20
-153.143332
  0
LWPOLYLINE
  5
248
330
15
100
AcDbEntity
  8
IMP_EC_PLATE-EDGE_CUTS_GBR
  6
BYLAYER
370
   211
 62
   256
100
AcDbPolyline
 90
     2
 70
     0
 43
0.2
 10
209.56506
 20
-152.143332
 10
208.56506
 20
-153.143332
  0
LWPOLYLINE
  5
249
330
15
100
AcDbEntity
  8
IMP_EC_PLATE-EDGE_CUTS_GBR
  6
BYLAYER
370
   211
 62
   256
100
AcDbPolyline
 90
     2
 70
     0
 43
0.2
 10
209.56506
 20
-140.143332
 10
209.56506
 20
-152.143332
  0
LWPOLYLINE
  5
24A
330
15
100
AcDbEntity
  8
IMP_EC_PLATE-EDGE_CUTS_GBR
  6
BYLAYER
370
   211
 62
   256
100
AcDbPolyline
 90
     2
 70
     0
 43
0.2
 10
208.56506
 20
-139.143332
 10
209.56506
 20
-140.143332
  0
LWPOLYLINE
  5
24B
330
15
100
AcDbEntity
  8
IMP_EC_PLATE-EDGE_CUTS_GBR
  6
BYLAYER
370
   211
 62
   256
100
AcDbPolyline
 90
     2
 70
     0
 43
0.2
 10
195.96506
 20
-139.143332
 10
208.56506
 20
-139.143332
  0
LWPOLYLINE
  5
24C
330
15
100
AcDbEntity
  8
IMP_EC_PLATE-EDGE_CUTS_GBR
  6
BYLAYER
370
   211
 62
   256
100
AcDbPolyline
 90
     2
 70
     0
 43
0.2
 10
175.94506
 20
-140.143332
 10
176.94506
 20
-139.143332
  0
LWPOLYLINE
  5
24D
330
15
100
AcDbEntity
  8
IMP_EC_PLATE-EDGE_CUTS_GBR
  6
BYLAYER
370
   211
 62
   256
100
AcDbPolyline
 90
     2
 70
     0
 43
0.2
 10
175.94506
 20
-152.143332
 10
175.94506
 20
-140.143332
  0
LWPOLYLINE
  5
24E
330
15
100
AcDbEntity
  8
IMP_EC_PLATE-EDGE_CUTS_GBR
  6
BYLAYER
370
   211
 62
   256
100
AcDbPolyline
 90
     2
 70
     0
 43
0.2
 10
176.94506
 20
-153.143332
 10
175.94506
 20
-152.143332
  0
LWPOLYLINE
  5
24F
330
15
100
AcDbEntity
  8
IMP_EC_PLATE-EDGE_CUTS_GBR
  6
BYLAYER
370
   211
 62
   256
100
AcDbPolyline
 90
     2
 70
     0
 43
0.2
 10
189.54506
 20
-153.143332
 10
176.94506
 20
-153.143332
  0
LWPOLYLINE
  5
250
330
15
100
AcDbEntity
  8
IMP_EC_PLATE-EDGE_CUTS_GBR
  6
BYLAYER
370
   211
 62
   256
100
AcDbPolyline
 90
     2
 70
     0
 43
0.2
 10
190.54506
 20
-152.143332
 10
189.54506
 20
-153.143332
  0
LWPOLYLINE
  5
251
330
15
100
AcDbEntity
  8
IMP_EC_PLATE-EDGE_CUTS_GBR
  6
BYLAYER
370
   211
 62
   256
100
AcDbPolyline
 90
     2
 70
     0
 43
0.2
 10
190.54506
 20
-140.143332
 10
190.54506
 20
-152.143332
  0
LWPOLYLINE
  5
252
330
15
100
AcDbEntity
  8
IMP_EC_PLATE-EDGE_CUTS_GBR
  6
BYLAYER
370
   211
 62
   256
100
AcDbPolyline
 90
     2
 70
     0
 43
0.2
 10
189.54506
 20
-139.143332
 10
190.54506
 20
-140.143332
  0
LWPOLYLINE
  5
253
330
15
100
AcDbEntity
  8
IMP_EC_PLATE-EDGE_CUTS_GBR
  6
BYLAYER
370
   211
 62
   256
100
AcDbPolyline
 90
     2
 70
     0
 43
0.2
 10
176.94506
 20
-139.143332
 10
189.54506
 20
-139.143332
  0
LWPOLYLINE
  5
254
330
15
100
AcDbEntity
  8
IMP_EC_PLATE-EDGE_CUTS_GBR
  6
BYLAYER
370
   211
 62
   256
100
AcDbPolyline
 90
     2
 70
     0
 43
0.2
 10
156.94506
 20
-140.143332
 10
157.94506
 20
-139.143332
  0
LWPOLYLINE
  5
255
330
15
100
AcDbEntity
  8
IMP_EC_PLATE-EDGE_CUTS_GBR
  6
BYLAYER
370
   211
 62
   256
100
AcDbPolyline
 90
     2
 70
     0
 43
0.2
 10
156.94506
 20
-152.143332
 10
156.94506
 20
-140.143332
  0
LWPOLYLINE
  5
256
330
15
100
AcDbEntity
  8
IMP_EC_PLATE-EDGE_CUTS_GBR
  6
BYLAYER
370
   211
 62
   256
100
AcDbPolyline
 90
     2
 70
     0
 43
0.2
 10
157.94506
 20
-153.143332
 10
156.94506
 20
-152.143332
  0
LWPOLYLINE
  5
257
330
15
100
AcDbEntity
  8
IMP_EC_PLATE-EDGE_CUTS_GBR
  6
BYLAYER
370
   211
 62
   256
100
AcDbPolyline
 90
     2
 70
     0
 43
0.2
 10
170.54506
 20
-153.143332
 10
157.94506
 20
-153.143332
  0
LWPOLYLINE
  5
258
330
15
100
AcDbEntity
  8
IMP_EC_PLATE-EDGE_CUTS_GBR
  6
BYLAYER
370
   211
 62
   256
100
AcDbPolyline
 90
     2
 70
     0
 43
0.2
 10
171.54506
 20
-152.143332
 10
170.54506
 20
-153.143332
  0
LWPOLYLINE
  5
259
330
15
100
AcDbEntity
  8
IMP_EC_PLATE-EDGE_CUTS_GBR
  6
BYLAYER
370
   211
 62
   256
100
AcDbPolyline
 90
     2
 70
     0
 43
0.2
 10
171.54506
 20
-140.143332
 10
171.54506
 20
-152.143332
  0
LWPOLYLINE
  5
25A
330
15
100
AcDbEntity
  8
IMP_EC_PLATE-EDGE_CUTS_GBR
  6
BYLAYER
370
   211
 62
   256
100
AcDbPolyline
 90
     2
 70
     0
 43
0.2
 10
170.54506
 20
-139.143332
 10
171.54506
 20
-140.143332
  0
LWPOLYLINE
  5
25B
330
15
100
AcDbEntity
  8
IMP_EC_PLATE-EDGE_CUTS_GBR
  6
BYLAYER
370
   211
 62
   256
100
AcDbPolyline
 90
     2
 70
     0
 43
0.2
 10
157.94506
 20
-139.143332
 10
170.54506
 20
-139.143332
  0
LWPOLYLINE
  5
25C
330
15
100
AcDbEntity
  8
IMP_EC_PLATE-EDGE_CUTS_GBR
  6
BYLAYER
370
   211
 62
   256
100
AcDbPolyline
 90
     2
 70
     0
 43
0.2
 10
137.94506
 20
-140.143332
 10
138.94506
 20
-139.143332
  0
LWPOLYLINE
  5
25D
330
15
100
AcDbEntity
  8
IMP_EC_PLATE-EDGE_CUTS_GBR
  6
BYLAYER
370
   211
 62
   256
100
AcDbPolyline
 90
     2
 70
     0
 43
0.2
 10
137.94506
 20
-152.143332
 10
137.94506
 20
-140.143332
  0
LWPOLYLINE
  5
25E
330
15
100
AcDbEntity
  8
IMP_EC_PLATE-EDGE_CUTS_GBR
  6
BYLAYER
370
   211
 62
   256
100
AcDbPolyline
 90
     2
 70
     0
 43
0.2
 10
138.94506
 20
-153.143332
 10
137.94506
 20
-152.143332
  0
LWPOLYLINE
  5
25F
330
15
100
AcDbEntity
  8
IMP_EC_PLATE-EDGE_CUTS_GBR
  6
BYLAYER
370
   211
 62
   256
100
AcDbPolyline
 90
     2
 70
     0
 43
0.2
 10
151.54506
 20
-153.143332
 10
138.94506
 20
-153.143332
  0
LWPOLYLINE
  5
260
330
15
100
AcDbEntity
  8
IMP_EC_PLATE-EDGE_CUTS_GBR
  6
BYLAYER
370
   211
 62
   256
100
AcDbPolyline
 90
     2
 70
     0
 43
0.2
 10
152.54506
 20
-152.143332
 10
151.54506
 20
-153.143332
  0
LWPOLYLINE
  5
261
330
15
100
AcDbEntity
  8
IMP_EC_PLATE-EDGE_CUTS_GBR
  6
BYLAYER
370
   211
 62
   256
100
AcDbPolyline
 90
     2
 70
     0
 43
0.2
 10
152.54506
 20
-140.143332
 10
152.54506
 20
-152.143332
  0
LWPOLYLINE
  5
262
330
15
100
AcDbEntity
  8
IMP_EC_PLATE-EDGE_CUTS_GBR
  6
BYLAYER
370
   211
 62
   256
100
AcDbPolyline
 90
     2
 70
     0
 43
0.2
 10
151.54506
 20
-139.143332
 10
152.54506
 20
-140.143332
  0
LWPOLYLINE
  5
263
330
15
100
AcDbEntity
  8
IMP_EC_PLATE-EDGE_CUTS_GBR
  6
BYLAYER
370
   211
 62
   256
100
AcDbPolyline
 90
     2
 70
     0
 43
0.2
 10
138.94506
 20
-139.143332
 10
151.54506
 20
-139.143332
  0
LWPOLYLINE
  5
264
330
15
100
AcDbEntity
  8
IMP_EC_PLATE-EDGE_CUTS_GBR
  6
BYLAYER
370
   211
 62
   256
100
AcDbPolyline
 90
     2
 70
     0
 43
0.2
 10
118.94506
 20
-140.143332
 10
119.94506
 20
-139.143332
  0
LWPOLYLINE
  5
265
330
15
100
AcDbEntity
  8
IMP_EC_PLATE-EDGE_CUTS_GBR
  6
BYLAYER
370
   211
 62
   256
100
AcDbPolyline
 90
     2
 70
     0
 43
0.2
 10
118.94506
 20
-152.143332
 10
118.94506
 20
-140.143332
  0
LWPOLYLINE
  5
266
330
15
100
AcDbEntity
  8
IMP_EC_PLATE-EDGE_CUTS_GBR
  6
BYLAYER
370
   211
 62
   256
100
AcDbPolyline
 90
     2
 70
     0
 43
0.2
 10
119.94506
 20
-153.143332
 10
118.94506
 20
-152.143332
  0
LWPOLYLINE
  5
267
330
15
100
AcDbEntity
  8
IMP_EC_PLATE-EDGE_CUTS_GBR
  6
BYLAYER
370
   211
 62
   256
100
AcDbPolyline
 90
     2
 70
     0
 43
0.2
 10
132.54506
 20
-153.143332
 10
119.94506
 20
-153.143332
  0
LWPOLYLINE
  5
268
330
15
100
AcDbEntity
  8
IMP_EC_PLATE-EDGE_CUTS_GBR
  6
BYLAYER
370
   211
 62
   256
100
AcDbPolyline
 90
     2
 70
     0
 43
0.2
 10
133.54506
 20
-152.143332
 10
132.54506
 20
-153.143332
  0
LWPOLYLINE
  5
269
330
15
100
AcDbEntity
  8
IMP_EC_PLATE-EDGE_CUTS_GBR
  6
BYLAYER
370
   211
 62
   256
100
AcDbPolyline
 90
     2
 70
     0
 43
0.2
 10
133.54506
 20
-140.143332
 10
133.54506
 20
-152.143332
  0
LWPOLYLINE
  5
26A
330
15
100
AcDbEntity
  8
IMP_EC_PLATE-EDGE_CUTS_GBR
  6
BYLAYER
370
   211
 62
   256
100
AcDbPolyline
 90
     2
 70
     0
 43
0.2
 10
132.54506
 20
-139.143332
 10
133.54506
 20
-140.143332
  0
LWPOLYLINE
  5
26B
330
15
100
AcDbEntity
  8
IMP_EC_PLATE-EDGE_CUTS_GBR
  6
BYLAYER
370
   211
 62
   256
100
AcDbPolyline
 90
     2
 70
     0
 43
0.2
 10
119.94506
 20
-139.143332
 10
132.54506
 20
-139.143332
  0
LWPOLYLINE
  5
26C
330
15
100
AcDbEntity
  8
IMP_EC_PLATE-EDGE_CUTS_GBR
  6
BYLAYER
370
   211
 62
   256
100
AcDbPolyline
 90
     2
 70
     0
 43
0.2
 10
99.94506
 20
-140.143332
 10
100.94506
 20
-139.143332
  0
LWPOLYLINE
  5
26D
330
15
100
AcDbEntity
  8
IMP_EC_PLATE-EDGE_CUTS_GBR
  6
BYLAYER
370
   211
 62
   256
100
AcDbPolyline
 90
     2
 70
     0
 43
0.2
 10
99.94506
 20
-152.143332
 10
99.94506
 20
-140.143332
  0
LWPOLYLINE
  5
26E
330
15
100
AcDbEntity
  8
IMP_EC_PLATE-EDGE_CUTS_GBR
  6
BYLAYER
370
   211
 62
   256
100
AcDbPolyline
 90
     2
 70
     0
 43
0.2
 10
100.94506
 20
-153.143332
 10
99.94506
 20
-152.143332
  0
LWPOLYLINE
  5
26F
330
15
100
AcDbEntity
  8
IMP_EC_PLATE-EDGE_CUTS_GBR
  6
BYLAYER
370
   211
 62
   256
100
AcDbPolyline
 90
     2
 70
     0
 43
0.2
 10
113.54506
 20
-153.143332
 10
100.94506
 20
-153.143332
  0
LWPOLYLINE
  5
270
330
15
100
AcDbEntity
  8
IMP_EC_PLATE-EDGE_CUTS_GBR
  6
BYLAYER
370
   211
 62
   256
100
AcDbPolyline
 90
     2
 70
     0
 43
0.2
 10
114.54506
 20
-152.143332
 10
113.54506
 20
-153.143332
  0
LWPOLYLINE
  5
271
330
15
100
AcDbEntity
  8
IMP_EC_PLATE-EDGE_CUTS_GBR
  6
BYLAYER
370
   211
 62
   256
100
AcDbPolyline
 90
     2
 70
     0
 43
0.2
 10
114.54506
 20
-140.143332
 10
114.54506
 20
-152.143332
  0
LWPOLYLINE
  5
272
330
15
100
AcDbEntity
  8
IMP_EC_PLATE-EDGE_CUTS_GBR
  6
BYLAYER
370
   211
 62
   256
100
AcDbPolyline
 90
     2
 70
     0
 43
0.2
 10
113.54506
 20
-139.143332
 10
114.54506
 20
-140.143332
  0
LWPOLYLINE
  5
273
330
15
100
AcDbEntity
  8
IMP_EC_PLATE-EDGE_CUTS_GBR
  6
BYLAYER
370
   211
 62
   256
100
AcDbPolyline
 90
     2
 70
     0
 43
0.2
 10
100.94506
 20
-139.143332
 10
113.54506
 20
-139.143332
  0
LWPOLYLINE
  5
274
330
15
100
AcDbEntity
  8
IMP_EC_PLATE-EDGE_CUTS_GBR
  6
BYLAYER
370
   211
 62
   256
100
AcDbPolyline
 90
     2
 70
     0
 43
0.2
 10
80.94506
 20
-140.143332
 10
81.94506
 20
-139.143332
  0
LWPOLYLINE
  5
275
330
15
100
AcDbEntity
  8
IMP_EC_PLATE-EDGE_CUTS_GBR
  6
BYLAYER
370
   211
 62
   256
100
AcDbPolyline
 90
     2
 70
     0
 43
0.2
 10
80.94506
 20
-152.143332
 10
80.94506
 20
-140.143332
  0
LWPOLYLINE
  5
276
330
15
100
AcDbEntity
  8
IMP_EC_PLATE-EDGE_CUTS_GBR
  6
BYLAYER
370
   211
 62
   256
100
AcDbPolyline
 90
     2
 70
     0
 43
0.2
 10
81.94506
 20
-153.143332
 10
80.94506
 20
-152.143332
  0
LWPOLYLINE
  5
277
330
15
100
AcDbEntity
  8
IMP_EC_PLATE-EDGE_CUTS_GBR
  6
BYLAYER
370
   211
 62
   256
100
AcDbPolyline
 90
     2
 70
     0
 43
0.2
 10
94.54506
 20
-153.143332
 10
81.94506
 20
-153.143332
  0
LWPOLYLINE
  5
278
330
15
100
AcDbEntity
  8
IMP_EC_PLATE-EDGE_CUTS_GBR
  6
BYLAYER
370
   211
 62
   256
100
AcDbPolyline
 90
     2
 70
     0
 43
0.2
 10
95.54506
 20
-152.143332
 10
94.54506
 20
-153.143332
  0
LWPOLYLINE
  5
279
330
15
100
AcDbEntity
  8
IMP_EC_PLATE-EDGE_CUTS_GBR
  6
BYLAYER
370
   211
 62
   256
100
AcDbPolyline
 90
     2
 70
     0
 43
0.2
 10
95.54506
 20
-140.143332
 10
95.54506
 20
-152.143332
  0
LWPOLYLINE
  5
27A
330
15
100
AcDbEntity
  8
IMP_EC_PLATE-EDGE_CUTS_GBR
  6
BYLAYER
370
   211
 62
   256
100
AcDbPolyline
 90
     2
 70
     0
 43
0.2
 10
94.54506
 20
-139.143332
 10
95.54506
 20
-140.143332
  0
LWPOLYLINE
  5
27B
330
15
100
AcDbEntity
  8
IMP_EC_PLATE-EDGE_CUTS_GBR
  6
BYLAYER
370
   211
 62
   256
100
AcDbPolyline
 90
     2
 70
     0
 43
0.2
 10
81.94506
 20
-139.143332
 10
94.54506
 20
-139.143332
  0
LWPOLYLINE
  5
27C
330
15
100
AcDbEntity
  8
IMP_EC_PLATE-EDGE_CUTS_GBR
  6
BYLAYER
370
   211
 62
   256
100
AcDbPolyline
 90
     2
 70
     0
 43
0.2
 10
209.19506
 20
-121.123332
 10
210.19506
 20
-120.123332
  0
LWPOLYLINE
  5
27D
330
15
100
AcDbEntity
  8
IMP_EC_PLATE-EDGE_CUTS_GBR
  6
BYLAYER
370
   211
 62
   256
100
AcDbPolyline
 90
     2
 70
     0
 43
0.2
 10
209.19506
 20
-133.123332
 10
209.19506
 20
-121.123332
  0
LWPOLYLINE
  5
27E
330
15
100
AcDbEntity
  8
IMP_EC_PLATE-EDGE_CUTS_GBR
  6
BYLAYER
370
   211
 62
   256
100
AcDbPolyline
 90
     2
 70
     0
 43
0.2
 10
210.19506
 20
-134.123332
 10
209.19506
 20
-133.123332
  0
LWPOLYLINE
  5
27F
330
15
100
AcDbEntity
  8
IMP_EC_PLATE-EDGE_CUTS_GBR
  6
BYLAYER
370
   211
 62
   256
100
AcDbPolyline
 90
     2
 70
     0
 43
0.2
 10
222.79506
 20
-134.123332
 10
210.19506
 20
-134.123332
  0
LWPOLYLINE
  5
280
330
15
100
AcDbEntity
  8
IMP_EC_PLATE-EDGE_CUTS_GBR
  6
BYLAYER
370
   211
 62
   256
100
AcDbPolyline
 90
     2
 70
     0
 43
0.2
 10
223.79506
 20
-133.123332
 10
222.79506
 20
-134.123332
  0
LWPOLYLINE
  5
281
330
15
100
AcDbEntity
  8
IMP_EC_PLATE-EDGE_CUTS_GBR
  6
BYLAYER
370
   211
 62
   256
100
AcDbPolyline
 90
     2
 70
     0
 43
0.2
 10
223.79506
 20
-121.123332
 10
223.79506
 20
-133.123332
  0
LWPOLYLINE
  5
282
330
15
100
AcDbEntity
  8
IMP_EC_PLATE-EDGE_CUTS_GBR
  6
BYLAYER
370
   211
 62
   256
100
AcDbPolyline
 90
     2
 70
     0
 43
0.2
 10
222.79506
 20
-120.123332
 10
223.79506
 20
-121.123332
  0
LWPOLYLINE
  5
283
330
15
100
AcDbEntity
  8
IMP_EC_PLATE-EDGE_CUTS_GBR
  6
BYLAYER
370
   211
 62
   256
100
AcDbPolyline
 90
     2
 70
     0
 43
0.2
 10
210.19506
 20
-120.123332
 10
222.79506
 20
-120.123332
  0
LWPOLYLINE
  5
284
330
15
100
AcDbEntity
  8
IMP_EC_PLATE-EDGE_CUTS_GBR
  6
BYLAYER
370
   211
 62
   256
100
AcDbPolyline
 90
     2
 70
     0
 43
0.2
 10
190.17506
 20
-121.123332
 10
191.17506
 20
-120.123332
  0
LWPOLYLINE
  5
285
330
15
100
AcDbEntity
  8
IMP_EC_PLATE-EDGE_CUTS_GBR
  6
BYLAYER
370
   211
 62
   256
100
AcDbPolyline
 90
     2
 70
     0
 43
0.2
 10
190.17506
 20
-133.123332
 10
190.17506
 20
-121.123332
  0
LWPOLYLINE
  5
286
330
15
100
AcDbEntity
  8
IMP_EC_PLATE-EDGE_CUTS_GBR
  6
BYLAYER
370
   211
 62
   256
100
AcDbPolyline
 90
     2
 70
     0
 43
0.2
 10
191.17506
 20
-134.123332
 10
190.17506
 20
-133.123332
  0
LWPOLYLINE
  5
287
330
15
100
AcDbEntity
  8
IMP_EC_PLATE-EDGE_CUTS_GBR
  6
BYLAYER
370
   211
 62
   256
100
AcDbPolyline
 90
     2
 70
     0
 43
0.2
 10
203.77506
 20
-134.123332
 10
191.17506
 20
-134.123332
  0
LWPOLYLINE
  5
288
330
15
100
AcDbEntity
  8
IMP_EC_PLATE-EDGE_CUTS_GBR
  6
BYLAYER
370
   211
 62
   256
100
AcDbPolyline
 90
     2
 70
     0
 43
0.2
 10
204.77506
 20
-133.123332
 10
203.77506
 20
-134.123332
  0
LWPOLYLINE
  5
289
330
15
100
AcDbEntity
  8
IMP_EC_PLATE-EDGE_CUTS_GBR
  6
BYLAYER
370
   211
 62
   256
100
AcDbPolyline
 90
     2
 70
     0
 43
0.2
 10
204.77506
 20
-121.123332
 10
204.77506
 20
-133.123332
  0
LWPOLYLINE
  5
28A
330
15
100
AcDbEntity
  8
IMP_EC_PLATE-EDGE_CUTS_GBR
  6
BYLAYER
370
   211
 62
   256
100
AcDbPolyline
 90
     2
 70
     0
 43
0.2
 10
203.77506
 20
-120.123332
 10
204.77506
 20
-121.123332
  0
LWPOLYLINE
  5
28B
330
15
100
AcDbEntity
  8
IMP_EC_PLATE-EDGE_CUTS_GBR
  6
BYLAYER
370
   211
 62
   256
100
AcDbPolyline
 90
     2
 70
     0
 43
0.2
 10
191.17506
 20
-120.123332
 10
203.77506
 20
-120.123332
  0
LWPOLYLINE
  5
28C
330
15
100
AcDbEntity
  8
IMP_EC_PLATE-EDGE_CUTS_GBR
  6
BYLAYER
370
   211
 62
   256
100
AcDbPolyline
 90
     2
 70
     0
 43
0.2
 10
171.15506
 20
-121.123332
 10
172.15506
 20
-120.123332
  0
LWPOLYLINE
  5
28D
330
15
100
AcDbEntity
  8
IMP_EC_PLATE-EDGE_CUTS_GBR
  6
BYLAYER
370
   211
 62
   256
100
AcDbPolyline
 90
     2
 70
     0
 43
0.2
 10
171.15506
 20
-133.123332
 10
171.15506
 20
-121.123332
  0
LWPOLYLINE
  5
28E
330
15
100
AcDbEntity
  8
IMP_EC_PLATE-EDGE_CUTS_GBR
  6
BYLAYER
370
   211
 62
   256
100
AcDbPolyline
 90
     2
 70
     0
 43
0.2
 10
172.15506
 20
-134.123332
 10
171.15506
 20
-133.123332
  0
LWPOLYLINE
  5
28F
330
15
100
AcDbEntity
  8
IMP_EC_PLATE-EDGE_CUTS_GBR
  6
BYLAYER
370
   211
 62
   256
100
AcDbPolyline
 90
     2
 70
     0
 43
0.2
 10
184.75506
 20
-134.123332
 10
172.15506
 20
-134.123332
  0
LWPOLYLINE
  5
290
330
15
100
AcDbEntity
  8
IMP_EC_PLATE-EDGE_CUTS_GBR
  6
BYLAYER
370
   211
 62
   256
100
AcDbPolyline
 90
     2
 70
     0
 43
0.2
 10
185.75506
 20
-133.123332
 10
184.75506
 20
-134.123332
  0
LWPOLYLINE
  5
291
330
15
100
AcDbEntity
  8
IMP_EC_PLATE-EDGE_CUTS_GBR
  6
BYLAYER
370
   211
 62
   256
100
AcDbPolyline
 90
     2
 70
     0
 43
0.2
 10
185.75506
 20
-121.123332
 10
185.75506
 20
-133.123332
  0
LWPOLYLINE
  5
292
330
15
100
AcDbEntity
  8
IMP_EC_PLATE-EDGE_CUTS_GBR
  6
BYLAYER
370
   211
 62
   256
100
AcDbPolyline
 90
     2
 70
     0
 43
0.2
 10
184.75506
 20
-120.123332
 10
185.75506
 20
-121.123332
  0
LWPOLYLINE
  5
293
330
15
100
AcDbEntity
  8
IMP_EC_PLATE-EDGE_CUTS_GBR
  6
BYLAYER
370
   211
 62
   256
100
AcDbPolyline
 90
     2
 70
     0
 43
0.2
 10
172.15506
 20
-120.123332
 10
184.75506
 20
-120.123332
  0
LWPOLYLINE
  5
294
330
15
100
AcDbEntity
  8
IMP_EC_PLATE-EDGE_CUTS_GBR
  6
BYLAYER
370
   211
 62
   256
100
AcDbPolyline
 90
     2
 70
     0
 43
0.2
 10
152.13506
 20
-121.123332
 10
153.13506
 20
-120.123332
  0
LWPOLYLINE
  5
295
330
15
100
AcDbEntity
  8
IMP_EC_PLATE-EDGE_CUTS_GBR
  6
BYLAYER
370
   211
 62
   256
100
AcDbPolyline
 90
     2
 70
     0
 43
0.2
 10
152.13506
 20
-133.123332
 10
152.13506
 20
-121.123332
  0
LWPOLYLINE
  5
296
330
15
100
AcDbEntity
  8
IMP_EC_PLATE-EDGE_CUTS_GBR
  6
BYLAYER
370
   211
 62
   256
100
AcDbPolyline
 90
     2
 70
     0
 43
0.2
 10
153.13506
 20
-134.123332
 10
152.13506
 20
-133.123332
  0
LWPOLYLINE
  5
297
330
15
100
AcDbEntity
  8
IMP_EC_PLATE-EDGE_CUTS_GBR
  6
BYLAYER
370
   211
 62
   256
100
AcDbPolyline
 90
     2
 70
     0
 43
0.2
 10
165.73506
 20
-134.123332
 10
153.13506
 20
-134.123332
  0
LWPOLYLINE
  5
298
330
15
100
AcDbEntity
  8
IMP_EC_PLATE-EDGE_CUTS_GBR
  6
BYLAYER
370
   211
 62
   256
100
AcDbPolyline
 90
     2
 70
     0
 43
0.2
 10
166.73506
 20
-133.123332
 10
165.73506
 20
-134.123332
  0
LWPOLYLINE
  5
299
330
15
100
AcDbEntity
  8
IMP_EC_PLATE-EDGE_CUTS_GBR
  6
BYLAYER
370
   211
 62
   256
100
AcDbPolyline
 90
     2
 70
     0
 43
0.2
 10
166.73506
 20
-121.123332
 10
166.73506
 20
-133.123332
  0
LWPOLYLINE
  5
29A
330
15
100
AcDbEntity
  8
IMP_EC_PLATE-EDGE_CUTS_GBR
  6
BYLAYER
370
   211
 62
   256
100
AcDbPolyline
 90
     2
 70
     0
 43
0.2
 10
165.73506
 20
-120.123332
 10
166.73506
 20
-121.123332
  0
LWPOLYLINE
  5
29B
330
15
100
AcDbEntity
  8
IMP_EC_PLATE-EDGE_CUTS_GBR
  6
BYLAYER
370
   211
 62
   256
100
AcDbPolyline
 90
     2
 70
     0
 43
0.2
 10
153.13506
 20
-120.123332
 10
165.73506
 20
-120.123332
  0
LWPOLYLINE
  5
29C
330
15
100
AcDbEntity
  8
IMP_EC_PLATE-EDGE_CUTS_GBR
  6
BYLAYER
370
   211
 62
   256
100
AcDbPolyline
 90
     2
 70
     0
 43
0.2
 10
133.11506
 20
-121.123332
 10
134.11506
 20
-120.123332
  0
LWPOLYLINE
  5
29D
330
15
100
AcDbEntity
  8
IMP_EC_PLATE-EDGE_CUTS_GBR
  6
BYLAYER
370
   211
 62
   256
100
AcDbPolyline
 90
     2
 70
     0
 43
0.2
 10
133.11506
 20
-133.123332
 10
133.11506
 20
-121.123332
  0
LWPOLYLINE
  5
29E
330
15
100
AcDbEntity
  8
IMP_EC_PLATE-EDGE_CUTS_GBR
  6
BYLAYER
370
   211
 62
   256
100
AcDbPolyline
 90
     2
 70
     0
 43
0.2
 10
134.11506
 20
-134.123332
 10
133.11506
 20
-133.123332
  0
LWPOLYLINE
  5
29F
330
15
100
AcDbEntity
  8
IMP_EC_PLATE-EDGE_CUTS_GBR
  6
BYLAYER
370
   211
 62
   256
100
AcDbPolyline
 90
     2
 70
     0
 43
0.2
 10
146.71506
 20
-134.123332
 10
134.11506
 20
-134.123332
  0
LWPOLYLINE
  5
2A0
330
15
100
AcDbEntity
  8
IMP_EC_PLATE-EDGE_CUTS_GBR
  6
BYLAYER
370
   211
 62
   256
100
AcDbPolyline
 90
     2
 70
     0
 43
0.2
 10
147.71506
 20
-133.123332
 10
146.71506
 20
-134.123332
  0
LWPOLYLINE
  5
2A1
330
15
100
AcDbEntity
  8
IMP_EC_PLATE-EDGE_CUTS_GBR
  6
BYLAYER
370
   211
 62
   256
100
AcDbPolyline
 90
     2
 70
     0
 43
0.2
 10
147.71506
 20
-121.123332
 10
147.71506
 20
-133.123332
  0
LWPOLYLINE
  5
2A2
330
15
100
AcDbEntity
  8
IMP_EC_PLATE-EDGE_CUTS_GBR
  6
BYLAYER
370
   211
 62
   256
100
AcDbPolyline
 90
     2
 70
     0
 43
0.2
 10
146.71506
 20
-120.123332
 10
147.71506
 20
-121.123332
  0
LWPOLYLINE
  5
2A3
330
15
100
AcDbEntity
  8
IMP_EC_PLATE-EDGE_CUTS_GBR
  6
BYLAYER
370
   211
 62
   256
100
AcDbPolyline
 90
     2
 70
     0
 43
0.2
 10
134.11506
 20
-120.123332
 10
146.71506
 20
-120.123332
  0
LWPOLYLINE
  5
2A4
330
15
100
AcDbEntity
  8
IMP_EC_PLATE-EDGE_CUTS_GBR
  6
BYLAYER
370
   211
 62
   256
100
AcDbPolyline
 90
     2
 70
     0
 43
0.2
 10
114.09506
 20
-121.123332
 10
115.09506
 20
-120.123332
  0
LWPOLYLINE
  5
2A5
330
15
100
AcDbEntity
  8
IMP_EC_PLATE-EDGE_CUTS_GBR
  6
BYLAYER
370
   211
 62
   256
100
AcDbPolyline
 90
     2
 70
     0
 43
0.2
 10
114.09506
 20
-133.123332
 10
114.09506
 20
-121.123332
  0
LWPOLYLINE
  5
2A6
330
15
100
AcDbEntity
  8
IMP_EC_PLATE-EDGE_CUTS_GBR
  6
BYLAYER
370
   211
 62
   256
100
AcDbPolyline
 90
     2
 70
     0
 43
0.2
 10
115.09506
 20
-134.123332
 10
114.09506
 20
-133.123332
  0
LWPOLYLINE
  5
2A7
330
15
100
AcDbEntity
  8
IMP_EC_PLATE-EDGE_CUTS_GBR
  6
BYLAYER
370
   211
 62
   256
100
AcDbPolyline
 90
     2
 70
     0
 43
0.2
 10
127.69506
 20
-134.123332
 10
115.09506
 20
-134.123332
  0
LWPOLYLINE
  5
2A8
330
15
100
AcDbEntity
  8
IMP_EC_PLATE-EDGE_CUTS_GBR
  6
BYLAYER
370
   211
 62
   256
100
AcDbPolyline
 90
     2
 70
     0
 43
0.2
 10
128.69506
 20
-133.123332
 10
127.69506
 20
-134.123332
  0
LWPOLYLINE
  5
2A9
330
15
100
AcDbEntity
  8
IMP_EC_PLATE-EDGE_CUTS_GBR
  6
BYLAYER
370
   211
 62
   256
100
AcDbPolyline
 90
     2
 70
     0
 43
0.2
 10
128.69506
 20
-121.123332
 10
128.69506
 20
-133.123332
  0
LWPOLYLINE
  5
2AA
330
15
100
AcDbEntity
  8
IMP_EC_PLATE-EDGE_CUTS_GBR
  6
BYLAYER
370
   211
 62
   256
100
AcDbPolyline
 90
     2
 70
     0
 43
0.2
 10
127.69506
 20
-120.123332
 10
128.69506
 20
-121.123332
  0
LWPOLYLINE
  5
2AB
330
15
100
AcDbEntity
  8
IMP_EC_PLATE-EDGE_CUTS_GBR
  6
BYLAYER
370
   211
 62
   256
100
AcDbPolyline
 90
     2
 70
     0
 43
0.2
 10
115.09506
 20
-120.123332
 10
127.69506
 20
-120.123332
  0
LWPOLYLINE
  5
2AC
330
15
100
AcDbEntity
  8
IMP_EC_PLATE-EDGE_CUTS_GBR
  6
BYLAYER
370
   211
 62
   256
100
AcDbPolyline
 90
     2
 70
     0
 43
0.2
 10
95.07506
 20
-121.123332
 10
96.07506
 20
-120.123332
  0
LWPOLYLINE
  5
2AD
330
15
100
AcDbEntity
  8
IMP_EC_PLATE-EDGE_CUTS_GBR
  6
BYLAYER
370
   211
 62
   256
100
AcDbPolyline
 90
     2
 70
     0
 43
0.2
 10
95.07506
 20
-133.123332
 10
95.07506
 20
-121.123332
  0
LWPOLYLINE
  5
2AE
330
15
100
AcDbEntity
  8
IMP_EC_PLATE-EDGE_CUTS_GBR
  6
BYLAYER
370
   211
 62
   256
100
AcDbPolyline
 90
     2
 70
     0
 43
0.2
 10
96.07506
 20
-134.123332
 10
95.07506
 20
-133.123332
  0
LWPOLYLINE
  5
2AF
330
15
100
AcDbEntity
  8
IMP_EC_PLATE-EDGE_CUTS_GBR
  6
BYLAYER
370
   211
 62
   256
100
AcDbPolyline
 90
     2
 70
     0
 43
0.2
 10
108.67506
 20
-134.123332
 10
96.07506
 20
-134.123332
  0
LWPOLYLINE
  5
2B0
330
15
100
AcDbEntity
  8
IMP_EC_PLATE-EDGE_CUTS_GBR
  6
BYLAYER
370
   211
 62
   256
100
AcDbPolyline
 90
     2
 70
     0
 43
0.2
 10
109.67506
 20
-133.123332
 10
108.67506
 20
-134.123332
  0
LWPOLYLINE
  5
2B1
330
15
100
AcDbEntity
  8
IMP_EC_PLATE-EDGE_CUTS_GBR
  6
BYLAYER
370
   211
 62
   256
100
AcDbPolyline
 90
     2
 70
     0
 43
0.2
 10
109.67506
 20
-121.123332
 10
109.67506
 20
-133.123332
  0
LWPOLYLINE
  5
2B2
330
15
100
AcDbEntity
  8
IMP_EC_PLATE-EDGE_CUTS_GBR
  6
BYLAYER
370
   211
 62
   256
100
AcDbPolyline
 90
     2
 70
     0
 43
0.2
 10
108.67506
 20
-120.123332
 10
109.67506
 20
-121.123332
  0
LWPOLYLINE
  5
2B3
330
15
100
AcDbEntity
  8
IMP_EC_PLATE-EDGE_CUTS_GBR
  6
BYLAYER
370
   211
 62
   256
100
AcDbPolyline
 90
     2
 70
     0
 43
0.2
 10
96.07506
 20
-120.123332
 10
108.67506
 20
-120.123332
  0
LWPOLYLINE
  5
2B4
330
15
100
AcDbEntity
  8
IMP_EC_PLATE-EDGE_CUTS_GBR
  6
BYLAYER
370
   211
 62
   256
100
AcDbPolyline
 90
     2
 70
     0
 43
0.2
 10
76.05506
 20
-121.123332
 10
77.05506
 20
-120.123332
  0
LWPOLYLINE
  5
2B5
330
15
100
AcDbEntity
  8
IMP_EC_PLATE-EDGE_CUTS_GBR
  6
BYLAYER
370
   211
 62
   256
100
AcDbPolyline
 90
     2
 70
     0
 43
0.2
 10
76.05506
 20
-133.123332
 10
76.05506
 20
-121.123332
  0
LWPOLYLINE
  5
2B6
330
15
100
AcDbEntity
  8
IMP_EC_PLATE-EDGE_CUTS_GBR
  6
BYLAYER
370
   211
 62
   256
100
AcDbPolyline
 90
     2
 70
     0
 43
0.2
 10
77.05506
 20
-134.123332
 10
76.05506
 20
-133.123332
  0
LWPOLYLINE
  5
2B7
330
15
100
AcDbEntity
  8
IMP_EC_PLATE-EDGE_CUTS_GBR
  6
BYLAYER
370
   211
 62
   256
100
AcDbPolyline
 90
     2
 70
     0
 43
0.2
 10
89.65506
 20
-134.123332
 10
77.05506
 20
-134.123332
  0
LWPOLYLINE
  5
2B8
330
15
100
AcDbEntity
  8
IMP_EC_PLATE-EDGE_CUTS_GBR
  6
BYLAYER
370
   211
 62
   256
100
AcDbPolyline
 90
     2
 70
     0
 43
0.2
 10
90.65506
 20
-133.123332
 10
89.65506
 20
-134.123332
  0
LWPOLYLINE
  5
2B9
330
15
100
AcDbEntity
  8
IMP_EC_PLATE-EDGE_CUTS_GBR
  6
BYLAYER
370
   211
 62
   256
100
AcDbPolyline
 90
     2
 70
     0
 43
0.2
 10
90.65506
 20
-121.123332
 10
90.65506
 20
-133.123332
  0
LWPOLYLINE
  5
2BA
330
15
100
AcDbEntity
  8
IMP_EC_PLATE-EDGE_CUTS_GBR
  6
BYLAYER
370
   211
 62
   256
100
AcDbPolyline
 90
     2
 70
     0
 43
0.2
 10
89.65506
 20
-120.123332
 10
90.65506
 20
-121.123332
  0
LWPOLYLINE
  5
2BB
330
15
100
AcDbEntity
  8
IMP_EC_PLATE-EDGE_CUTS_GBR
  6
BYLAYER
370
   211
 62
   256
100
AcDbPolyline
 90
     2
 70
     0
 43
0.2
 10
77.05506
 20
-120.123332
 10
89.65506
 20
-120.123332
  0
LWPOLYLINE
  5
2BC
330
15
100
AcDbEntity
  8
IMP_EC_PLATE-EDGE_CUTS_GBR
  6
BYLAYER
370
   211
 62
   256
100
AcDbPolyline
 90
     2
 70
     0
 43
0.2
 10
52.30506
 20
-121.123332
 10
53.30506
 20
-120.123332
  0
LWPOLYLINE
  5
2BD
330
15
100
AcDbEntity
  8
IMP_EC_PLATE-EDGE_CUTS_GBR
  6
BYLAYER
370
   211
 62
   256
100
AcDbPolyline
 90
     2
 70
     0
 43
0.2
 10
52.30506
 20
-133.123332
 10
52.30506
 20
-121.123332
  0
LWPOLYLINE
  5
2BE
330
15
100
AcDbEntity
  8
IMP_EC_PLATE-EDGE_CUTS_GBR
  6
BYLAYER
370
   211
 62
   256
100
AcDbPolyline
 90
     2
 70
     0
 43
0.2
 10
53.30506
 20
-134.123332
 10
52.30506
 20
-133.123332
  0
LWPOLYLINE
  5
2BF
330
15
100
AcDbEntity
  8
IMP_EC_PLATE-EDGE_CUTS_GBR
  6
BYLAYER
370
   211
 62
   256
100
AcDbPolyline
 90
     2
 70
     0
 43
0.2
 10
65.90506
 20
-134.123332
 10
53.30506
 20
-134.123332
  0
LWPOLYLINE
  5
2C0
330
15
100
AcDbEntity
  8
IMP_EC_PLATE-EDGE_CUTS_GBR
  6
BYLAYER
370
   211
 62
   256
100
AcDbPolyline
 90
     2
 70
     0
 43
0.2
 10
66.90506
 20
-133.123332
 10
65.90506
 20
-134.123332
  0
LWPOLYLINE
  5
2C1
330
15
100
AcDbEntity
  8
IMP_EC_PLATE-EDGE_CUTS_GBR
  6
BYLAYER
370
   211
 62
   256
100
AcDbPolyline
 90
     2
 70
     0
 43
0.2
 10
66.90506
 20
-121.123332
 10
66.90506
 20
-133.123332
  0
LWPOLYLINE
  5
2C2
330
15
100
AcDbEntity
  8
IMP_EC_PLATE-EDGE_CUTS_GBR
  6
BYLAYER
370
   211
 62
   256
100
AcDbPolyline
 90
     2
 70
     0
 43
0.2
 10
65.90506
 20
-120.123332
 10
66.90506
 20
-121.123332
  0
LWPOLYLINE
  5
2C3
330
15
100
AcDbEntity
  8
IMP_EC_PLATE-EDGE_CUTS_GBR
  6
BYLAYER
370
   211
 62
   256
100
AcDbPolyline
 90
     2
 70
     0
 43
0.2
 10
53.30506
 20
-120.123332
 10
65.90506
 20
-120.123332
  0
LWPOLYLINE
  5
2C4
330
15
100
AcDbEntity
  8
IMP_EC_PLATE-EDGE_CUTS_GBR
  6
BYLAYER
370
   211
 62
   256
100
AcDbPolyline
 90
     2
 70
     0
 43
0.2
 10
199.73506
 20
-102.103332
 10
200.73506
 20
-101.103332
  0
LWPOLYLINE
  5
2C5
330
15
100
AcDbEntity
  8
IMP_EC_PLATE-EDGE_CUTS_GBR
  6
BYLAYER
370
   211
 62
   256
100
AcDbPolyline
 90
     2
 70
     0
 43
0.2
 10
199.73506
 20
-114.103332
 10
199.73506
 20
-102.103332
  0
LWPOLYLINE
  5
2C6
330
15
100
AcDbEntity
  8
IMP_EC_PLATE-EDGE_CUTS_GBR
  6
BYLAYER
370
   211
 62
   256
100
AcDbPolyline
 90
     2
 70
     0
 43
0.2
 10
200.73506
 20
-115.103332
 10
199.73506
 20
-114.103332
  0
LWPOLYLINE
  5
2C7
330
15
100
AcDbEntity
  8
IMP_EC_PLATE-EDGE_CUTS_GBR
  6
BYLAYER
370
   211
 62
   256
100
AcDbPolyline
 90
     2
 70
     0
 43
0.2
 10
213.33506
 20
-115.103332
 10
200.73506
 20
-115.103332
  0
LWPOLYLINE
  5
2C8
330
15
100
AcDbEntity
  8
IMP_EC_PLATE-EDGE_CUTS_GBR
  6
BYLAYER
370
   211
 62
   256
100
AcDbPolyline
 90
     2
 70
     0
 43
0.2
 10
214.33506
 20
-114.103332
 10
213.33506
 20
-115.103332
  0
LWPOLYLINE
  5
2C9
330
15
100
AcDbEntity
  8
IMP_EC_PLATE-EDGE_CUTS_GBR
  6
BYLAYER
370
   211
 62
   256
100
AcDbPolyline
 90
     2
 70
     0
 43
0.2
 10
214.33506
 20
-102.103332
 10
214.33506
 20
-114.103332
  0
LWPOLYLINE
  5
2CA
330
15
100
AcDbEntity
  8
IMP_EC_PLATE-EDGE_CUTS_GBR
  6
BYLAYER
370
   211
 62
   256
100
AcDbPolyline
 90
     2
 70
     0
 43
0.2
 10
213.33506
 20
-101.103332
 10
214.33506
 20
-102.103332
  0
LWPOLYLINE
  5
2CB
330
15
100
AcDbEntity
  8
IMP_EC_PLATE-EDGE_CUTS_GBR
  6
BYLAYER
370
   211
 62
   256
100
AcDbPolyline
 90
     2
 70
     0
 43
0.2
 10
200.73506
 20
-101.103332
 10
213.33506
 20
-101.103332
  0
LWPOLYLINE
  5
2CC
330
15
100
AcDbEntity
  8
IMP_EC_PLATE-EDGE_CUTS_GBR
  6
BYLAYER
370
   211
 62
   256
100
AcDbPolyline
 90
     2
 70
     0
 43
0.2
 10
180.71506
 20
-102.103332
 10
181.71506
 20
-101.103332
  0
LWPOLYLINE
  5
2CD
330
15
100
AcDbEntity
  8
IMP_EC_PLATE-EDGE_CUTS_GBR
  6
BYLAYER
370
   211
 62
   256
100
AcDbPolyline
 90
     2
 70
     0
 43
0.2
 10
180.71506
 20
-114.103332
 10
180.71506
 20
-102.103332
  0
LWPOLYLINE
  5
2CE
330
15
100
AcDbEntity
  8
IMP_EC_PLATE-EDGE_CUTS_GBR
  6
BYLAYER
370
   211
 62
   256
100
AcDbPolyline
 90
     2
 70
     0
 43
0.2
 10
181.71506
 20
-115.103332
 10
180.71506
 20
-114.103332
  0
LWPOLYLINE
  5
2CF
330
15
100
AcDbEntity
  8
IMP_EC_PLATE-EDGE_CUTS_GBR
  6
BYLAYER
370
   211
 62
   256
100
AcDbPolyline
 90
     2
 70
     0
 43
0.2
 10
194.31506
 20
-115.103332
 10
181.71506
 20
-115.103332
  0
LWPOLYLINE
  5
2D0
330
15
100
AcDbEntity
  8
IMP_EC_PLATE-EDGE_CUTS_GBR
  6
BYLAYER
370
   211
 62
   256
100
AcDbPolyline
 90
     2
 70
     0
 43
0.2
 10
195.31506
 20
-114.103332
 10
194.31506
 20
-115.103332
  0
LWPOLYLINE
  5
2D1
330
15
100
AcDbEntity
  8
IMP_EC_PLATE-EDGE_CUTS_GBR
  6
BYLAYER
370
   211
 62
   256
100
AcDbPolyline
 90
     2
 70
     0
 43
0.2
 10
195.31506
 20
-102.103332
 10
195.31506
 20
-114.103332
  0
LWPOLYLINE
  5
2D2
330
15
100
AcDbEntity
  8
IMP_EC_PLATE-EDGE_CUTS_GBR
  6
BYLAYER
370
   211
 62
   256
100
AcDbPolyline
 90
     2
 70
     0
 43
0.2
 10
194.31506
 20
-101.103332
 10
195.31506
 20
-102.103332
  0
LWPOLYLINE
  5
2D3
330
15
100
AcDbEntity
  8
IMP_EC_PLATE-EDGE_CUTS_GBR
  6
BYLAYER
370
   211
 62
   256
100
AcDbPolyline
 90
     2
 70
     0
 43
0.2
 10
181.71506
 20
-101.103332
 10
194.31506
 20
-101.103332
  0
LWPOLYLINE
  5
2D4
330
15
100
AcDbEntity
  8
IMP_EC_PLATE-EDGE_CUTS_GBR
  6
BYLAYER
370
   211
 62
   256
100
AcDbPolyline
 90
     2
 70
     0
 43
0.2
 10
161.69506
 20
-102.103332
 10
162.69506
 20
-101.103332
  0
LWPOLYLINE
  5
2D5
330
15
100
AcDbEntity
  8
IMP_EC_PLATE-EDGE_CUTS_GBR
  6
BYLAYER
370
   211
 62
   256
100
AcDbPolyline
 90
     2
 70
     0
 43
0.2
 10
161.69506
 20
-114.103332
 10
161.69506
 20
-102.103332
  0
LWPOLYLINE
  5
2D6
330
15
100
AcDbEntity
  8
IMP_EC_PLATE-EDGE_CUTS_GBR
  6
BYLAYER
370
   211
 62
   256
100
AcDbPolyline
 90
     2
 70
     0
 43
0.2
 10
162.69506
 20
-115.103332
 10
161.69506
 20
-114.103332
  0
LWPOLYLINE
  5
2D7
330
15
100
AcDbEntity
  8
IMP_EC_PLATE-EDGE_CUTS_GBR
  6
BYLAYER
370
   211
 62
   256
100
AcDbPolyline
 90
     2
 70
     0
 43
0.2
 10
175.29506
 20
-115.103332
 10
162.69506
 20
-115.103332
  0
LWPOLYLINE
  5
2D8
330
15
100
AcDbEntity
  8
IMP_EC_PLATE-EDGE_CUTS_GBR
  6
BYLAYER
370
   211
 62
   256
100
AcDbPolyline
 90
     2
 70
     0
 43
0.2
 10
176.29506
 20
-114.103332
 10
175.29506
 20
-115.103332
  0
LWPOLYLINE
  5
2D9
330
15
100
AcDbEntity
  8
IMP_EC_PLATE-EDGE_CUTS_GBR
  6
BYLAYER
370
   211
 62
   256
100
AcDbPolyline
 90
     2
 70
     0
 43
0.2
 10
176.29506
 20
-102.103332
 10
176.29506
 20
-114.103332
  0
LWPOLYLINE
  5
2DA
330
15
100
AcDbEntity
  8
IMP_EC_PLATE-EDGE_CUTS_GBR
  6
BYLAYER
370
   211
 62
   256
100
AcDbPolyline
 90
     2
 70
     0
 43
0.2
 10
175.29506
 20
-101.103332
 10
176.29506
 20
-102.103332
  0
LWPOLYLINE
  5
2DB
330
15
100
AcDbEntity
  8
IMP_EC_PLATE-EDGE_CUTS_GBR
  6
BYLAYER
370
   211
 62
   256
100
AcDbPolyline
 90
     2
 70
     0
 43
0.2
 10
162.69506
 20
-101.103332
 10
175.29506
 20
-101.103332
  0
LWPOLYLINE
  5
2DC
330
15
100
AcDbEntity
  8
IMP_EC_PLATE-EDGE_CUTS_GBR
  6
BYLAYER
370
   211
 62
   256
100
AcDbPolyline
 90
     2
 70
     0
 43
0.2
 10
142.67506
 20
-102.103332
 10
143.67506
 20
-101.103332
  0
LWPOLYLINE
  5
2DD
330
15
100
AcDbEntity
  8
IMP_EC_PLATE-EDGE_CUTS_GBR
  6
BYLAYER
370
   211
 62
   256
100
AcDbPolyline
 90
     2
 70
     0
 43
0.2
 10
142.67506
 20
-114.103332
 10
142.67506
 20
-102.103332
  0
LWPOLYLINE
  5
2DE
330
15
100
AcDbEntity
  8
IMP_EC_PLATE-EDGE_CUTS_GBR
  6
BYLAYER
370
   211
 62
   256
100
AcDbPolyline
 90
     2
 70
     0
 43
0.2
 10
143.67506
 20
-115.103332
 10
142.67506
 20
-114.103332
  0
LWPOLYLINE
  5
2DF
330
15
100
AcDbEntity
  8
IMP_EC_PLATE-EDGE_CUTS_GBR
  6
BYLAYER
370
   211
 62
   256
100
AcDbPolyline
 90
     2
 70
     0
 43
0.2
 10
156.27506
 20
-115.103332
 10
143.67506
 20
-115.103332
  0
LWPOLYLINE
  5
2E0
330
15
100
AcDbEntity
  8
IMP_EC_PLATE-EDGE_CUTS_GBR
  6
BYLAYER
370
   211
 62
   256
100
AcDbPolyline
 90
     2
 70
     0
 43
0.2
 10
157.27506
 20
-114.103332
 10
156.27506
 20
-115.103332
  0
LWPOLYLINE
  5
2E1
330
15
100
AcDbEntity
  8
IMP_EC_PLATE-EDGE_CUTS_GBR
  6
BYLAYER
370
   211
 62
   256
100
AcDbPolyline
 90
     2
 70
     0
 43
0.2
 10
157.27506
 20
-102.103332
 10
157.27506
 20
-114.103332
  0
LWPOLYLINE
  5
2E2
330
15
100
AcDbEntity
  8
IMP_EC_PLATE-EDGE_CUTS_GBR
  6
BYLAYER
370
   211
 62
   256
100
AcDbPolyline
 90
     2
 70
     0
 43
0.2
 10
156.27506
 20
-101.103332
 10
157.27506
 20
-102.103332
  0
LWPOLYLINE
  5
2E3
330
15
100
AcDbEntity
  8
IMP_EC_PLATE-EDGE_CUTS_GBR
  6
BYLAYER
370
   211
 62
   256
100
AcDbPolyline
 90
     2
 70
     0
 43
0.2
 10
143.67506
 20
-101.103332
 10
156.27506
 20
-101.103332
  0
LWPOLYLINE
  5
2E4
330
15
100
AcDbEntity
  8
IMP_EC_PLATE-EDGE_CUTS_GBR
  6
BYLAYER
370
   211
 62
   256
100
AcDbPolyline
 90
     2
 70
     0
 43
0.2
 10
123.65506
 20
-102.103332
 10
124.65506
 20
-101.103332
  0
LWPOLYLINE
  5
2E5
330
15
100
AcDbEntity
  8
IMP_EC_PLATE-EDGE_CUTS_GBR
  6
BYLAYER
370
   211
 62
   256
100
AcDbPolyline
 90
     2
 70
     0
 43
0.2
 10
123.65506
 20
-114.103332
 10
123.65506
 20
-102.103332
  0
LWPOLYLINE
  5
2E6
330
15
100
AcDbEntity
  8
IMP_EC_PLATE-EDGE_CUTS_GBR
  6
BYLAYER
370
   211
 62
   256
100
AcDbPolyline
 90
     2
 70
     0
 43
0.2
 10
124.65506
 20
-115.103332
 10
123.65506
 20
-114.103332
  0
LWPOLYLINE
  5
2E7
330
15
100
AcDbEntity
  8
IMP_EC_PLATE-EDGE_CUTS_GBR
  6
BYLAYER
370
   211
 62
   256
100
AcDbPolyline
 90
     2
 70
     0
 43
0.2
 10
137.25506
 20
-115.103332
 10
124.65506
 20
-115.103332
  0
LWPOLYLINE
  5
2E8
330
15
100
AcDbEntity
  8
IMP_EC_PLATE-EDGE_CUTS_GBR
  6
BYLAYER
370
   211
 62
   256
100
AcDbPolyline
 90
     2
 70
     0
 43
0.2
 10
138.25506
 20
-114.103332
 10
137.25506
 20
-115.103332
  0
LWPOLYLINE
  5
2E9
330
15
100
AcDbEntity
  8
IMP_EC_PLATE-EDGE_CUTS_GBR
  6
BYLAYER
370
   211
 62
   256
100
AcDbPolyline
 90
     2
 70
     0
 43
0.2
 10
138.25506
 20
-102.103332
 10
138.25506
 20
-114.103332
  0
LWPOLYLINE
  5
2EA
330
15
100
AcDbEntity
  8
IMP_EC_PLATE-EDGE_CUTS_GBR
  6
BYLAYER
370
   211
 62
   256
100
AcDbPolyline
 90
     2
 70
     0
 43
0.2
 10
137.25506
 20
-101.103332
 10
138.25506
 20
-102.103332
  0
LWPOLYLINE
  5
2EB
330
15
100
AcDbEntity
  8
IMP_EC_PLATE-EDGE_CUTS_GBR
  6
BYLAYER
370
   211
 62
   256
100
AcDbPolyline
 90
     2
 70
     0
 43
0.2
 10
124.65506
 20
-101.103332
 10
137.25506
 20
-101.103332
  0
LWPOLYLINE
  5
2EC
330
15
100
AcDbEntity
  8
IMP_EC_PLATE-EDGE_CUTS_GBR
  6
BYLAYER
370
   211
 62
   256
100
AcDbPolyline
 90
     2
 70
     0
 43
0.2
 10
104.63506
 20
-102.103332
 10
105.63506
 20
-101.103332
  0
LWPOLYLINE
  5
2ED
330
15
100
AcDbEntity
  8
IMP_EC_PLATE-EDGE_CUTS_GBR
  6
BYLAYER
370
   211
 62
   256
100
AcDbPolyline
 90
     2
 70
     0
 43
0.2
 10
104.63506
 20
-114.103332
 10
104.63506
 20
-102.103332
  0
LWPOLYLINE
  5
2EE
330
15
100
AcDbEntity
  8
IMP_EC_PLATE-EDGE_CUTS_GBR
  6
BYLAYER
370
   211
 62
   256
100
AcDbPolyline
 90
     2
 70
     0
 43
0.2
 10
105.63506
 20
-115.103332
 10
104.63506
 20
-114.103332
  0
LWPOLYLINE
  5
2EF
330
15
100
AcDbEntity
  8
IMP_EC_PLATE-EDGE_CUTS_GBR
  6
BYLAYER
370
   211
 62
   256
100
AcDbPolyline
 90
     2
 70
     0
 43
0.2
 10
118.23506
 20
-115.103332
 10
105.63506
 20
-115.103332
  0
LWPOLYLINE
  5
2F0
330
15
100
AcDbEntity
  8
IMP_EC_PLATE-EDGE_CUTS_GBR
  6
BYLAYER
370
   211
 62
   256
100
AcDbPolyline
 90
     2
 70
     0
 43
0.2
 10
119.23506
 20
-114.103332
 10
118.23506
 20
-115.103332
  0
LWPOLYLINE
  5
2F1
330
15
100
AcDbEntity
  8
IMP_EC_PLATE-EDGE_CUTS_GBR
  6
BYLAYER
370
   211
 62
   256
100
AcDbPolyline
 90
     2
 70
     0
 43
0.2
 10
119.23506
 20
-102.103332
 10
119.23506
 20
-114.103332
  0
LWPOLYLINE
  5
2F2
330
15
100
AcDbEntity
  8
IMP_EC_PLATE-EDGE_CUTS_GBR
  6
BYLAYER
370
   211
 62
   256
100
AcDbPolyline
 90
     2
 70
     0
 43
0.2
 10
118.23506
 20
-101.103332
 10
119.23506
 20
-102.103332
  0
LWPOLYLINE
  5
2F3
330
15
100
AcDbEntity
  8
IMP_EC_PLATE-EDGE_CUTS_GBR
  6
BYLAYER
370
   211
 62
   256
100
AcDbPolyline
 90
     2
 70
     0
 43
0.2
 10
105.63506
 20
-101.103332
 10
118.23506
 20
-101.103332
  0
LWPOLYLINE
  5
2F4
330
15
100
AcDbEntity
  8
IMP_EC_PLATE-EDGE_CUTS_GBR
  6
BYLAYER
370
   211
 62
   256
100
AcDbPolyline
 90
     2
 70
     0
 43
0.2
 10
85.61506
 20
-102.103332
 10
86.61506
 20
-101.103332
  0
LWPOLYLINE
  5
2F5
330
15
100
AcDbEntity
  8
IMP_EC_PLATE-EDGE_CUTS_GBR
  6
BYLAYER
370
   211
 62
   256
100
AcDbPolyline
 90
     2
 70
     0
 43
0.2
 10
85.61506
 20
-114.103332
 10
85.61506
 20
-102.103332
  0
LWPOLYLINE
  5
2F6
330
15
100
AcDbEntity
  8
IMP_EC_PLATE-EDGE_CUTS_GBR
  6
BYLAYER
370
   211
 62
   256
100
AcDbPolyline
 90
     2
 70
     0
 43
0.2
 10
86.61506
 20
-115.103332
 10
85.61506
 20
-114.103332
  0
LWPOLYLINE
  5
2F7
330
15
100
AcDbEntity
  8
IMP_EC_PLATE-EDGE_CUTS_GBR
  6
BYLAYER
370
   211
 62
   256
100
AcDbPolyline
 90
     2
 70
     0
 43
0.2
 10
99.21506
 20
-115.103332
 10
86.61506
 20
-115.103332
  0
LWPOLYLINE
  5
2F8
330
15
100
AcDbEntity
  8
IMP_EC_PLATE-EDGE_CUTS_GBR
  6
BYLAYER
370
   211
 62
   256
100
AcDbPolyline
 90
     2
 70
     0
 43
0.2
 10
100.21506
 20
-114.103332
 10
99.21506
 20
-115.103332
  0
LWPOLYLINE
  5
2F9
330
15
100
AcDbEntity
  8
IMP_EC_PLATE-EDGE_CUTS_GBR
  6
BYLAYER
370
   211
 62
   256
100
AcDbPolyline
 90
     2
 70
     0
 43
0.2
 10
100.21506
 20
-102.103332
 10
100.21506
 20
-114.103332
  0
LWPOLYLINE
  5
2FA
330
15
100
AcDbEntity
  8
IMP_EC_PLATE-EDGE_CUTS_GBR
  6
BYLAYER
370
   211
 62
   256
100
AcDbPolyline
 90
     2
 70
     0
 43
0.2
 10
99.21506
 20
-101.103332
 10
100.21506
 20
-102.103332
  0
LWPOLYLINE
  5
2FB
330
15
100
AcDbEntity
  8
IMP_EC_PLATE-EDGE_CUTS_GBR
  6
BYLAYER
370
   211
 62
   256
100
AcDbPolyline
 90
     2
 70
     0
 43
0.2
 10
86.61506
 20
-101.103332
 10
99.21506
 20
-101.103332
  0
LWPOLYLINE
  5
2FC
330
15
100
AcDbEntity
  8
IMP_EC_PLATE-EDGE_CUTS_GBR
  6
BYLAYER
370
   211
 62
   256
100
AcDbPolyline
 90
     2
 70
     0
 43
0.2
 10
66.59506
 20
-102.103332
 10
67.59506
 20
-101.103332
  0
LWPOLYLINE
  5
2FD
330
15
100
AcDbEntity
  8
IMP_EC_PLATE-EDGE_CUTS_GBR
  6
BYLAYER
370
   211
 62
   256
100
AcDbPolyline
 90
     2
 70
     0
 43
0.2
 10
66.59506
 20
-114.103332
 10
66.59506
 20
-102.103332
  0
LWPOLYLINE
  5
2FE
330
15
100
AcDbEntity
  8
IMP_EC_PLATE-EDGE_CUTS_GBR
  6
BYLAYER
370
   211
 62
   256
100
AcDbPolyline
 90
     2
 70
     0
 43
0.2
 10
67.59506
 20
-115.103332
 10
66.59506
 20
-114.103332
  0
LWPOLYLINE
  5
2FF
330
15
100
AcDbEntity
  8
IMP_EC_PLATE-EDGE_CUTS_GBR
  6
BYLAYER
370
   211
 62
   256
100
AcDbPolyline
 90
     2
 70
     0
 43
0.2
 10
80.19506
 20
-115.103332
 10
67.59506
 20
-115.103332
  0
LWPOLYLINE
  5
300
330
15
100
AcDbEntity
  8
IMP_EC_PLATE-EDGE_CUTS_GBR
  6
BYLAYER
370
   211
 62
   256
100
AcDbPolyline
 90
     2
 70
     0
 43
0.2
 10
81.19506
 20
-114.103332
 10
80.19506
 20
-115.103332
  0
LWPOLYLINE
  5
301
330
15
100
AcDbEntity
  8
IMP_EC_PLATE-EDGE_CUTS_GBR
  6
BYLAYER
370
   211
 62
   256
100
AcDbPolyline
 90
     2
 70
     0
 43
0.2
 10
81.19506
 20
-102.103332
 10
81.19506
 20
-114.103332
  0
LWPOLYLINE
  5
302
330
15
100
AcDbEntity
  8
IMP_EC_PLATE-EDGE_CUTS_GBR
  6
BYLAYER
370
   211
 62
   256
100
AcDbPolyline
 90
     2
 70
     0
 43
0.2
 10
80.19506
 20
-101.103332
 10
81.19506
 20
-102.103332
  0
LWPOLYLINE
  5
303
330
15
100
AcDbEntity
  8
IMP_EC_PLATE-EDGE_CUTS_GBR
  6
BYLAYER
370
   211
 62
   256
100
AcDbPolyline
 90
     2
 70
     0
 43
0.2
 10
67.59506
 20
-101.103332
 10
80.19506
 20
-101.103332
  0
LWPOLYLINE
  5
304
330
15
100
AcDbEntity
  8
IMP_EC_PLATE-EDGE_CUTS_GBR
  6
BYLAYER
370
   211
 62
   256
100
AcDbPolyline
 90
     2
 70
     0
 43
0.2
 10
47.57506
 20
-102.103332
 10
48.57506
 20
-101.103332
  0
LWPOLYLINE
  5
305
330
15
100
AcDbEntity
  8
IMP_EC_PLATE-EDGE_CUTS_GBR
  6
BYLAYER
370
   211
 62
   256
100
AcDbPolyline
 90
     2
 70
     0
 43
0.2
 10
47.57506
 20
-114.103332
 10
47.57506
 20
-102.103332
  0
LWPOLYLINE
  5
306
330
15
100
AcDbEntity
  8
IMP_EC_PLATE-EDGE_CUTS_GBR
  6
BYLAYER
370
   211
 62
   256
100
AcDbPolyline
 90
     2
 70
     0
 43
0.2
 10
48.57506
 20
-115.103332
 10
47.57506
 20
-114.103332
  0
LWPOLYLINE
  5
307
330
15
100
AcDbEntity
  8
IMP_EC_PLATE-EDGE_CUTS_GBR
  6
BYLAYER
370
   211
 62
   256
100
AcDbPolyline
 90
     2
 70
     0
 43
0.2
 10
61.17506
 20
-115.103332
 10
48.57506
 20
-115.103332
  0
LWPOLYLINE
  5
308
330
15
100
AcDbEntity
  8
IMP_EC_PLATE-EDGE_CUTS_GBR
  6
BYLAYER
370
   211
 62
   256
100
AcDbPolyline
 90
     2
 70
     0
 43
0.2
 10
62.17506
 20
-114.103332
 10
61.17506
 20
-115.103332
  0
LWPOLYLINE
  5
309
330
15
100
AcDbEntity
  8
IMP_EC_PLATE-EDGE_CUTS_GBR
  6
BYLAYER
370
   211
 62
   256
100
AcDbPolyline
 90
     2
 70
     0
 43
0.2
 10
62.17506
 20
-102.103332
 10
62.17506
 20
-114.103332
  0
LWPOLYLINE
  5
30A
330
15
100
AcDbEntity
  8
IMP_EC_PLATE-EDGE_CUTS_GBR
  6
BYLAYER
370
   211
 62
   256
100
AcDbPolyline
 90
     2
 70
     0
 43
0.2
 10
61.17506
 20
-101.103332
 10
62.17506
 20
-102.103332
  0
LWPOLYLINE
  5
30B
330
15
100
AcDbEntity
  8
IMP_EC_PLATE-EDGE_CUTS_GBR
  6
BYLAYER
370
   211
 62
   256
100
AcDbPolyline
 90
     2
 70
     0
 43
0.2
 10
48.57506
 20
-101.103332
 10
61.17506
 20
-101.103332
  0
LWPOLYLINE
  5
30C
330
15
100
AcDbEntity
  8
IMP_EC_PLATE-EDGE_CUTS_GBR
  6
BYLAYER
370
   211
 62
   256
100
AcDbPolyline
 90
     2
 70
     0
 43
0.2
 10
47.57506
 20
-79.003332
 10
48.57506
 20
-78.003332
  0
LWPOLYLINE
  5
30D
330
15
100
AcDbEntity
  8
IMP_EC_PLATE-EDGE_CUTS_GBR
  6
BYLAYER
370
   211
 62
   256
100
AcDbPolyline
 90
     2
 70
     0
 43
0.2
 10
47.57506
 20
-91.003332
 10
47.57506
 20
-79.003332
  0
LWPOLYLINE
  5
30E
330
15
100
AcDbEntity
  8
IMP_EC_PLATE-EDGE_CUTS_GBR
  6
BYLAYER
370
   211
 62
   256
100
AcDbPolyline
 90
     2
 70
     0
 43
0.2
 10
48.57506
 20
-92.003332
 10
47.57506
 20
-91.003332
  0
LWPOLYLINE
  5
30F
330
15
100
AcDbEntity
  8
IMP_EC_PLATE-EDGE_CUTS_GBR
  6
BYLAYER
370
   211
 62
   256
100
AcDbPolyline
 90
     2
 70
     0
 43
0.2
 10
61.17506
 20
-92.003332
 10
48.57506
 20
-92.003332
  0
LWPOLYLINE
  5
310
330
15
100
AcDbEntity
  8
IMP_EC_PLATE-EDGE_CUTS_GBR
  6
BYLAYER
370
   211
 62
   256
100
AcDbPolyline
 90
     2
 70
     0
 43
0.2
 10
62.17506
 20
-91.003332
 10
61.17506
 20
-92.003332
  0
LWPOLYLINE
  5
311
330
15
100
AcDbEntity
  8
IMP_EC_PLATE-EDGE_CUTS_GBR
  6
BYLAYER
370
   211
 62
   256
100
AcDbPolyline
 90
     2
 70
     0
 43
0.2
 10
62.17506
 20
-79.003332
 10
62.17506
 20
-91.003332
  0
LWPOLYLINE
  5
312
330
15
100
AcDbEntity
  8
IMP_EC_PLATE-EDGE_CUTS_GBR
  6
BYLAYER
370
   211
 62
   256
100
AcDbPolyline
 90
     2
 70
     0
 43
0.2
 10
61.17506
 20
-78.003332
 10
62.17506
 20
-79.003332
  0
LWPOLYLINE
  5
313
330
15
100
AcDbEntity
  8
IMP_EC_PLATE-EDGE_CUTS_GBR
  6
BYLAYER
370
   211
 62
   256
100
AcDbPolyline
 90
     2
 70
     0
 43
0.2
 10
48.57506
 20
-78.003332
 10
61.17506
 20
-78.003332
  0
LWPOLYLINE
  5
314
330
15
100
AcDbEntity
  8
IMP_EC_PLATE-EDGE_CUTS_GBR
  6
BYLAYER
370
   211
 62
   256
100
AcDbPolyline
 90
     2
 70
     0
 43
0.2
 10
159.87506
 20
-197.303332
 42
1
 10
165.87506
 20
-197.303332
 42
0.0
  0
LWPOLYLINE
  5
315
330
15
100
AcDbEntity
  8
IMP_EC_PLATE-EDGE_CUTS_GBR
  6
BYLAYER
370
   211
 62
   256
100
AcDbPolyline
 90
     2
 70
     0
 43
0.2
 10
159.87506
 20
-196.303332
 42
0.414213562373
 10
157.87506
 20
-194.303332
 42
0.0
  0
LWPOLYLINE
  5
316
330
15
100
AcDbEntity
  8
IMP_EC_PLATE-EDGE_CUTS_GBR
  6
BYLAYER
370
   211
 62
   256
100
AcDbPolyline
 90
     4
 70
     0
 43
0.2
 10
161.27506
 20
-197.303332
 42
0.0
 10
161.27506
 20
-197.303332
 42
1
 10
164.47506
 20
-197.303332
 42
1
 10
161.27506
 20
-197.303332
 42
0.0
  0
LWPOLYLINE
  5
317
330
15
100
AcDbEntity
  8
IMP_EC_PLATE-EDGE_CUTS_GBR
  6
BYLAYER
370
   211
 62
   256
100
AcDbPolyline
 90
     2
 70
     0
 43
0.2
 10
167.87506
 20
-194.303332
 42
0.414213562373
 10
165.87506
 20
-196.303332
 42
0.0
  0
LWPOLYLINE
  5
318
330
15
100
AcDbEntity
  8
IMP_EC_PLATE-EDGE_CUTS_GBR
  6
BYLAYER
370
   211
 62
   256
100
AcDbPolyline
 90
     4
 70
     0
 43
0.2
 10
51.27506
 20
-197.303332
 42
0.0
 10
51.27506
 20
-197.303332
 42
1
 10
54.47506
 20
-197.303332
 42
1
 10
51.27506
 20
-197.303332
 42
0.0
  0
LWPOLYLINE
  5
319
330
15
100
AcDbEntity
  8
IMP_EC_PLATE-EDGE_CUTS_GBR
  6
BYLAYER
370
   211
 62
   256
100
AcDbPolyline
 90
     2
 70
     0
 43
0.2
 10
57.87506
 20
-194.303332
 42
0.414213562373
 10
55.87506
 20
-196.303332
 42
0.0
  0
LWPOLYLINE
  5
31A
330
15
100
AcDbEntity
  8
IMP_EC_PLATE-EDGE_CUTS_GBR
  6
BYLAYER
370
   211
 62
   256
100
AcDbPolyline
 90
     2
 70
     0
 43
0.2
 10
49.87506
 20
-196.303332
 42
0.414213562373
 10
47.87506
 20
-194.303332
 42
0.0
  0
LWPOLYLINE
  5
31B
330
15
100
AcDbEntity
  8
IMP_EC_PLATE-EDGE_CUTS_GBR
  6
BYLAYER
370
   211
 62
   256
100
AcDbPolyline
 90
     2
 70
     0
 43
0.2
 10
49.87506
 20
-197.303332
 42
1
 10
55.87506
 20
-197.303332
 42
0.0
  0
LWPOLYLINE
  5
31C
330
15
100
AcDbEntity
  8
IMP_EC_PLATE-EDGE_CUTS_GBR
  6
BYLAYER
370
   211
 62
   256
100
AcDbPolyline
 90
     2
 70
     0
 43
0.2
 10
326.162509333
 20
-197.303332
 10
326.162509333
 20
-196.303332
  0
LWPOLYLINE
  5
31D
330
15
100
AcDbEntity
  8
IMP_EC_PLATE-EDGE_CUTS_GBR
  6
BYLAYER
370
   211
 62
   256
100
AcDbPolyline
 90
     2
 70
     0
 43
0.2
 10
326.162509333
 20
-72.053332
 10
326.162509333
 20
-73.053332
  0
LWPOLYLINE
  5
31E
330
15
100
AcDbEntity
  8
IMP_EC_PLATE-EDGE_CUTS_GBR
  6
BYLAYER
370
   211
 62
   256
100
AcDbPolyline
 90
     2
 70
     0
 43
0.2
 10
320.162509333
 20
-73.053332
 10
320.162509333
 20
-72.053332
  0
LWPOLYLINE
  5
31F
330
15
100
AcDbEntity
  8
IMP_EC_PLATE-EDGE_CUTS_GBR
  6
BYLAYER
370
   211
 62
   256
100
AcDbPolyline
 90
     2
 70
     0
 43
0.2
 10
320.162509333
 20
-196.303332
 10
320.162509333
 20
-197.303332
  0
LWPOLYLINE
  5
320
330
15
100
AcDbEntity
  8
IMP_EC_PLATE-EDGE_CUTS_GBR
  6
BYLAYER
370
   211
 62
   256
100
AcDbPolyline
 90
     2
 70
     0
 43
0.2
 10
43.62506
 20
-192.303332
 42
0.414213562373
 10
45.62506
 20
-194.303332
 42
0.0
  0
LWPOLYLINE
  5
321
330
15
100
AcDbEntity
  8
IMP_EC_PLATE-EDGE_CUTS_GBR
  6
BYLAYER
370
   211
 62
   256
100
AcDbPolyline
 90
     2
 70
     0
 43
0.2
 10
270.97506
 20
-197.303332
 10
270.97506
 20
-196.303332
  0
LWPOLYLINE
  5
322
330
15
100
AcDbEntity
  8
IMP_EC_PLATE-EDGE_CUTS_GBR
  6
BYLAYER
370
   211
 62
   256
100
AcDbPolyline
 90
     2
 70
     0
 43
0.2
 10
276.97506
 20
-197.303332
 10
276.97506
 20
-196.303332
  0
LWPOLYLINE
  5
323
330
15
100
AcDbEntity
  8
IMP_EC_PLATE-EDGE_CUTS_GBR
  6
BYLAYER
370
   211
 62
   256
100
AcDbPolyline
 90
     2
 70
     0
 43
0.2
 10
230.162509333
 20
-73.053332
 10
230.162509333
 20
-72.053332
  0
LWPOLYLINE
  5
324
330
15
100
AcDbEntity
  8
IMP_EC_PLATE-EDGE_CUTS_GBR
  6
BYLAYER
370
   211
 62
   256
100
AcDbPolyline
 90
     2
 70
     0
 43
0.2
 10
236.162509333
 20
-72.053332
 10
236.162509333
 20
-73.053332
  0
LWPOLYLINE
  5
325
330
15
100
AcDbEntity
  8
IMP_EC_PLATE-EDGE_CUTS_GBR
  6
BYLAYER
370
   211
 62
   256
100
AcDbPolyline
 90
     2
 70
     0
 43
0.2
 10
165.87506
 20
-197.303332
 10
165.87506
 20
-196.303332
  0
LWPOLYLINE
  5
326
330
15
100
AcDbEntity
  8
IMP_EC_PLATE-EDGE_CUTS_GBR
  6
BYLAYER
370
   211
 62
   256
100
AcDbPolyline
 90
     2
 70
     0
 43
0.2
 10
159.87506
 20
-197.303332
 10
159.87506
 20
-196.303332
  0
LWPOLYLINE
  5
327
330
15
100
AcDbEntity
  8
IMP_EC_PLATE-EDGE_CUTS_GBR
  6
BYLAYER
370
   211
 62
   256
100
AcDbPolyline
 90
     2
 70
     0
 43
0.2
 10
145.87506
 20
-72.053332
 10
145.87506
 20
-73.053332
  0
LWPOLYLINE
  5
328
330
15
100
AcDbEntity
  8
IMP_EC_PLATE-EDGE_CUTS_GBR
  6
BYLAYER
370
   211
 62
   256
100
AcDbPolyline
 90
     2
 70
     0
 43
0.2
 10
139.87506
 20
-73.053332
 10
139.87506
 20
-72.053332
  0
LWPOLYLINE
  5
329
330
15
100
AcDbEntity
  8
IMP_EC_PLATE-EDGE_CUTS_GBR
  6
BYLAYER
370
   211
 62
   256
100
AcDbPolyline
 90
     2
 70
     0
 43
0.2
 10
137.87506
 20
-75.053332
 10
57.87506
 20
-75.053332
  0
LWPOLYLINE
  5
32A
330
15
100
AcDbEntity
  8
IMP_EC_PLATE-EDGE_CUTS_GBR
  6
BYLAYER
370
   211
 62
   256
100
AcDbPolyline
 90
     2
 70
     0
 43
0.2
 10
228.162509333
 20
-75.053332
 10
147.87506
 20
-75.053332
  0
LWPOLYLINE
  5
32B
330
15
100
AcDbEntity
  8
IMP_EC_PLATE-EDGE_CUTS_GBR
  6
BYLAYER
370
   211
 62
   256
100
AcDbPolyline
 90
     2
 70
     0
 43
0.2
 10
318.162509333
 20
-75.053332
 10
238.162509333
 20
-75.053332
  0
LWPOLYLINE
  5
32C
330
15
100
AcDbEntity
  8
IMP_EC_PLATE-EDGE_CUTS_GBR
  6
BYLAYER
370
   211
 62
   256
100
AcDbPolyline
 90
     4
 70
     0
 43
0.2
 10
382.37506
 20
-72.053332
 42
0.0
 10
382.37506
 20
-72.053332
 42
1
 10
385.57506
 20
-72.053332
 42
1
 10
382.37506
 20
-72.053332
 42
0.0
  0
LWPOLYLINE
  5
32D
330
15
100
AcDbEntity
  8
IMP_EC_PLATE-EDGE_CUTS_GBR
  6
BYLAYER
370
   211
 62
   256
100
AcDbPolyline
 90
     2
 70
     0
 43
0.2
 10
388.97506
 20
-75.053332
 10
390.87506
 20
-75.053332
  0
LWPOLYLINE
  5
32E
330
15
100
AcDbEntity
  8
IMP_EC_PLATE-EDGE_CUTS_GBR
  6
BYLAYER
370
   211
 62
   256
100
AcDbPolyline
 90
     2
 70
     0
 43
0.2
 10
378.97506
 20
-194.303332
 10
346.953473333
 20
-194.303332
  0
LWPOLYLINE
  5
32F
330
15
100
AcDbEntity
  8
IMP_EC_PLATE-EDGE_CUTS_GBR
  6
BYLAYER
370
   211
 62
   256
100
AcDbPolyline
 90
     2
 70
     0
 43
0.2
 10
378.97506
 20
-75.053332
 42
0.414213562373
 10
380.97506
 20
-73.053332
 42
0.0
  0
LWPOLYLINE
  5
330
330
15
100
AcDbEntity
  8
IMP_EC_PLATE-EDGE_CUTS_GBR
  6
BYLAYER
370
   211
 62
   256
100
AcDbPolyline
 90
     2
 70
     0
 43
0.2
 10
386.97506
 20
-72.053332
 42
1.0
 10
380.97506
 20
-72.0533333333
 42
0.0
  0
LWPOLYLINE
  5
331
330
15
100
AcDbEntity
  8
IMP_EC_PLATE-EDGE_CUTS_GBR
  6
BYLAYER
370
   211
 62
   256
100
AcDbPolyline
 90
     2
 70
     0
 43
0.2
 10
392.87506
 20
-77.053332
 42
0.414213562373
 10
390.87506
 20
-75.053332
 42
0.0
  0
LWPOLYLINE
  5
332
330
15
100
AcDbEntity
  8
IMP_EC_PLATE-EDGE_CUTS_GBR
  6
BYLAYER
370
   211
 62
   256
100
AcDbPolyline
 90
     2
 70
     0
 43
0.2
 10
47.87506
 20
-75.053332
 10
45.62506
 20
-75.053332
  0
LWPOLYLINE
  5
333
330
15
100
AcDbEntity
  8
IMP_EC_PLATE-EDGE_CUTS_GBR
  6
BYLAYER
370
   211
 62
   256
100
AcDbPolyline
 90
     2
 70
     0
 43
0.2
 10
47.87506
 20
-194.303332
 10
45.62506
 20
-194.303332
  0
LWPOLYLINE
  5
334
330
15
100
AcDbEntity
  8
IMP_EC_PLATE-EDGE_CUTS_GBR
  6
BYLAYER
370
   211
 62
   256
100
AcDbPolyline
 90
     2
 70
     0
 43
0.2
 10
318.162509333
 20
-194.303332
 10
278.97506
 20
-194.303332
  0
LWPOLYLINE
  5
335
330
15
100
AcDbEntity
  8
IMP_EC_PLATE-EDGE_CUTS_GBR
  6
BYLAYER
370
   211
 62
   256
100
AcDbPolyline
 90
     2
 70
     0
 43
0.2
 10
346.953473333
 20
-75.053332
 10
378.97506
 20
-75.053332
  0
LWPOLYLINE
  5
336
330
15
100
AcDbEntity
  8
IMP_EC_PLATE-EDGE_CUTS_GBR
  6
BYLAYER
370
   211
 62
   256
100
AcDbPolyline
 90
     2
 70
     0
 43
0.2
 10
386.97506
 20
-73.053332
 42
0.414213562373
 10
388.97506
 20
-75.053332
 42
0.0
  0
LWPOLYLINE
  5
337
330
15
100
AcDbEntity
  8
IMP_EC_PLATE-EDGE_CUTS_GBR
  6
BYLAYER
370
   211
 62
   256
100
AcDbPolyline
 90
     2
 70
     0
 43
0.2
 10
157.87506
 20
-194.303332
 10
57.87506
 20
-194.303332
  0
LWPOLYLINE
  5
338
330
15
100
AcDbEntity
  8
IMP_EC_PLATE-EDGE_CUTS_GBR
  6
BYLAYER
370
   211
 62
   256
100
AcDbPolyline
 90
     2
 70
     0
 43
0.2
 10
268.97506
 20
-194.303332
 10
167.87506
 20
-194.303332
  0
LWPOLYLINE
  5
339
330
15
100
AcDbEntity
  8
IMP_EC_PLATE-EDGE_CUTS_GBR
  6
BYLAYER
370
   211
 62
   256
100
AcDbPolyline
 90
     4
 70
     0
 43
0.2
 10
384.653473333
 20
-144.153332
 42
0.0
 10
384.653473333
 20
-144.153332
 42
1
 10
389.753473333
 20
-144.153332
 42
1
 10
384.653473333
 20
-144.153332
 42
0.0
  0
LWPOLYLINE
  5
33A
330
15
100
AcDbEntity
  8
IMP_EC_PLATE-EDGE_CUTS_GBR
  6
BYLAYER
370
   211
 62
   256
100
AcDbPolyline
 90
     4
 70
     0
 43
0.2
 10
382.37506
 20
-197.303332
 42
0.0
 10
382.37506
 20
-197.303332
 42
1
 10
385.57506
 20
-197.303332
 42
1
 10
382.37506
 20
-197.303332
 42
0.0
  0
LWPOLYLINE
  5
33B
330
15
100
AcDbEntity
  8
IMP_EC_PLATE-EDGE_CUTS_GBR
  6
BYLAYER
370
   211
 62
   256
100
AcDbPolyline
 90
     2
 70
     0
 43
0.2
 10
388.97506
 20
-194.303332
 42
0.414213562373
 10
386.97506
 20
-196.303332
 42
0.0
  0
LWPOLYLINE
  5
33C
330
15
100
AcDbEntity
  8
IMP_EC_PLATE-EDGE_CUTS_GBR
  6
BYLAYER
370
   211
 62
   256
100
AcDbPolyline
 90
     2
 70
     0
 43
0.2
 10
375.297025333
 20
-154.370436
 42
0.414213562373
 10
377.297025333
 20
-152.370436
 42
0.0
  0
LWPOLYLINE
  5
33D
330
15
100
AcDbEntity
  8
IMP_EC_PLATE-EDGE_CUTS_GBR
  6
BYLAYER
370
   211
 62
   256
100
AcDbPolyline
 90
     2
 70
     0
 43
0.2
 10
377.297025333
 20
-140.153332
 42
0.414213562373
 10
375.297025333
 20
-138.153332
 42
0.0
  0
LWPOLYLINE
  5
33E
330
15
100
AcDbEntity
  8
IMP_EC_PLATE-EDGE_CUTS_GBR
  6
BYLAYER
370
   211
 62
   256
100
AcDbPolyline
 90
     2
 70
     0
 43
0.2
 10
380.97506
 20
-196.303332
 42
0.414213562373
 10
378.97506
 20
-194.303332
 42
0.0
  0
LWPOLYLINE
  5
33F
330
15
100
AcDbEntity
  8
IMP_EC_PLATE-EDGE_CUTS_GBR
  6
BYLAYER
370
   211
 62
   256
100
AcDbPolyline
 90
     2
 70
     0
 43
0.2
 10
390.87506
 20
-194.303332
 42
0.414213562373
 10
392.87506
 20
-192.303332
 42
0.0
  0
LWPOLYLINE
  5
340
330
15
100
AcDbEntity
  8
IMP_EC_PLATE-EDGE_CUTS_GBR
  6
BYLAYER
370
   211
 62
   256
100
AcDbPolyline
 90
     2
 70
     0
 43
0.2
 10
380.97506
 20
-197.303332
 42
1
 10
386.97506
 20
-197.303332
 42
0.0
  0
LWPOLYLINE
  5
341
330
15
100
AcDbEntity
  8
IMP_EC_PLATE-EDGE_CUTS_GBR
  6
BYLAYER
370
   211
 62
   256
100
AcDbPolyline
 90
     2
 70
     0
 43
0.2
 10
344.953473333
 20
-73.053332
 42
0.414213562373
 10
346.953473333
 20
-75.053332
 42
0.0
  0
LWPOLYLINE
  5
342
330
15
100
AcDbEntity
  8
IMP_EC_PLATE-EDGE_CUTS_GBR
  6
BYLAYER
370
   211
 62
   256
100
AcDbPolyline
 90
     4
 70
     0
 43
0.2
 10
384.653473333
 20
-167.303332
 42
0.0
 10
384.653473333
 20
-167.303332
 42
1
 10
389.753473333
 20
-167.303332
 42
1
 10
384.653473333
 20
-167.303332
 42
0.0
  0
LWPOLYLINE
  5
343
330
15
100
AcDbEntity
  8
IMP_EC_PLATE-EDGE_CUTS_GBR
  6
BYLAYER
370
   211
 62
   256
100
AcDbPolyline
 90
     4
 70
     0
 43
0.2
 10
384.653473333
 20
-155.728332
 42
0.0
 10
384.653473333
 20
-155.728332
 42
1
 10
389.753473333
 20
-155.728332
 42
1
 10
384.653473333
 20
-155.728332
 42
0.0
  0
LWPOLYLINE
  5
344
330
15
100
AcDbEntity
  8
IMP_EC_PLATE-EDGE_CUTS_GBR
  6
BYLAYER
370
   211
 62
   256
100
AcDbPolyline
 90
     4
 70
     0
 43
0.2
 10
340.353473333
 20
-72.053332
 42
0.0
 10
340.353473333
 20
-72.053332
 42
1
 10
343.553473333
 20
-72.053332
 42
1
 10
340.353473333
 20
-72.053332
 42
0.0
  0
LWPOLYLINE
  5
345
330
15
100
AcDbEntity
  8
IMP_EC_PLATE-EDGE_CUTS_GBR
  6
BYLAYER
370
   211
 62
   256
100
AcDbPolyline
 90
     2
 70
     0
 43
0.2
 10
344.953473333
 20
-72.053332
 42
1
 10
338.953473333
 20
-72.053332
 42
0.0
  0
LWPOLYLINE
  5
346
330
15
100
AcDbEntity
  8
IMP_EC_PLATE-EDGE_CUTS_GBR
  6
BYLAYER
370
   211
 62
   256
100
AcDbPolyline
 90
     2
 70
     0
 43
0.2
 10
350.609921333
 20
-138.153332
 42
0.414213562373
 10
348.609921333
 20
-140.153332
 42
0.0
  0
LWPOLYLINE
  5
347
330
15
100
AcDbEntity
  8
IMP_EC_PLATE-EDGE_CUTS_GBR
  6
BYLAYER
370
   211
 62
   256
100
AcDbPolyline
 90
     2
 70
     0
 43
0.2
 10
346.953473333
 20
-194.303332
 42
0.414213562373
 10
344.953473333
 20
-196.303332
 42
0.0
  0
LWPOLYLINE
  5
348
330
15
100
AcDbEntity
  8
IMP_EC_PLATE-EDGE_CUTS_GBR
  6
BYLAYER
370
   211
 62
   256
100
AcDbPolyline
 90
     4
 70
     0
 43
0.2
 10
340.353473333
 20
-197.303332
 42
0.0
 10
340.353473333
 20
-197.303332
 42
1
 10
343.553473333
 20
-197.303332
 42
1
 10
340.353473333
 20
-197.303332
 42
0.0
  0
LWPOLYLINE
  5
349
330
15
100
AcDbEntity
  8
IMP_EC_PLATE-EDGE_CUTS_GBR
  6
BYLAYER
370
   211
 62
   256
100
AcDbPolyline
 90
     4
 70
     0
 43
0.2
 10
336.153473333
 20
-155.728332
 42
0.0
 10
336.153473333
 20
-155.728332
 42
1
 10
341.253473333
 20
-155.728332
 42
1
 10
336.153473333
 20
-155.728332
 42
0.0
  0
LWPOLYLINE
  5
34A
330
15
100
AcDbEntity
  8
IMP_EC_PLATE-EDGE_CUTS_GBR
  6
BYLAYER
370
   211
 62
   256
100
AcDbPolyline
 90
     4
 70
     0
 43
0.2
 10
336.153473333
 20
-167.303332
 42
0.0
 10
336.153473333
 20
-167.303332
 42
1
 10
341.253473333
 20
-167.303332
 42
1
 10
336.153473333
 20
-167.303332
 42
0.0
  0
LWPOLYLINE
  5
34B
330
15
100
AcDbEntity
  8
IMP_EC_PLATE-EDGE_CUTS_GBR
  6
BYLAYER
370
   211
 62
   256
100
AcDbPolyline
 90
     4
 70
     0
 43
0.2
 10
336.153473333
 20
-144.153332
 42
0.0
 10
336.153473333
 20
-144.153332
 42
1
 10
341.253473333
 20
-144.153332
 42
1
 10
336.153473333
 20
-144.153332
 42
0.0
  0
LWPOLYLINE
  5
34C
330
15
100
AcDbEntity
  8
IMP_EC_PLATE-EDGE_CUTS_GBR
  6
BYLAYER
370
   211
 62
   256
100
AcDbPolyline
 90
     2
 70
     0
 43
0.2
 10
348.609921333
 20
-152.370436
 42
0.414213562373
 10
350.609921333
 20
-154.370436
 42
0.0
  0
LWPOLYLINE
  5
34D
330
15
100
AcDbEntity
  8
IMP_EC_PLATE-EDGE_CUTS_GBR
  6
BYLAYER
370
   211
 62
   256
100
AcDbPolyline
 90
     2
 70
     0
 43
0.2
 10
336.953473333
 20
-75.053332
 42
0.414213562373
 10
338.953473333
 20
-73.053332
 42
0.0
  0
LWPOLYLINE
  5
34E
330
15
100
AcDbEntity
  8
IMP_EC_PLATE-EDGE_CUTS_GBR
  6
BYLAYER
370
   211
 62
   256
100
AcDbPolyline
 90
     2
 70
     0
 43
0.2
 10
392.87506
 20
-77.053332
 10
392.87506
 20
-192.303332
  0
LWPOLYLINE
  5
34F
330
15
100
AcDbEntity
  8
IMP_EC_PLATE-EDGE_CUTS_GBR
  6
BYLAYER
370
   211
 62
   256
100
AcDbPolyline
 90
     2
 70
     0
 43
0.2
 10
380.97506
 20
-73.053332
 10
380.97506
 20
-72.053332
  0
LWPOLYLINE
  5
350
330
15
100
AcDbEntity
  8
IMP_EC_PLATE-EDGE_CUTS_GBR
  6
BYLAYER
370
   211
 62
   256
100
AcDbPolyline
 90
     2
 70
     0
 43
0.2
 10
377.297025333
 20
-140.153332
 10
377.297025333
 20
-152.370436
  0
LWPOLYLINE
  5
351
330
15
100
AcDbEntity
  8
IMP_EC_PLATE-EDGE_CUTS_GBR
  6
BYLAYER
370
   211
 62
   256
100
AcDbPolyline
 90
     2
 70
     0
 43
0.2
 10
380.97506
 20
-197.303332
 10
380.97506
 20
-196.303332
  0
LWPOLYLINE
  5
352
330
15
100
AcDbEntity
  8
IMP_EC_PLATE-EDGE_CUTS_GBR
  6
BYLAYER
370
   211
 62
   256
100
AcDbPolyline
 90
     2
 70
     0
 43
0.2
 10
386.97506
 20
-72.053332
 10
386.97506
 20
-73.053332
  0
LWPOLYLINE
  5
353
330
15
100
AcDbEntity
  8
IMP_EC_PLATE-EDGE_CUTS_GBR
  6
BYLAYER
370
   211
 62
   256
100
AcDbPolyline
 90
     2
 70
     0
 43
0.2
 10
386.97506
 20
-196.303332
 10
386.97506
 20
-197.303332
  0
LWPOLYLINE
  5
354
330
15
100
AcDbEntity
  8
IMP_EC_PLATE-EDGE_CUTS_GBR
  6
BYLAYER
370
   211
 62
   256
100
AcDbPolyline
 90
     2
 70
     0
 43
0.2
 10
338.953473333
 20
-196.303332
 42
0.414213562373
 10
336.953473333
 20
-194.303332
 42
0.0
  0
LWPOLYLINE
  5
355
330
15
100
AcDbEntity
  8
IMP_EC_PLATE-EDGE_CUTS_GBR
  6
BYLAYER
370
   211
 62
   256
100
AcDbPolyline
 90
     2
 70
     0
 43
0.2
 10
338.953473333
 20
-197.303332
 42
1
 10
344.953473333
 20
-197.303332
 42
0.0
  0
LWPOLYLINE
  5
356
330
15
100
AcDbEntity
  8
IMP_EC_PLATE-EDGE_CUTS_GBR
  6
BYLAYER
370
   211
 62
   256
100
AcDbPolyline
 90
     2
 70
     0
 43
0.2
 10
350.609921333
 20
-138.153332
 10
375.297025333
 20
-138.153332
  0
LWPOLYLINE
  5
357
330
15
100
AcDbEntity
  8
IMP_EC_PLATE-EDGE_CUTS_GBR
  6
BYLAYER
370
   211
 62
   256
100
AcDbPolyline
 90
     2
 70
     0
 43
0.2
 10
338.953473333
 20
-72.053332
 10
338.953473333
 20
-73.053332
  0
LWPOLYLINE
  5
358
330
15
100
AcDbEntity
  8
IMP_EC_PLATE-EDGE_CUTS_GBR
  6
BYLAYER
370
   211
 62
   256
100
AcDbPolyline
 90
     2
 70
     0
 43
0.2
 10
375.297025333
 20
-154.370436
 10
350.609921333
 20
-154.370436
  0
LWPOLYLINE
  5
359
330
15
100
AcDbEntity
  8
IMP_EC_PLATE-EDGE_CUTS_GBR
  6
BYLAYER
370
   211
 62
   256
100
AcDbPolyline
 90
     2
 70
     0
 43
0.2
 10
338.953473333
 20
-196.303332
 10
338.953473333
 20
-197.303332
  0
LWPOLYLINE
  5
35A
330
15
100
AcDbEntity
  8
IMP_EC_PLATE-EDGE_CUTS_GBR
  6
BYLAYER
370
   211
 62
   256
100
AcDbPolyline
 90
     4
 70
     0
 43
0.2
 10
321.562509333
 20
-72.053332
 42
0.0
 10
321.562509333
 20
-72.053332
 42
1
 10
324.762509333
 20
-72.053332
 42
1
 10
321.562509333
 20
-72.053332
 42
0.0
  0
LWPOLYLINE
  5
35B
330
15
100
AcDbEntity
  8
IMP_EC_PLATE-EDGE_CUTS_GBR
  6
BYLAYER
370
   211
 62
   256
100
AcDbPolyline
 90
     2
 70
     0
 43
0.2
 10
318.162508
 20
-75.053332
 42
0.414213562373
 10
320.162509333
 20
-73.0533333333
 42
0.0
  0
LWPOLYLINE
  5
35C
330
15
100
AcDbEntity
  8
IMP_EC_PLATE-EDGE_CUTS_GBR
  6
BYLAYER
370
   211
 62
   256
100
AcDbPolyline
 90
     2
 70
     0
 43
0.2
 10
390.87506
 20
-194.303332
 10
388.97506
 20
-194.303332
  0
LWPOLYLINE
  5
35D
330
15
100
AcDbEntity
  8
IMP_EC_PLATE-EDGE_CUTS_GBR
  6
BYLAYER
370
   211
 62
   256
100
AcDbPolyline
 90
     2
 70
     0
 43
0.2
 10
326.162509333
 20
-73.053332
 42
0.414213562373
 10
328.162509333
 20
-75.053332
 42
0.0
  0
LWPOLYLINE
  5
35E
330
15
100
AcDbEntity
  8
IMP_EC_PLATE-EDGE_CUTS_GBR
  6
BYLAYER
370
   211
 62
   256
100
AcDbPolyline
 90
     2
 70
     0
 43
0.2
 10
348.609921333
 20
-152.370436
 10
348.609921333
 20
-140.153332
  0
LWPOLYLINE
  5
35F
330
15
100
AcDbEntity
  8
IMP_EC_PLATE-EDGE_CUTS_GBR
  6
BYLAYER
370
   211
 62
   256
100
AcDbPolyline
 90
     2
 70
     0
 43
0.2
 10
344.953473333
 20
-196.303332
 10
344.953473333
 20
-197.303332
  0
LWPOLYLINE
  5
360
330
15
100
AcDbEntity
  8
IMP_EC_PLATE-EDGE_CUTS_GBR
  6
BYLAYER
370
   211
 62
   256
100
AcDbPolyline
 90
     2
 70
     0
 43
0.2
 10
326.162509333
 20
-72.053332
 42
1
 10
320.162509333
 20
-72.053332
 42
0.0
  0
LWPOLYLINE
  5
361
330
15
100
AcDbEntity
  8
IMP_EC_PLATE-EDGE_CUTS_GBR
  6
BYLAYER
370
   211
 62
   256
100
AcDbPolyline
 90
     2
 70
     0
 43
0.2
 10
344.953473333
 20
-72.053332
 10
344.953473333
 20
-73.053332
  0
LWPOLYLINE
  5
362
330
15
100
AcDbEntity
  8
IMP_EC_PLATE-EDGE_CUTS_GBR
  6
BYLAYER
370
   211
 62
   256
100
AcDbPolyline
 90
     2
 70
     0
 43
0.2
 10
55.87506
 20
-197.303332
 10
55.87506
 20
-196.303332
  0
LWPOLYLINE
  5
363
330
15
100
AcDbEntity
  8
IMP_EC_PLATE-EDGE_CUTS_GBR
  6
BYLAYER
370
   211
 62
   256
100
AcDbPolyline
 90
     2
 70
     0
 43
0.2
 10
49.87506
 20
-197.303332
 10
49.87506
 20
-196.303332
  0
LWPOLYLINE
  5
364
330
15
100
AcDbEntity
  8
IMP_EC_PLATE-EDGE_CUTS_GBR
  6
BYLAYER
370
   211
 62
   256
100
AcDbPolyline
 90
     2
 70
     0
 43
0.2
 10
43.62506
 20
-77.053332
 10
43.62506
 20
-192.303332
  0
LWPOLYLINE
  5
365
330
15
100
AcDbEntity
  8
IMP_EC_PLATE-EDGE_CUTS_GBR
  6
BYLAYER
370
   211
 62
   256
100
AcDbPolyline
 90
     2
 70
     0
 43
0.2
 10
49.87506
 20
-73.053332
 10
49.87506
 20
-72.053332
  0
LWPOLYLINE
  5
366
330
15
100
AcDbEntity
  8
IMP_EC_PLATE-EDGE_CUTS_GBR
  6
BYLAYER
370
   211
 62
   256
100
AcDbPolyline
 90
     2
 70
     0
 43
0.2
 10
55.87506
 20
-73.053332
 10
55.87506
 20
-72.053332
  0
LWPOLYLINE
  5
367
330
15
100
AcDbEntity
  8
IMP_EC_PLATE-EDGE_CUTS_GBR
  6
BYLAYER
370
   211
 62
   256
100
AcDbPolyline
 90
     2
 70
     0
 43
0.2
 10
236.162509333
 20
-72.053332
 42
1
 10
230.162509333
 20
-72.053332
 42
0.0
  0
LWPOLYLINE
  5
368
330
15
100
AcDbEntity
  8
IMP_EC_PLATE-EDGE_CUTS_GBR
  6
BYLAYER
370
   211
 62
   256
100
AcDbPolyline
 90
     2
 70
     0
 43
0.2
 10
236.162509333
 20
-73.053332
 42
0.414213562373
 10
238.162509333
 20
-75.053332
 42
0.0
  0
LWPOLYLINE
  5
369
330
15
100
AcDbEntity
  8
IMP_EC_PLATE-EDGE_CUTS_GBR
  6
BYLAYER
370
   211
 62
   256
100
AcDbPolyline
 90
     2
 70
     0
 43
0.2
 10
228.162508
 20
-75.053332
 42
0.414213562373
 10
230.162509333
 20
-73.0533333333
 42
0.0
  0
LWPOLYLINE
  5
36A
330
15
100
AcDbEntity
  8
IMP_EC_PLATE-EDGE_CUTS_GBR
  6
BYLAYER
370
   211
 62
   256
100
AcDbPolyline
 90
     4
 70
     0
 43
0.2
 10
231.562509333
 20
-72.053332
 42
0.0
 10
231.562509333
 20
-72.053332
 42
1
 10
234.762509333
 20
-72.053332
 42
1
 10
231.562509333
 20
-72.053332
 42
0.0
  0
LWPOLYLINE
  5
36B
330
15
100
AcDbEntity
  8
IMP_EC_PLATE-EDGE_CUTS_GBR
  6
BYLAYER
370
   211
 62
   256
100
AcDbPolyline
 90
     2
 70
     0
 43
0.2
 10
320.162509333
 20
-196.303332
 42
0.414213562373
 10
318.162509333
 20
-194.303332
 42
0.0
  0
LWPOLYLINE
  5
36C
330
15
100
AcDbEntity
  8
IMP_EC_PLATE-EDGE_CUTS_GBR
  6
BYLAYER
370
   211
 62
   256
100
AcDbPolyline
 90
     2
 70
     0
 43
0.2
 10
278.97506
 20
-194.303332
 42
0.414213562373
 10
276.97506
 20
-196.303332
 42
0.0
  0
LWPOLYLINE
  5
36D
330
15
100
AcDbEntity
  8
IMP_EC_PLATE-EDGE_CUTS_GBR
  6
BYLAYER
370
   211
 62
   256
100
AcDbPolyline
 90
     2
 70
     0
 43
0.2
 10
270.97506
 20
-196.303332
 42
0.414213562373
 10
268.97506
 20
-194.303332
 42
0.0
  0
LWPOLYLINE
  5
36E
330
15
100
AcDbEntity
  8
IMP_EC_PLATE-EDGE_CUTS_GBR
  6
BYLAYER
370
   211
 62
   256
100
AcDbPolyline
 90
     2
 70
     0
 43
0.2
 10
328.162508
 20
-194.303332
 42
0.414213562373
 10
326.162509333
 20
-196.303333333
 42
0.0
  0
LWPOLYLINE
  5
36F
330
15
100
AcDbEntity
  8
IMP_EC_PLATE-EDGE_CUTS_GBR
  6
BYLAYER
370
   211
 62
   256
100
AcDbPolyline
 90
     4
 70
     0
 43
0.2
 10
321.562509333
 20
-197.303332
 42
0.0
 10
321.562509333
 20
-197.303332
 42
1
 10
324.762509333
 20
-197.303332
 42
1
 10
321.562509333
 20
-197.303332
 42
0.0
  0
LWPOLYLINE
  5
370
330
15
100
AcDbEntity
  8
IMP_EC_PLATE-EDGE_CUTS_GBR
  6
BYLAYER
370
   211
 62
   256
100
AcDbPolyline
 90
     2
 70
     0
 43
0.2
 10
320.162509333
 20
-197.303332
 42
1
 10
326.162509333
 20
-197.303332
 42
0.0
  0
LWPOLYLINE
  5
371
330
15
100
AcDbEntity
  8
IMP_EC_PLATE-EDGE_CUTS_GBR
  6
BYLAYER
370
   211
 62
   256
100
AcDbPolyline
 90
     4
 70
     0
 43
0.2
 10
272.37506
 20
-197.303332
 42
0.0
 10
272.37506
 20
-197.303332
 42
1
 10
275.57506
 20
-197.303332
 42
1
 10
272.37506
 20
-197.303332
 42
0.0
  0
LWPOLYLINE
  5
372
330
15
100
AcDbEntity
  8
IMP_EC_PLATE-EDGE_CUTS_GBR
  6
BYLAYER
370
   211
 62
   256
100
AcDbPolyline
 90
     2
 70
     0
 43
0.2
 10
270.97506
 20
-197.303332
 42
1
 10
276.97506
 20
-197.303332
 42
0.0
  0
LWPOLYLINE
  5
373
330
15
100
AcDbEntity
  8
IMP_EC_PLATE-EDGE_CUTS_GBR
  6
BYLAYER
370
   211
 62
   256
100
AcDbPolyline
 90
     4
 70
     0
 43
0.2
 10
141.27506
 20
-72.053332
 42
0.0
 10
141.27506
 20
-72.053332
 42
1
 10
144.47506
 20
-72.053332
 42
1
 10
141.27506
 20
-72.053332
 42
0.0
  0
LWPOLYLINE
  5
374
330
15
100
AcDbEntity
  8
IMP_EC_PLATE-EDGE_CUTS_GBR
  6
BYLAYER
370
   211
 62
   256
100
AcDbPolyline
 90
     2
 70
     0
 43
0.2
 10
145.87506
 20
-73.053332
 42
0.414213562373
 10
147.87506
 20
-75.053332
 42
0.0
  0
LWPOLYLINE
  5
375
330
15
100
AcDbEntity
  8
IMP_EC_PLATE-EDGE_CUTS_GBR
  6
BYLAYER
370
   211
 62
   256
100
AcDbPolyline
 90
     2
 70
     0
 43
0.2
 10
137.87506
 20
-75.053332
 42
0.414213562373
 10
139.87506
 20
-73.053332
 42
0.0
  0
LWPOLYLINE
  5
376
330
15
100
AcDbEntity
  8
IMP_EC_PLATE-EDGE_CUTS_GBR
  6
BYLAYER
370
   211
 62
   256
100
AcDbPolyline
 90
     2
 70
     0
 43
0.2
 10
145.87506
 20
-72.053332
 42
1
 10
139.87506
 20
-72.053332
 42
0.0
  0
LWPOLYLINE
  5
377
330
15
100
AcDbEntity
  8
IMP_EC_PLATE-EDGE_CUTS_GBR
  6
BYLAYER
370
   211
 62
   256
100
AcDbPolyline
 90
     2
 70
     0
 43
0.2
 10
47.87506
 20
-75.053332
 42
0.414213562373
 10
49.87506
 20
-73.053332
 42
0.0
  0
LWPOLYLINE
  5
378
330
15
100
AcDbEntity
  8
IMP_EC_PLATE-EDGE_CUTS_GBR
  6
BYLAYER
370
   211
 62
   256
100
AcDbPolyline
 90
     2
 70
     0
 43
0.2
 10
55.87506
 20
-72.053332
 42
1
 10
49.87506
 20
-72.053332
 42
0.0
  0
LWPOLYLINE
  5
379
330
15
100
AcDbEntity
  8
IMP_EC_PLATE-EDGE_CUTS_GBR
  6
BYLAYER
370
   211
 62
   256
100
AcDbPolyline
 90
     4
 70
     0
 43
0.2
 10
51.27506
 20
-72.053332
 42
0.0
 10
51.27506
 20
-72.053332
 42
1
 10
54.47506
 20
-72.053332
 42
1
 10
51.27506
 20
-72.053332
 42
0.0
  0
LWPOLYLINE
  5
37A
330
15
100
AcDbEntity
  8
IMP_EC_PLATE-EDGE_CUTS_GBR
  6
BYLAYER
370
   211
 62
   256
100
AcDbPolyline
 90
     2
 70
     0
 43
0.2
 10
45.62506
 20
-75.053332
 42
0.414213562373
 10
43.62506
 20
-77.053332
 42
0.0
  0
LWPOLYLINE
  5
37B
330
15
100
AcDbEntity
  8
IMP_EC_PLATE-EDGE_CUTS_GBR
  6
BYLAYER
370
   211
 62
   256
100
AcDbPolyline
 90
     2
 70
     0
 43
0.2
 10
55.87506
 20
-73.053332
 42
0.414213562373
 10
57.87506
 20
-75.053332
 42
0.0
  0
LWPOLYLINE
  5
37C
330
15
100
AcDbEntity
  8
IMP_EC_PLATE-EDGE_CUTS_GBR
  6
BYLAYER
370
   211
 62
   256
100
AcDbPolyline
 90
     2
 70
     0
 43
0.2
 10
123.425008
 20
-190.176817333
 10
123.425008
 20
-178.176817333
  0
LWPOLYLINE
  5
37D
330
15
100
AcDbEntity
  8
IMP_EC_PLATE-EDGE_CUTS_GBR
  6
BYLAYER
370
   211
 62
   256
100
AcDbPolyline
 90
     2
 70
     0
 43
0.2
 10
138.025008
 20
-178.176817333
 10
138.025008
 20
-190.176817333
  0
LWPOLYLINE
  5
37E
330
15
100
AcDbEntity
  8
IMP_EC_PLATE-EDGE_CUTS_GBR
  6
BYLAYER
370
   211
 62
   256
100
AcDbPolyline
 90
     2
 70
     0
 43
0.2
 10
237.725008
 20
-190.176817333
 10
237.725008
 20
-178.176817333
  0
LWPOLYLINE
  5
37F
330
15
100
AcDbEntity
  8
IMP_EC_PLATE-EDGE_CUTS_GBR
  6
BYLAYER
370
   211
 62
   256
100
AcDbPolyline
 90
     2
 70
     0
 43
0.2
 10
252.325008
 20
-178.176817333
 10
252.325008
 20
-190.176817333
  0
LWPOLYLINE
  5
380
330
15
100
AcDbEntity
  8
IMP_EC_PLATE-EDGE_CUTS_GBR
  6
BYLAYER
370
   211
 62
   256
100
AcDbPolyline
 90
     2
 70
     0
 43
0.2
 10
138.025008
 20
-178.176817333
 10
137.025008
 20
-177.176817333
  0
LWPOLYLINE
  5
381
330
15
100
AcDbEntity
  8
IMP_EC_PLATE-EDGE_CUTS_GBR
  6
BYLAYER
370
   211
 62
   256
100
AcDbPolyline
 90
     2
 70
     0
 43
0.2
 10
124.425008
 20
-191.176816
 10
137.025008
 20
-191.176816
  0
LWPOLYLINE
  5
382
330
15
100
AcDbEntity
  8
IMP_EC_PLATE-EDGE_CUTS_GBR
  6
BYLAYER
370
   211
 62
   256
100
AcDbPolyline
 90
     2
 70
     0
 43
0.2
 10
124.425008
 20
-177.176817333
 10
123.425008
 20
-178.176817333
  0
LWPOLYLINE
  5
383
330
15
100
AcDbEntity
  8
IMP_EC_PLATE-EDGE_CUTS_GBR
  6
BYLAYER
370
   211
 62
   256
100
AcDbPolyline
 90
     2
 70
     0
 43
0.2
 10
137.025008
 20
-191.176816
 10
138.025008
 20
-190.176817333
  0
LWPOLYLINE
  5
384
330
15
100
AcDbEntity
  8
IMP_EC_PLATE-EDGE_CUTS_GBR
  6
BYLAYER
370
   211
 62
   256
100
AcDbPolyline
 90
     2
 70
     0
 43
0.2
 10
137.025008
 20
-177.176817333
 10
124.425008
 20
-177.176817333
  0
LWPOLYLINE
  5
385
330
15
100
AcDbEntity
  8
IMP_EC_PLATE-EDGE_CUTS_GBR
  6
BYLAYER
370
   211
 62
   256
100
AcDbPolyline
 90
     2
 70
     0
 43
0.2
 10
123.425008
 20
-190.176817333
 10
124.425008
 20
-191.176816
  0
LWPOLYLINE
  5
386
330
15
100
AcDbEntity
  8
IMP_EC_PLATE-EDGE_CUTS_GBR
  6
BYLAYER
370
   211
 62
   256
100
AcDbPolyline
 90
     2
 70
     0
 43
0.2
 10
252.325008
 20
-178.176817333
 10
251.325008
 20
-177.176817333
  0
LWPOLYLINE
  5
387
330
15
100
AcDbEntity
  8
IMP_EC_PLATE-EDGE_CUTS_GBR
  6
BYLAYER
370
   211
 62
   256
100
AcDbPolyline
 90
     2
 70
     0
 43
0.2
 10
238.725008
 20
-191.176816
 10
251.325008
 20
-191.176816
  0
LWPOLYLINE
  5
388
330
15
100
AcDbEntity
  8
IMP_EC_PLATE-EDGE_CUTS_GBR
  6
BYLAYER
370
   211
 62
   256
100
AcDbPolyline
 90
     2
 70
     0
 43
0.2
 10
238.725008
 20
-177.176817333
 10
237.725008
 20
-178.176817333
  0
LWPOLYLINE
  5
389
330
15
100
AcDbEntity
  8
IMP_EC_PLATE-EDGE_CUTS_GBR
  6
BYLAYER
370
   211
 62
   256
100
AcDbPolyline
 90
     2
 70
     0
 43
0.2
 10
251.325008
 20
-191.176816
 10
252.325008
 20
-190.176817333
  0
LWPOLYLINE
  5
38A
330
15
100
AcDbEntity
  8
IMP_EC_PLATE-EDGE_CUTS_GBR
  6
BYLAYER
370
   211
 62
   256
100
AcDbPolyline
 90
     2
 70
     0
 43
0.2
 10
251.325008
 20
-177.176817333
 10
238.725008
 20
-177.176817333
  0
LWPOLYLINE
  5
38B
330
15
100
AcDbEntity
  8
IMP_EC_PLATE-EDGE_CUTS_GBR
  6
BYLAYER
370
   211
 62
   256
100
AcDbPolyline
 90
     2
 70
     0
 43
0.2
 10
237.725008
 20
-190.176817333
 10
238.725008
 20
-191.176816
  0
LWPOLYLINE
  5
38C
330
15
100
AcDbEntity
  8
IMP_EC_PLATE-EDGE_CUTS_GBR
  6
BYLAYER
370
   211
 62
   256
100
AcDbPolyline
 90
     2
 70
     0
 43
0.2
 10
81.77506
 20
-158.166817333
 10
82.77506
 20
-159.166817333
  0
LWPOLYLINE
  5
38D
330
15
100
AcDbEntity
  8
IMP_EC_PLATE-EDGE_CUTS_GBR
  6
BYLAYER
370
   211
 62
   256
100
AcDbPolyline
 90
     2
 70
     0
 43
0.2
 10
82.77506
 20
-159.166817333
 10
82.77506
 20
-170.436817333
  0
LWPOLYLINE
  5
38E
330
15
100
AcDbEntity
  8
IMP_EC_PLATE-EDGE_CUTS_GBR
  6
BYLAYER
370
   211
 62
   256
100
AcDbPolyline
 90
     2
 70
     0
 43
0.2
 10
50.77506
 20
-159.166817333
 10
51.77506
 20
-158.166817333
  0
LWPOLYLINE
  5
38F
330
15
100
AcDbEntity
  8
IMP_EC_PLATE-EDGE_CUTS_GBR
  6
BYLAYER
370
   211
 62
   256
100
AcDbPolyline
 90
     2
 70
     0
 43
0.2
 10
50.77506
 20
-159.166817333
 10
50.77506
 20
-170.436817333
  0
LWPOLYLINE
  5
390
330
15
100
AcDbEntity
  8
IMP_EC_PLATE-EDGE_CUTS_GBR
  6
BYLAYER
370
   211
 62
   256
100
AcDbPolyline
 90
     2
 70
     0
 43
0.2
 10
320.42506
 20
-159.166817333
 10
320.42506
 20
-170.436817333
  0
LWPOLYLINE
  5
391
330
15
100
AcDbEntity
  8
IMP_EC_PLATE-EDGE_CUTS_GBR
  6
BYLAYER
370
   211
 62
   256
100
AcDbPolyline
 90
     2
 70
     0
 43
0.2
 10
319.42506
 20
-158.166817333
 10
320.42506
 20
-159.166817333
  0
LWPOLYLINE
  5
392
330
15
100
AcDbEntity
  8
IMP_EC_PLATE-EDGE_CUTS_GBR
  6
BYLAYER
370
   211
 62
   256
100
AcDbPolyline
 90
     2
 70
     0
 43
0.2
 10
288.42506
 20
-159.166817333
 10
289.42506
 20
-158.166817333
  0
LWPOLYLINE
  5
393
330
15
100
AcDbEntity
  8
IMP_EC_PLATE-EDGE_CUTS_GBR
  6
BYLAYER
370
   211
 62
   256
100
AcDbPolyline
 90
     2
 70
     0
 43
0.2
 10
288.42506
 20
-159.166817333
 10
288.42506
 20
-170.436817333
  0
LWPOLYLINE
  5
394
330
15
100
AcDbEntity
  8
IMP_EC_PLATE-EDGE_CUTS_GBR
  6
BYLAYER
370
   211
 62
   256
100
AcDbPolyline
 90
     2
 70
     0
 43
0.2
 10
324.20506
 20
-139.146817333
 10
325.20506
 20
-140.146817333
  0
LWPOLYLINE
  5
395
330
15
100
AcDbEntity
  8
IMP_EC_PLATE-EDGE_CUTS_GBR
  6
BYLAYER
370
   211
 62
   256
100
AcDbPolyline
 90
     2
 70
     0
 43
0.2
 10
325.20506
 20
-140.146817333
 10
325.20506
 20
-151.416817333
  0
LWPOLYLINE
  5
396
330
15
100
AcDbEntity
  8
IMP_EC_PLATE-EDGE_CUTS_GBR
  6
BYLAYER
370
   211
 62
   256
100
AcDbPolyline
 90
     2
 70
     0
 43
0.2
 10
293.20506
 20
-140.146817333
 10
294.20506
 20
-139.146817333
  0
LWPOLYLINE
  5
397
330
15
100
AcDbEntity
  8
IMP_EC_PLATE-EDGE_CUTS_GBR
  6
BYLAYER
370
   211
 62
   256
100
AcDbPolyline
 90
     2
 70
     0
 43
0.2
 10
293.20506
 20
-140.146817333
 10
293.20506
 20
-151.416817333
  0
LWPOLYLINE
  5
398
330
15
100
AcDbEntity
  8
IMP_EC_PLATE-EDGE_CUTS_GBR
  6
BYLAYER
370
   211
 62
   256
100
AcDbPolyline
 90
     2
 70
     0
 43
0.2
 10
295.66006
 20
-102.106817333
 10
295.66006
 20
-113.376817333
  0
LWPOLYLINE
  5
399
330
15
100
AcDbEntity
  8
IMP_EC_PLATE-EDGE_CUTS_GBR
  6
BYLAYER
370
   211
 62
   256
100
AcDbPolyline
 90
     2
 70
     0
 43
0.2
 10
327.66006
 20
-102.106817333
 10
327.66006
 20
-113.376817333
  0
LWPOLYLINE
  5
39A
330
15
100
AcDbEntity
  8
IMP_EC_PLATE-EDGE_CUTS_GBR
  6
BYLAYER
370
   211
 62
   256
100
AcDbPolyline
 90
     2
 70
     0
 43
0.2
 10
326.66006
 20
-101.106817333
 10
327.66006
 20
-102.106817333
  0
LWPOLYLINE
  5
39B
330
15
100
AcDbEntity
  8
IMP_EC_PLATE-EDGE_CUTS_GBR
  6
BYLAYER
370
   211
 62
   256
100
AcDbPolyline
 90
     2
 70
     0
 43
0.2
 10
295.66006
 20
-102.106817333
 10
296.66006
 20
-101.106817333
  0
LWPOLYLINE
  5
39C
330
15
100
AcDbEntity
  8
IMP_EC_PLATE-EDGE_CUTS_GBR
  6
BYLAYER
370
   211
 62
   256
100
AcDbPolyline
 90
     2
 70
     0
 43
0.2
 10
320.42506
 20
-170.436817333
 10
317.42506
 20
-172.166816
  0
LWPOLYLINE
  5
39D
330
15
100
AcDbEntity
  8
IMP_EC_PLATE-EDGE_CUTS_GBR
  6
BYLAYER
370
   211
 62
   256
100
AcDbPolyline
 90
     2
 70
     0
 43
0.2
 10
288.42506
 20
-170.436817333
 10
291.42506
 20
-172.166816
  0
LWPOLYLINE
  5
39E
330
15
100
AcDbEntity
  8
IMP_EC_PLATE-EDGE_CUTS_GBR
  6
BYLAYER
370
   211
 62
   256
100
AcDbPolyline
 90
     2
 70
     0
 43
0.2
 10
325.20506
 20
-151.416817333
 10
322.20506
 20
-153.146816
  0
LWPOLYLINE
  5
39F
330
15
100
AcDbEntity
  8
IMP_EC_PLATE-EDGE_CUTS_GBR
  6
BYLAYER
370
   211
 62
   256
100
AcDbPolyline
 90
     2
 70
     0
 43
0.2
 10
293.20506
 20
-151.416817333
 10
296.20506
 20
-153.146816
  0
LWPOLYLINE
  5
3A0
330
15
100
AcDbEntity
  8
IMP_EC_PLATE-EDGE_CUTS_GBR
  6
BYLAYER
370
   211
 62
   256
100
AcDbPolyline
 90
     2
 70
     0
 43
0.2
 10
50.77506
 20
-170.436817333
 10
53.77506
 20
-172.166816
  0
LWPOLYLINE
  5
3A1
330
15
100
AcDbEntity
  8
IMP_EC_PLATE-EDGE_CUTS_GBR
  6
BYLAYER
370
   211
 62
   256
100
AcDbPolyline
 90
     2
 70
     0
 43
0.2
 10
82.77506
 20
-170.436817333
 10
79.77506
 20
-172.166816
  0
LWPOLYLINE
  5
3A2
330
15
100
AcDbEntity
  8
IMP_EC_PLATE-EDGE_CUTS_GBR
  6
BYLAYER
370
   211
 62
   256
100
AcDbPolyline
 90
     2
 70
     0
 43
0.2
 10
295.66006
 20
-113.376817333
 10
298.66006
 20
-115.106816
  0
LWPOLYLINE
  5
3A3
330
15
100
AcDbEntity
  8
IMP_EC_PLATE-EDGE_CUTS_GBR
  6
BYLAYER
370
   211
 62
   256
100
AcDbPolyline
 90
     2
 70
     0
 43
0.2
 10
327.66006
 20
-113.376817333
 10
324.66006
 20
-115.106816
  0
LWPOLYLINE
  5
3A4
330
15
100
AcDbEntity
  8
IMP_EC_PLATE-EDGE_CUTS_GBR
  6
BYLAYER
370
   211
 62
   256
100
AcDbPolyline
 90
     2
 70
     0
 43
0.2
 10
370.267465333
 20
-81.8593813333
 42
1.59612376625
 10
366.400657333
 20
-78.0219213333
 42
0.0
  0
LWPOLYLINE
  5
3A5
330
15
100
AcDbEntity
  8
IMP_EC_PLATE-EDGE_CUTS_GBR
  6
BYLAYER
370
   211
 62
   256
100
AcDbPolyline
 90
     2
 70
     0
 43
0.2
 10
369.264268
 20
-92.003332
 10
356.664268
 20
-92.003332
  0
LWPOLYLINE
  5
3A6
330
15
100
AcDbEntity
  8
IMP_EC_PLATE-EDGE_CUTS_GBR
  6
BYLAYER
370
   211
 62
   256
100
AcDbPolyline
 90
     2
 70
     0
 43
0.2
 10
370.264268
 20
-91.003332
 10
369.264268
 20
-92.003332
  0
LWPOLYLINE
  5
3A7
330
15
100
AcDbEntity
  8
IMP_EC_PLATE-EDGE_CUTS_GBR
  6
BYLAYER
370
   211
 62
   256
100
AcDbPolyline
 90
     2
 70
     0
 43
0.2
 10
356.664268
 20
-92.003332
 10
355.664268
 20
-91.003332
  0
LWPOLYLINE
  5
3A8
330
15
100
AcDbEntity
  8
IMP_EC_PLATE-EDGE_CUTS_GBR
  6
BYLAYER
370
   211
 62
   256
100
AcDbPolyline
 90
     2
 70
     0
 43
0.2
 10
355.664268
 20
-91.003332
 10
355.664268
 20
-79.003332
  0
LWPOLYLINE
  5
3A9
330
15
100
AcDbEntity
  8
IMP_EC_PLATE-EDGE_CUTS_GBR
  6
BYLAYER
370
   211
 62
   256
100
AcDbPolyline
 90
     2
 70
     0
 43
0.2
 10
355.664268
 20
-79.003332
 10
356.664268
 20
-78.003332
  0
INSERT
  5
3AA
330
15
100
AcDbEntity
  8
IMP_EC_PLATE-F_MASK_GBR
100
AcDbBlockReference
  2
ROUND_3
 10
273.60506
 20
-108.103332
 30
0.0
  0
INSERT
  5
3AB
330
15
100
AcDbEntity
  8
IMP_EC_PLATE-F_MASK_GBR
100
AcDbBlockReference
  2
ROUND_3
 10
147.49006
 20
-85.003332
 30
0.0
  0
INSERT
  5
3AC
330
15
100
AcDbEntity
  8
IMP_EC_PLATE-F_MASK_GBR
100
AcDbBlockReference
  2
ROUND_3
 10
159.300008
 20
-188.673332
 30
0.0
  0
INSERT
  5
3AD
330
15
100
AcDbEntity
  8
IMP_EC_PLATE-F_MASK_GBR
100
AcDbBlockReference
  2
ROUND_3
 10
309.01506
 20
-85.003332
 30
0.0
  0
INSERT
  5
3AE
330
15
100
AcDbEntity
  8
IMP_EC_PLATE-F_MASK_GBR
100
AcDbBlockReference
  2
ROUND_3
 10
228.24006
 20
-85.003332
 30
0.0
  0
INSERT
  5
3AF
330
15
100
AcDbEntity
  8
IMP_EC_PLATE-F_MASK_GBR
100
AcDbBlockReference
  2
ROUND_3
 10
216.53506
 20
-108.103332
 30
0.0
  0
INSERT
  5
3B0
330
15
100
AcDbEntity
  8
IMP_EC_PLATE-F_MASK_GBR
100
AcDbBlockReference
  2
ROUND_3
 10
283.06506
 20
-127.123332
 30
0.0
  0
INSERT
  5
3B1
330
15
100
AcDbEntity
  8
IMP_EC_PLATE-F_MASK_GBR
100
AcDbBlockReference
  2
ROUND_3
 10
116.418596
 20
-184.173332
 30
0.0
  0
INSERT
  5
3B2
330
15
100
AcDbEntity
  8
IMP_EC_PLATE-F_MASK_GBR
100
AcDbBlockReference
  2
ROUND_3
 10
334.444268
 20
-108.126884
 30
0.0
  0
INSERT
  5
3B3
330
15
100
AcDbEntity
  8
IMP_EC_PLATE-F_MASK_GBR
100
AcDbBlockReference
  2
ROUND_3
 10
353.449268
 20
-184.296884
 30
0.0
  0
INSERT
  5
3B4
330
15
100
AcDbEntity
  8
IMP_EC_PLATE-F_MASK_GBR
100
AcDbBlockReference
  2
ROUND_3
 10
330.033388
 20
-184.173332
 30
0.0
  0
INSERT
  5
3B5
330
15
100
AcDbEntity
  8
IMP_EC_PLATE-F_MASK_GBR
100
AcDbBlockReference
  2
ROUND_3
 10
202.19506
 20
-165.163332
 30
0.0
  0
INSERT
  5
3B6
330
15
100
AcDbEntity
  8
IMP_EC_PLATE-F_MASK_GBR
100
AcDbBlockReference
  2
ROUND_3
 10
47.51006
 20
-146.143332
 30
0.0
  0
INSERT
  5
3B7
330
15
100
AcDbEntity
  8
IMP_EC_PLATE-F_MASK_GBR
100
AcDbBlockReference
  2
ROUND_3
 10
64.37506
 20
-108.103332
 30
0.0
  0
INSERT
  5
3B8
330
15
100
AcDbEntity
  8
IMP_EC_PLATE-F_MASK_GBR
100
AcDbBlockReference
  2
ROUND_3
 10
287.78506
 20
-146.143332
 30
0.0
  0
INSERT
  5
3B9
330
15
100
AcDbEntity
  8
IMP_EC_PLATE-F_MASK_GBR
100
AcDbBlockReference
  2
ROUND_3
 10
259.187508
 20
-184.173332
 30
0.0
  0
INSERT
  5
3BA
330
15
100
AcDbEntity
  8
IMP_EC_PLATE-F_MASK_GBR
100
AcDbBlockReference
  2
ROUND_3
 10
64.37506
 20
-85.0067893333
 30
0.0
  0
INSERT
  5
3BB
330
15
100
AcDbEntity
  8
IMP_EC_PLATE-F_MASK_GBR
100
AcDbBlockReference
  2
ROUND_3
 10
216.450008
 20
-188.673332
 30
0.0
  0
INSERT
  5
3BC
330
15
100
AcDbEntity
  8
IMP_EC_PLATE-F_MASK_GBR
100
AcDbBlockReference
  2
ROUND_3
 10
278.19506
 20
-165.163332
 30
0.0
  0
INSERT
  5
3BD
330
15
100
AcDbEntity
  8
IMP_EC_PLATE-F_MASK_GBR
100
AcDbBlockReference
  2
ROUND_3
 10
372.484268
 20
-85.0067893333
 30
0.0
  0
INSERT
  5
3BE
330
15
100
AcDbEntity
  8
IMP_EC_PLATE-F_MASK_GBR
100
AcDbBlockReference
  2
ROUND_3
 10
47.086592
 20
-184.173332
 30
0.0
  0
INSERT
  5
3BF
330
15
100
AcDbEntity
  8
IMP_EC_PLATE-F_MASK_GBR
100
AcDbBlockReference
  2
ROUND_3
 10
211.76506
 20
-146.143332
 30
0.0
  0
INSERT
  5
3C0
330
15
100
AcDbEntity
  8
IMP_EC_PLATE-F_MASK_GBR
100
AcDbBlockReference
  2
ROUND_3
 10
372.484268
 20
-127.146884
 30
0.0
  0
INSERT
  5
3C1
330
15
100
AcDbEntity
  8
IMP_EC_PLATE-F_MASK_GBR
100
AcDbBlockReference
  2
ROUND_3
 10
330.033388
 20
-155.653332
 30
0.0
  0
INSERT
  5
3C2
330
15
100
AcDbEntity
  8
IMP_EC_PLATE-F_MASK_GBR
100
AcDbBlockReference
  2
ROUND_3
 10
140.45506
 20
-108.103332
 30
0.0
  0
INSERT
  5
3C3
330
15
100
AcDbEntity
  8
IMP_EC_PLATE-F_MASK_GBR
100
AcDbBlockReference
  2
ROUND_3
 10
372.499268
 20
-165.276884
 30
0.0
  0
INSERT
  5
3C4
330
15
100
AcDbEntity
  8
IMP_EC_PLATE-F_MASK_GBR
100
AcDbBlockReference
  2
ROUND_3
 10
149.91506
 20
-127.123332
 30
0.0
  0
INSERT
  5
3C5
330
15
100
AcDbEntity
  8
IMP_EC_PLATE-F_MASK_GBR
100
AcDbBlockReference
  2
ROUND_3
 10
126.19506
 20
-165.163332
 30
0.0
  0
INSERT
  5
3C6
330
15
100
AcDbEntity
  8
IMP_EC_PLATE-F_MASK_GBR
100
AcDbBlockReference
  2
ROUND_3
 10
135.74506
 20
-146.143332
 30
0.0
  0
INSERT
  5
3C7
330
15
100
AcDbEntity
  8
IMP_EC_PLATE-F_MASK_GBR
100
AcDbBlockReference
  2
ROUND_3
 10
225.99506
 20
-127.123332
 30
0.0
  0
INSERT
  5
3C8
330
15
100
AcDbEntity
  8
IMP_EC_PLATE-F_MASK_GBR
100
AcDbBlockReference
  2
ROUND_3
 10
330.033388
 20
-127.123332
 30
0.0
  0
INSERT
  5
3C9
330
15
100
AcDbEntity
  8
IMP_EC_PLATE-F_MASK_GBR
100
AcDbBlockReference
  2
ROUND_3
 10
353.449268
 20
-165.276884
 30
0.0
  0
INSERT
  5
3CA
330
15
100
AcDbEntity
  8
IMP_EC_PLATE-F_MASK_GBR
100
AcDbBlockReference
  2
ROUND_3
 10
88.19506
 20
-165.163332
 30
0.0
  0
INSERT
  5
3CB
330
15
100
AcDbEntity
  8
IMP_EC_PLATE-F_MASK_GBR
100
AcDbBlockReference
  2
ROUND_3
 10
69.10506
 20
-127.123332
 30
0.0
  0
INSERT
  5
3CC
330
15
100
AcDbEntity
  8
IMP_EC_PLATE-F_MASK_GBR
100
AcDbBlockReference
  2
ROUND_3
 10
372.469268
 20
-184.296884
 30
0.0
  0
INSERT
  5
3CD
330
15
100
AcDbEntity
  8
IMP_EC_PLATE-NPTH_DRL
100
AcDbBlockReference
  2
ROUND_5
 10
47.08652
 20
-184.17286
 30
0.0
  0
INSERT
  5
3CE
330
15
100
AcDbEntity
  8
IMP_EC_PLATE-NPTH_DRL
100
AcDbBlockReference
  2
ROUND_5
 10
47.5107
 20
-146.14398
 30
0.0
  0
INSERT
  5
3CF
330
15
100
AcDbEntity
  8
IMP_EC_PLATE-NPTH_DRL
100
AcDbBlockReference
  2
ROUND_5
 10
64.3763
 20
-85.00618
 30
0.0
  0
INSERT
  5
3D0
330
15
100
AcDbEntity
  8
IMP_EC_PLATE-NPTH_DRL
100
AcDbBlockReference
  2
ROUND_5
 10
64.3763
 20
-108.1024
 30
0.0
  0
INSERT
  5
3D1
330
15
100
AcDbEntity
  8
IMP_EC_PLATE-NPTH_DRL
100
AcDbBlockReference
  2
ROUND_5
 10
69.10578
 20
-127.12446
 30
0.0
  0
INSERT
  5
3D2
330
15
100
AcDbEntity
  8
IMP_EC_PLATE-NPTH_DRL
100
AcDbBlockReference
  2
ROUND_5
 10
88.19388
 20
-165.1635
 30
0.0
  0
INSERT
  5
3D3
330
15
100
AcDbEntity
  8
IMP_EC_PLATE-NPTH_DRL
100
AcDbBlockReference
  2
ROUND_5
 10
116.41836
 20
-184.17286
 30
0.0
  0
INSERT
  5
3D4
330
15
100
AcDbEntity
  8
IMP_EC_PLATE-NPTH_DRL
100
AcDbBlockReference
  2
ROUND_5
 10
126.19482
 20
-165.1635
 30
0.0
  0
INSERT
  5
3D5
330
15
100
AcDbEntity
  8
IMP_EC_PLATE-NPTH_DRL
100
AcDbBlockReference
  2
ROUND_5
 10
135.74522
 20
-146.14398
 30
0.0
  0
INSERT
  5
3D6
330
15
100
AcDbEntity
  8
IMP_EC_PLATE-NPTH_DRL
100
AcDbBlockReference
  2
ROUND_5
 10
140.45438
 20
-108.1024
 30
0.0
  0
INSERT
  5
3D7
330
15
100
AcDbEntity
  8
IMP_EC_PLATE-NPTH_DRL
100
AcDbBlockReference
  2
ROUND_5
 10
147.49018
 20
-85.00364
 30
0.0
  0
INSERT
  5
3D8
330
15
100
AcDbEntity
  8
IMP_EC_PLATE-NPTH_DRL
100
AcDbBlockReference
  2
ROUND_5
 10
149.91588
 20
-127.12446
 30
0.0
  0
INSERT
  5
3D9
330
15
100
AcDbEntity
  8
IMP_EC_PLATE-NPTH_DRL
100
AcDbBlockReference
  2
ROUND_5
 10
159.30118
 20
-188.67374
 30
0.0
  0
INSERT
  5
3DA
330
15
100
AcDbEntity
  8
IMP_EC_PLATE-NPTH_DRL
100
AcDbBlockReference
  2
ROUND_5
 10
202.19416
 20
-165.1635
 30
0.0
  0
INSERT
  5
3DB
330
15
100
AcDbEntity
  8
IMP_EC_PLATE-NPTH_DRL
100
AcDbBlockReference
  2
ROUND_5
 10
211.76488
 20
-146.14398
 30
0.0
  0
INSERT
  5
3DC
330
15
100
AcDbEntity
  8
IMP_EC_PLATE-NPTH_DRL
100
AcDbBlockReference
  2
ROUND_5
 10
216.45118
 20
-188.67374
 30
0.0
  0
INSERT
  5
3DD
330
15
100
AcDbEntity
  8
IMP_EC_PLATE-NPTH_DRL
100
AcDbBlockReference
  2
ROUND_5
 10
216.535
 20
-108.1024
 30
0.0
  0
INSERT
  5
3DE
330
15
100
AcDbEntity
  8
IMP_EC_PLATE-NPTH_DRL
100
AcDbBlockReference
  2
ROUND_5
 10
225.99396
 20
-127.12446
 30
0.0
  0
INSERT
  5
3DF
330
15
100
AcDbEntity
  8
IMP_EC_PLATE-NPTH_DRL
100
AcDbBlockReference
  2
ROUND_5
 10
228.23932
 20
-85.00364
 30
0.0
  0
INSERT
  5
3E0
330
15
100
AcDbEntity
  8
IMP_EC_PLATE-NPTH_DRL
100
AcDbBlockReference
  2
ROUND_5
 10
259.18668
 20
-184.17286
 30
0.0
  0
INSERT
  5
3E1
330
15
100
AcDbEntity
  8
IMP_EC_PLATE-NPTH_DRL
100
AcDbBlockReference
  2
ROUND_5
 10
273.60626
 20
-108.1024
 30
0.0
  0
INSERT
  5
3E2
330
15
100
AcDbEntity
  8
IMP_EC_PLATE-NPTH_DRL
100
AcDbBlockReference
  2
ROUND_5
 10
278.19604
 20
-165.1635
 30
0.0
  0
INSERT
  5
3E3
330
15
100
AcDbEntity
  8
IMP_EC_PLATE-NPTH_DRL
100
AcDbBlockReference
  2
ROUND_5
 10
283.06522
 20
-127.12446
 30
0.0
  0
INSERT
  5
3E4
330
15
100
AcDbEntity
  8
IMP_EC_PLATE-NPTH_DRL
100
AcDbBlockReference
  2
ROUND_5
 10
287.78454
 20
-146.14398
 30
0.0
  0
INSERT
  5
3E5
330
15
100
AcDbEntity
  8
IMP_EC_PLATE-NPTH_DRL
100
AcDbBlockReference
  2
ROUND_5
 10
309.01386
 20
-85.00364
 30
0.0
  0
INSERT
  5
3E6
330
15
100
AcDbEntity
  8
IMP_EC_PLATE-NPTH_DRL
100
AcDbBlockReference
  2
ROUND_5
 10
330.03236
 20
-127.12446
 30
0.0
  0
INSERT
  5
3E7
330
15
100
AcDbEntity
  8
IMP_EC_PLATE-NPTH_DRL
100
AcDbBlockReference
  2
ROUND_5
 10
330.03236
 20
-155.65374
 30
0.0
  0
INSERT
  5
3E8
330
15
100
AcDbEntity
  8
IMP_EC_PLATE-NPTH_DRL
100
AcDbBlockReference
  2
ROUND_5
 10
330.03236
 20
-184.17286
 30
0.0
  0
INSERT
  5
3E9
330
15
100
AcDbEntity
  8
IMP_EC_PLATE-NPTH_DRL
100
AcDbBlockReference
  2
ROUND_5
 10
334.44434
 20
-108.1278
 30
0.0
  0
INSERT
  5
3EA
330
15
100
AcDbEntity
  8
IMP_EC_PLATE-NPTH_DRL
100
AcDbBlockReference
  2
ROUND_5
 10
353.44862
 20
-165.2778
 30
0.0
  0
INSERT
  5
3EB
330
15
100
AcDbEntity
  8
IMP_EC_PLATE-NPTH_DRL
100
AcDbBlockReference
  2
ROUND_5
 10
353.44862
 20
-184.29732
 30
0.0
  0
INSERT
  5
3EC
330
15
100
AcDbEntity
  8
IMP_EC_PLATE-NPTH_DRL
100
AcDbBlockReference
  2
ROUND_5
 10
372.46814
 20
-184.29732
 30
0.0
  0
INSERT
  5
3ED
330
15
100
AcDbEntity
  8
IMP_EC_PLATE-NPTH_DRL
100
AcDbBlockReference
  2
ROUND_5
 10
372.48338
 20
-85.00618
 30
0.0
  0
INSERT
  5
3EE
330
15
100
AcDbEntity
  8
IMP_EC_PLATE-NPTH_DRL
100
AcDbBlockReference
  2
ROUND_5
 10
372.48338
 20
-127.14732
 30
0.0
  0
INSERT
  5
3EF
330
15
100
AcDbEntity
  8
IMP_EC_PLATE-NPTH_DRL
100
AcDbBlockReference
  2
ROUND_5
 10
372.49862
 20
-165.2778
 30
0.0
  0
ENDSEC
  0
SECTION
  2
OBJECTS
  0
DICTIONARY
  5
1B
102
{ACAD_REACTORS
330
0
102
}
330
0
100
AcDbDictionary
280
     1
281
     0
  3
ACAD_GROUP
350
1C
  3
ACAD_LAYOUT
350
1D
  3
ACAD_MLINESTYLE
350
20
  0
DICTIONARY
  5
1C
102
{ACAD_REACTORS
330
1B
102
}
330
1B
100
AcDbDictionary
280
     1
281
     0
  0
DICTIONARY
  5
1D
102
{ACAD_REACTORS
330
1B
102
}
330
1B
100
AcDbDictionary
280
     1
281
     0
  3
Model
350
1E
  3
Layout1
350
1F
  0
LAYOUT
  5
1E
102
{ACAD_REACTORS
330
1D
102
}
330
1D
100
AcDbPlotSettings
  1

  2
none_device
  4
ISO_A4_(210.00_x_297.00_MM)
 40
0.0
 41
0.0
 42
0.0
 43
0.0
 44
210.0
 45
297.0
 46
0.0
 47
0.0
 48
0.0
 49
0.0
140
0.0
141
0.0
141
1.0
143
1.0
 72
     1
 73
     0
 74
     5
  7

 75
    16
147
1.0
 76
     0
 77
     2
148
0.0
149
0.0
100
AcDbLayout
  1
Model
 70
     1
 71
     0
 10
43.52506
 20
-200.403332
 11
392.97506
 21
-68.953332
 12
0.0
 22
0.0
 32
0.0
 14
43.52506
 24
-200.403332
 34
0.0
 15
392.97506
 25
-68.953332
 35
0.0
146
0.0
 13
0.0
 23
0.0
 33
0.0
 16
1.0
 26
0.0
 36
0.0
 17
0.0
 27
1.0
 37
0.0
 76
     0
330
15
  0
LAYOUT
  5
1F
102
{ACAD_REACTORS
330
1D
102
}
330
1D
100
AcDbPlotSettings
  1

  2
none_device
  4

 40
0.0
 41
0.0
 42
0.0
 43
0.0
 44
0.0
 45
0.0
 46
0.0
 47
0.0
 48
0.0
 49
0.0
140
0.0
141
0.0
141
1.0
143
1.0
 72
     1
 73
     0
 74
     5
  7

 75
    16
147
1.0
 76
     0
 77
     2
148
0.0
149
0.0
100
AcDbLayout
  1
Layout1
 70
     1
 71
     1
 10
100000000000000000000.0
 20
100000000000000000000.0
 11
-100000000000000000000.0
 21
-100000000000000000000.0
 12
0.0
 22
0.0
 32
0.0
 14
100000000000000000000.0
 24
100000000000000000000.0
 34
0.0
 15
-100000000000000000000.0
 25
-100000000000000000000.0
 35
0.0
146
0.0
 13
0.0
 23
0.0
 33
0.0
 16
1.0
 26
0.0
 36
0.0
 17
0.0
 27
1.0
 37
0.0
 76
     0
330
16
  0
DICTIONARY
  5
20
102
{ACAD_REACTORS
330
1B
102
}
330
1B
100
AcDbDictionary
280
     1
281
     0
  0
ENDSEC
  0
EOF
