  0
SECTION
  2
HEADER
  9
$EXTNAMES
290
1
  9
$EXTMIN
 10
43.52506
 20
-200.403332
 30
0.00
  9
$EXTMAX
 10
392.97506
 20
-68.953332
 30
0.00
  0
ENDSEC
  0
SECTION
  2
TABLES
  0
TABLE
  2
LTYPE
 70
3
  0
LTYPE
  2
BYBLOCK
 70
0
  3

 72
65
 73
0
 40
0.00
  0
LTYPE
  2
BYLAYER
 70
0
  3

 72
65
 73
0
 40
0.00
  0
LTYPE
  2
CONTINUOUS
 70
0
  3
Solid line
 72
65
 73
0
 40
0.00
  0
ENDTAB
  0
TABLE
  2
LAYER
 70
8
  0
LAYER
  2
0
 70
0
 62
7
  6
CONTINUOUS
  0
LAYER
  2
IMP_EC_PLATE_ISO-B_CU_GBR
 70
0
 62
7
  6
CONTINUOUS
  0
LAYER
  2
IMP_EC_PLATE_ISO-B_MASK_GBR
 70
0
 62
6
  6
CONTINUOUS
  0
LAYER
  2
IMP_EC_PLATE_ISO-B_SILKS_GBR
 70
0
 62
1
  6
CONTINUOUS
  0
LAYER
  2
IMP_EC_PLATE_ISO-EDGE_CUTS_GBR
 70
0
 62
4
  6
CONTINUOUS
  0
LAYER
  2
IMP_EC_PLATE_ISO-F_CU_GBR
 70
0
 62
3
  6
CONTINUOUS
  0
LAYER
  2
IMP_EC_PLATE_ISO-F_MASK_GBR
 70
0
 62
5
  6
CONTINUOUS
  0
LAYER
  2
IMP_EC_PLATE_ISO-NPTH_DRL
 70
0
 62
10
  6
CONTINUOUS
  0
ENDTAB
  0
TABLE
  2
STYLE
 70
0
  0
ENDTAB
  0
ENDSEC
  0
SECTION
  2
BLOCKS
  0
BLOCK
  2
ROUND_1
  3
ROUND_1
 70
64
 10
0.00
 20
0.00
 30
0.00
  0
CIRCLE
  8
0
 10
0.00
 20
0.00
 30
0.00
 40
0.127
  0
ENDBLK
  0
BLOCK
  2
ROUND_3
  3
ROUND_3
 70
64
 10
0.00
 20
0.00
 30
0.00
  0
CIRCLE
  8
0
 10
0.00
 20
0.00
 30
0.00
 40
0.90
  0
ENDBLK
  0
BLOCK
  2
ROUND_4
  3
ROUND_4
 70
64
 10
0.00
 20
0.00
 30
0.00
  0
CIRCLE
  8
0
 10
0.00
 20
0.00
 30
0.00
 40
0.10
  0
ENDBLK
  0
BLOCK
  2
ROUND_5
  3
ROUND_5
 70
64
 10
0.00
 20
0.00
 30
0.00
  0
CIRCLE
  8
0
 10
0.00
 20
0.00
 30
0.00
 40
0.90043
  0
ENDBLK
  0
ENDSEC
  0
SECTION
  2
ENTITIES
  0
INSERT
  2
ROUND_3
  8
IMP_EC_PLATE_ISO-B_MASK_GBR
 10
273.60506
 20
-108.103332
 30
0.00
 41
1.00
 42
1.00
 50
0.00
  0
INSERT
  2
ROUND_3
  8
IMP_EC_PLATE_ISO-B_MASK_GBR
 10
147.49006
 20
-85.003332
 30
0.00
 41
1.00
 42
1.00
 50
0.00
  0
INSERT
  2
ROUND_3
  8
IMP_EC_PLATE_ISO-B_MASK_GBR
 10
159.300008
 20
-188.673332
 30
0.00
 41
1.00
 42
1.00
 50
0.00
  0
INSERT
  2
ROUND_3
  8
IMP_EC_PLATE_ISO-B_MASK_GBR
 10
309.01506
 20
-85.003332
 30
0.00
 41
1.00
 42
1.00
 50
0.00
  0
INSERT
  2
ROUND_3
  8
IMP_EC_PLATE_ISO-B_MASK_GBR
 10
228.24006
 20
-85.003332
 30
0.00
 41
1.00
 42
1.00
 50
0.00
  0
INSERT
  2
ROUND_3
  8
IMP_EC_PLATE_ISO-B_MASK_GBR
 10
216.53506
 20
-108.103332
 30
0.00
 41
1.00
 42
1.00
 50
0.00
  0
INSERT
  2
ROUND_3
  8
IMP_EC_PLATE_ISO-B_MASK_GBR
 10
283.06506
 20
-127.123332
 30
0.00
 41
1.00
 42
1.00
 50
0.00
  0
INSERT
  2
ROUND_3
  8
IMP_EC_PLATE_ISO-B_MASK_GBR
 10
116.418596
 20
-184.173332
 30
0.00
 41
1.00
 42
1.00
 50
0.00
  0
INSERT
  2
ROUND_3
  8
IMP_EC_PLATE_ISO-B_MASK_GBR
 10
334.444268
 20
-108.126884
 30
0.00
 41
1.00
 42
1.00
 50
0.00
  0
INSERT
  2
ROUND_3
  8
IMP_EC_PLATE_ISO-B_MASK_GBR
 10
353.449268
 20
-184.296884
 30
0.00
 41
1.00
 42
1.00
 50
0.00
  0
INSERT
  2
ROUND_3
  8
IMP_EC_PLATE_ISO-B_MASK_GBR
 10
330.033388
 20
-184.173332
 30
0.00
 41
1.00
 42
1.00
 50
0.00
  0
INSERT
  2
ROUND_3
  8
IMP_EC_PLATE_ISO-B_MASK_GBR
 10
202.19506
 20
-165.163332
 30
0.00
 41
1.00
 42
1.00
 50
0.00
  0
INSERT
  2
ROUND_3
  8
IMP_EC_PLATE_ISO-B_MASK_GBR
 10
47.51006
 20
-146.143332
 30
0.00
 41
1.00
 42
1.00
 50
0.00
  0
INSERT
  2
ROUND_3
  8
IMP_EC_PLATE_ISO-B_MASK_GBR
 10
64.37506
 20
-108.103332
 30
0.00
 41
1.00
 42
1.00
 50
0.00
  0
INSERT
  2
ROUND_3
  8
IMP_EC_PLATE_ISO-B_MASK_GBR
 10
287.78506
 20
-146.143332
 30
0.00
 41
1.00
 42
1.00
 50
0.00
  0
INSERT
  2
ROUND_3
  8
IMP_EC_PLATE_ISO-B_MASK_GBR
 10
259.187508
 20
-184.173332
 30
0.00
 41
1.00
 42
1.00
 50
0.00
  0
INSERT
  2
ROUND_3
  8
IMP_EC_PLATE_ISO-B_MASK_GBR
 10
64.37506
 20
-85.00679
 30
0.00
 41
1.00
 42
1.00
 50
0.00
  0
INSERT
  2
ROUND_3
  8
IMP_EC_PLATE_ISO-B_MASK_GBR
 10
216.450008
 20
-188.673332
 30
0.00
 41
1.00
 42
1.00
 50
0.00
  0
INSERT
  2
ROUND_3
  8
IMP_EC_PLATE_ISO-B_MASK_GBR
 10
278.19506
 20
-165.163332
 30
0.00
 41
1.00
 42
1.00
 50
0.00
  0
INSERT
  2
ROUND_3
  8
IMP_EC_PLATE_ISO-B_MASK_GBR
 10
372.484268
 20
-85.00679
 30
0.00
 41
1.00
 42
1.00
 50
0.00
  0
INSERT
  2
ROUND_3
  8
IMP_EC_PLATE_ISO-B_MASK_GBR
 10
47.086592
 20
-184.173332
 30
0.00
 41
1.00
 42
1.00
 50
0.00
  0
INSERT
  2
ROUND_3
  8
IMP_EC_PLATE_ISO-B_MASK_GBR
 10
211.76506
 20
-146.143332
 30
0.00
 41
1.00
 42
1.00
 50
0.00
  0
INSERT
  2
ROUND_3
  8
IMP_EC_PLATE_ISO-B_MASK_GBR
 10
372.484268
 20
-127.146884
 30
0.00
 41
1.00
 42
1.00
 50
0.00
  0
INSERT
  2
ROUND_3
  8
IMP_EC_PLATE_ISO-B_MASK_GBR
 10
330.033388
 20
-155.653332
 30
0.00
 41
1.00
 42
1.00
 50
0.00
  0
INSERT
  2
ROUND_3
  8
IMP_EC_PLATE_ISO-B_MASK_GBR
 10
140.45506
 20
-108.103332
 30
0.00
 41
1.00
 42
1.00
 50
0.00
  0
INSERT
  2
ROUND_3
  8
IMP_EC_PLATE_ISO-B_MASK_GBR
 10
372.499268
 20
-165.276884
 30
0.00
 41
1.00
 42
1.00
 50
0.00
  0
INSERT
  2
ROUND_3
  8
IMP_EC_PLATE_ISO-B_MASK_GBR
 10
149.91506
 20
-127.123332
 30
0.00
 41
1.00
 42
1.00
 50
0.00
  0
INSERT
  2
ROUND_3
  8
IMP_EC_PLATE_ISO-B_MASK_GBR
 10
126.19506
 20
-165.163332
 30
0.00
 41
1.00
 42
1.00
 50
0.00
  0
INSERT
  2
ROUND_3
  8
IMP_EC_PLATE_ISO-B_MASK_GBR
 10
135.74506
 20
-146.143332
 30
0.00
 41
1.00
 42
1.00
 50
0.00
  0
INSERT
  2
ROUND_3
  8
IMP_EC_PLATE_ISO-B_MASK_GBR
 10
225.99506
 20
-127.123332
 30
0.00
 41
1.00
 42
1.00
 50
0.00
  0
INSERT
  2
ROUND_3
  8
IMP_EC_PLATE_ISO-B_MASK_GBR
 10
330.033388
 20
-127.123332
 30
0.00
 41
1.00
 42
1.00
 50
0.00
  0
INSERT
  2
ROUND_3
  8
IMP_EC_PLATE_ISO-B_MASK_GBR
 10
353.449268
 20
-165.276884
 30
0.00
 41
1.00
 42
1.00
 50
0.00
  0
INSERT
  2
ROUND_3
  8
IMP_EC_PLATE_ISO-B_MASK_GBR
 10
88.19506
 20
-165.163332
 30
0.00
 41
1.00
 42
1.00
 50
0.00
  0
INSERT
  2
ROUND_3
  8
IMP_EC_PLATE_ISO-B_MASK_GBR
 10
69.10506
 20
-127.123332
 30
0.00
 41
1.00
 42
1.00
 50
0.00
  0
INSERT
  2
ROUND_3
  8
IMP_EC_PLATE_ISO-B_MASK_GBR
 10
372.469268
 20
-184.296884
 30
0.00
 41
1.00
 42
1.00
 50
0.00
  0
POLYLINE
  8
IMP_EC_PLATE_ISO-B_SILKS_GBR
 66
1
 10
0.00
 20
0.00
 30
0.00
 70
1
 40
0.20
 41
0.20
  0
VERTEX
  8
IMP_EC_PLATE_ISO-B_SILKS_GBR
 10
272.20506
 20
-108.103332
 30
0.00
 42
1
  0
VERTEX
  8
IMP_EC_PLATE_ISO-B_SILKS_GBR
 10
275.00506
 20
-108.103332
 30
0.00
 42
1
  0
SEQEND
  0
POLYLINE
  8
IMP_EC_PLATE_ISO-B_SILKS_GBR
 66
1
 10
0.00
 20
0.00
 30
0.00
 70
1
 40
0.20
 41
0.20
  0
VERTEX
  8
IMP_EC_PLATE_ISO-B_SILKS_GBR
 10
146.09006
 20
-85.003332
 30
0.00
 42
1
  0
VERTEX
  8
IMP_EC_PLATE_ISO-B_SILKS_GBR
 10
148.89006
 20
-85.003332
 30
0.00
 42
1
  0
SEQEND
  0
POLYLINE
  8
IMP_EC_PLATE_ISO-B_SILKS_GBR
 66
1
 10
0.00
 20
0.00
 30
0.00
 70
1
 40
0.20
 41
0.20
  0
VERTEX
  8
IMP_EC_PLATE_ISO-B_SILKS_GBR
 10
157.900008
 20
-188.673332
 30
0.00
 42
1
  0
VERTEX
  8
IMP_EC_PLATE_ISO-B_SILKS_GBR
 10
160.700008
 20
-188.673332
 30
0.00
 42
1
  0
SEQEND
  0
POLYLINE
  8
IMP_EC_PLATE_ISO-B_SILKS_GBR
 66
1
 10
0.00
 20
0.00
 30
0.00
 70
1
 40
0.20
 41
0.20
  0
VERTEX
  8
IMP_EC_PLATE_ISO-B_SILKS_GBR
 10
307.61506
 20
-85.003332
 30
0.00
 42
1
  0
VERTEX
  8
IMP_EC_PLATE_ISO-B_SILKS_GBR
 10
310.41506
 20
-85.003332
 30
0.00
 42
1
  0
SEQEND
  0
POLYLINE
  8
IMP_EC_PLATE_ISO-B_SILKS_GBR
 66
1
 10
0.00
 20
0.00
 30
0.00
 70
1
 40
0.20
 41
0.20
  0
VERTEX
  8
IMP_EC_PLATE_ISO-B_SILKS_GBR
 10
226.84006
 20
-85.003332
 30
0.00
 42
1
  0
VERTEX
  8
IMP_EC_PLATE_ISO-B_SILKS_GBR
 10
229.64006
 20
-85.003332
 30
0.00
 42
1
  0
SEQEND
  0
POLYLINE
  8
IMP_EC_PLATE_ISO-B_SILKS_GBR
 66
1
 10
0.00
 20
0.00
 30
0.00
 70
1
 40
0.20
 41
0.20
  0
VERTEX
  8
IMP_EC_PLATE_ISO-B_SILKS_GBR
 10
215.13506
 20
-108.103332
 30
0.00
 42
1
  0
VERTEX
  8
IMP_EC_PLATE_ISO-B_SILKS_GBR
 10
217.93506
 20
-108.103332
 30
0.00
 42
1
  0
SEQEND
  0
POLYLINE
  8
IMP_EC_PLATE_ISO-B_SILKS_GBR
 66
1
 10
0.00
 20
0.00
 30
0.00
 70
1
 40
0.20
 41
0.20
  0
VERTEX
  8
IMP_EC_PLATE_ISO-B_SILKS_GBR
 10
281.66506
 20
-127.123332
 30
0.00
 42
1
  0
VERTEX
  8
IMP_EC_PLATE_ISO-B_SILKS_GBR
 10
284.46506
 20
-127.123332
 30
0.00
 42
1
  0
SEQEND
  0
POLYLINE
  8
IMP_EC_PLATE_ISO-B_SILKS_GBR
 66
1
 10
0.00
 20
0.00
 30
0.00
 70
1
 40
0.20
 41
0.20
  0
VERTEX
  8
IMP_EC_PLATE_ISO-B_SILKS_GBR
 10
115.018596
 20
-184.173332
 30
0.00
 42
1
  0
VERTEX
  8
IMP_EC_PLATE_ISO-B_SILKS_GBR
 10
117.818596
 20
-184.173332
 30
0.00
 42
1
  0
SEQEND
  0
POLYLINE
  8
IMP_EC_PLATE_ISO-B_SILKS_GBR
 66
1
 10
0.00
 20
0.00
 30
0.00
 70
1
 40
0.20
 41
0.20
  0
VERTEX
  8
IMP_EC_PLATE_ISO-B_SILKS_GBR
 10
333.044268
 20
-108.126884
 30
0.00
 42
1
  0
VERTEX
  8
IMP_EC_PLATE_ISO-B_SILKS_GBR
 10
335.844268
 20
-108.126884
 30
0.00
 42
1
  0
SEQEND
  0
POLYLINE
  8
IMP_EC_PLATE_ISO-B_SILKS_GBR
 66
1
 10
0.00
 20
0.00
 30
0.00
 70
1
 40
0.20
 41
0.20
  0
VERTEX
  8
IMP_EC_PLATE_ISO-B_SILKS_GBR
 10
352.049268
 20
-184.296884
 30
0.00
 42
1
  0
VERTEX
  8
IMP_EC_PLATE_ISO-B_SILKS_GBR
 10
354.849268
 20
-184.296884
 30
0.00
 42
1
  0
SEQEND
  0
POLYLINE
  8
IMP_EC_PLATE_ISO-B_SILKS_GBR
 66
1
 10
0.00
 20
0.00
 30
0.00
 70
1
 40
0.20
 41
0.20
  0
VERTEX
  8
IMP_EC_PLATE_ISO-B_SILKS_GBR
 10
328.633388
 20
-184.173332
 30
0.00
 42
1
  0
VERTEX
  8
IMP_EC_PLATE_ISO-B_SILKS_GBR
 10
331.433388
 20
-184.173332
 30
0.00
 42
1
  0
SEQEND
  0
POLYLINE
  8
IMP_EC_PLATE_ISO-B_SILKS_GBR
 66
1
 10
0.00
 20
0.00
 30
0.00
 70
1
 40
0.20
 41
0.20
  0
VERTEX
  8
IMP_EC_PLATE_ISO-B_SILKS_GBR
 10
200.79506
 20
-165.163332
 30
0.00
 42
1
  0
VERTEX
  8
IMP_EC_PLATE_ISO-B_SILKS_GBR
 10
203.59506
 20
-165.163332
 30
0.00
 42
1
  0
SEQEND
  0
POLYLINE
  8
IMP_EC_PLATE_ISO-B_SILKS_GBR
 66
1
 10
0.00
 20
0.00
 30
0.00
 70
1
 40
0.20
 41
0.20
  0
VERTEX
  8
IMP_EC_PLATE_ISO-B_SILKS_GBR
 10
46.11006
 20
-146.143332
 30
0.00
 42
1
  0
VERTEX
  8
IMP_EC_PLATE_ISO-B_SILKS_GBR
 10
48.91006
 20
-146.143332
 30
0.00
 42
1
  0
SEQEND
  0
POLYLINE
  8
IMP_EC_PLATE_ISO-B_SILKS_GBR
 66
1
 10
0.00
 20
0.00
 30
0.00
 70
1
 40
0.20
 41
0.20
  0
VERTEX
  8
IMP_EC_PLATE_ISO-B_SILKS_GBR
 10
62.97506
 20
-108.103332
 30
0.00
 42
1
  0
VERTEX
  8
IMP_EC_PLATE_ISO-B_SILKS_GBR
 10
65.77506
 20
-108.103332
 30
0.00
 42
1
  0
SEQEND
  0
POLYLINE
  8
IMP_EC_PLATE_ISO-B_SILKS_GBR
 66
1
 10
0.00
 20
0.00
 30
0.00
 70
1
 40
0.20
 41
0.20
  0
VERTEX
  8
IMP_EC_PLATE_ISO-B_SILKS_GBR
 10
286.38506
 20
-146.143332
 30
0.00
 42
1
  0
VERTEX
  8
IMP_EC_PLATE_ISO-B_SILKS_GBR
 10
289.18506
 20
-146.143332
 30
0.00
 42
1
  0
SEQEND
  0
POLYLINE
  8
IMP_EC_PLATE_ISO-B_SILKS_GBR
 66
1
 10
0.00
 20
0.00
 30
0.00
 70
1
 40
0.20
 41
0.20
  0
VERTEX
  8
IMP_EC_PLATE_ISO-B_SILKS_GBR
 10
257.787508
 20
-184.173332
 30
0.00
 42
1
  0
VERTEX
  8
IMP_EC_PLATE_ISO-B_SILKS_GBR
 10
260.587508
 20
-184.173332
 30
0.00
 42
1
  0
SEQEND
  0
POLYLINE
  8
IMP_EC_PLATE_ISO-B_SILKS_GBR
 66
1
 10
0.00
 20
0.00
 30
0.00
 70
1
 40
0.20
 41
0.20
  0
VERTEX
  8
IMP_EC_PLATE_ISO-B_SILKS_GBR
 10
62.97506
 20
-85.00679
 30
0.00
 42
1
  0
VERTEX
  8
IMP_EC_PLATE_ISO-B_SILKS_GBR
 10
65.77506
 20
-85.00679
 30
0.00
 42
1
  0
SEQEND
  0
POLYLINE
  8
IMP_EC_PLATE_ISO-B_SILKS_GBR
 66
1
 10
0.00
 20
0.00
 30
0.00
 70
1
 40
0.20
 41
0.20
  0
VERTEX
  8
IMP_EC_PLATE_ISO-B_SILKS_GBR
 10
215.050008
 20
-188.673332
 30
0.00
 42
1
  0
VERTEX
  8
IMP_EC_PLATE_ISO-B_SILKS_GBR
 10
217.850008
 20
-188.673332
 30
0.00
 42
1
  0
SEQEND
  0
POLYLINE
  8
IMP_EC_PLATE_ISO-B_SILKS_GBR
 66
1
 10
0.00
 20
0.00
 30
0.00
 70
1
 40
0.20
 41
0.20
  0
VERTEX
  8
IMP_EC_PLATE_ISO-B_SILKS_GBR
 10
276.79506
 20
-165.163332
 30
0.00
 42
1
  0
VERTEX
  8
IMP_EC_PLATE_ISO-B_SILKS_GBR
 10
279.59506
 20
-165.163332
 30
0.00
 42
1
  0
SEQEND
  0
POLYLINE
  8
IMP_EC_PLATE_ISO-B_SILKS_GBR
 66
1
 10
0.00
 20
0.00
 30
0.00
 70
1
 40
0.20
 41
0.20
  0
VERTEX
  8
IMP_EC_PLATE_ISO-B_SILKS_GBR
 10
371.084268
 20
-85.00679
 30
0.00
 42
1
  0
VERTEX
  8
IMP_EC_PLATE_ISO-B_SILKS_GBR
 10
373.884268
 20
-85.00679
 30
0.00
 42
1
  0
SEQEND
  0
POLYLINE
  8
IMP_EC_PLATE_ISO-B_SILKS_GBR
 66
1
 10
0.00
 20
0.00
 30
0.00
 70
1
 40
0.20
 41
0.20
  0
VERTEX
  8
IMP_EC_PLATE_ISO-B_SILKS_GBR
 10
45.686592
 20
-184.173332
 30
0.00
 42
1
  0
VERTEX
  8
IMP_EC_PLATE_ISO-B_SILKS_GBR
 10
48.486592
 20
-184.173332
 30
0.00
 42
1
  0
SEQEND
  0
POLYLINE
  8
IMP_EC_PLATE_ISO-B_SILKS_GBR
 66
1
 10
0.00
 20
0.00
 30
0.00
 70
1
 40
0.20
 41
0.20
  0
VERTEX
  8
IMP_EC_PLATE_ISO-B_SILKS_GBR
 10
210.36506
 20
-146.143332
 30
0.00
 42
1
  0
VERTEX
  8
IMP_EC_PLATE_ISO-B_SILKS_GBR
 10
213.16506
 20
-146.143332
 30
0.00
 42
1
  0
SEQEND
  0
POLYLINE
  8
IMP_EC_PLATE_ISO-B_SILKS_GBR
 66
1
 10
0.00
 20
0.00
 30
0.00
 70
1
 40
0.20
 41
0.20
  0
VERTEX
  8
IMP_EC_PLATE_ISO-B_SILKS_GBR
 10
371.084268
 20
-127.146884
 30
0.00
 42
1
  0
VERTEX
  8
IMP_EC_PLATE_ISO-B_SILKS_GBR
 10
373.884268
 20
-127.146884
 30
0.00
 42
1
  0
SEQEND
  0
POLYLINE
  8
IMP_EC_PLATE_ISO-B_SILKS_GBR
 66
1
 10
0.00
 20
0.00
 30
0.00
 70
1
 40
0.20
 41
0.20
  0
VERTEX
  8
IMP_EC_PLATE_ISO-B_SILKS_GBR
 10
328.633388
 20
-155.653332
 30
0.00
 42
1
  0
VERTEX
  8
IMP_EC_PLATE_ISO-B_SILKS_GBR
 10
331.433388
 20
-155.653332
 30
0.00
 42
1
  0
SEQEND
  0
POLYLINE
  8
IMP_EC_PLATE_ISO-B_SILKS_GBR
 66
1
 10
0.00
 20
0.00
 30
0.00
 70
1
 40
0.20
 41
0.20
  0
VERTEX
  8
IMP_EC_PLATE_ISO-B_SILKS_GBR
 10
139.05506
 20
-108.103332
 30
0.00
 42
1
  0
VERTEX
  8
IMP_EC_PLATE_ISO-B_SILKS_GBR
 10
141.85506
 20
-108.103332
 30
0.00
 42
1
  0
SEQEND
  0
POLYLINE
  8
IMP_EC_PLATE_ISO-B_SILKS_GBR
 66
1
 10
0.00
 20
0.00
 30
0.00
 70
1
 40
0.20
 41
0.20
  0
VERTEX
  8
IMP_EC_PLATE_ISO-B_SILKS_GBR
 10
371.099268
 20
-165.276884
 30
0.00
 42
1
  0
VERTEX
  8
IMP_EC_PLATE_ISO-B_SILKS_GBR
 10
373.899268
 20
-165.276884
 30
0.00
 42
1
  0
SEQEND
  0
POLYLINE
  8
IMP_EC_PLATE_ISO-B_SILKS_GBR
 66
1
 10
0.00
 20
0.00
 30
0.00
 70
1
 40
0.20
 41
0.20
  0
VERTEX
  8
IMP_EC_PLATE_ISO-B_SILKS_GBR
 10
148.51506
 20
-127.123332
 30
0.00
 42
1
  0
VERTEX
  8
IMP_EC_PLATE_ISO-B_SILKS_GBR
 10
151.31506
 20
-127.123332
 30
0.00
 42
1
  0
SEQEND
  0
POLYLINE
  8
IMP_EC_PLATE_ISO-B_SILKS_GBR
 66
1
 10
0.00
 20
0.00
 30
0.00
 70
1
 40
0.20
 41
0.20
  0
VERTEX
  8
IMP_EC_PLATE_ISO-B_SILKS_GBR
 10
124.79506
 20
-165.163332
 30
0.00
 42
1
  0
VERTEX
  8
IMP_EC_PLATE_ISO-B_SILKS_GBR
 10
127.59506
 20
-165.163332
 30
0.00
 42
1
  0
SEQEND
  0
POLYLINE
  8
IMP_EC_PLATE_ISO-B_SILKS_GBR
 66
1
 10
0.00
 20
0.00
 30
0.00
 70
1
 40
0.20
 41
0.20
  0
VERTEX
  8
IMP_EC_PLATE_ISO-B_SILKS_GBR
 10
134.34506
 20
-146.143332
 30
0.00
 42
1
  0
VERTEX
  8
IMP_EC_PLATE_ISO-B_SILKS_GBR
 10
137.14506
 20
-146.143332
 30
0.00
 42
1
  0
SEQEND
  0
POLYLINE
  8
IMP_EC_PLATE_ISO-B_SILKS_GBR
 66
1
 10
0.00
 20
0.00
 30
0.00
 70
1
 40
0.20
 41
0.20
  0
VERTEX
  8
IMP_EC_PLATE_ISO-B_SILKS_GBR
 10
224.59506
 20
-127.123332
 30
0.00
 42
1
  0
VERTEX
  8
IMP_EC_PLATE_ISO-B_SILKS_GBR
 10
227.39506
 20
-127.123332
 30
0.00
 42
1
  0
SEQEND
  0
POLYLINE
  8
IMP_EC_PLATE_ISO-B_SILKS_GBR
 66
1
 10
0.00
 20
0.00
 30
0.00
 70
1
 40
0.20
 41
0.20
  0
VERTEX
  8
IMP_EC_PLATE_ISO-B_SILKS_GBR
 10
328.633388
 20
-127.123332
 30
0.00
 42
1
  0
VERTEX
  8
IMP_EC_PLATE_ISO-B_SILKS_GBR
 10
331.433388
 20
-127.123332
 30
0.00
 42
1
  0
SEQEND
  0
POLYLINE
  8
IMP_EC_PLATE_ISO-B_SILKS_GBR
 66
1
 10
0.00
 20
0.00
 30
0.00
 70
1
 40
0.20
 41
0.20
  0
VERTEX
  8
IMP_EC_PLATE_ISO-B_SILKS_GBR
 10
352.049268
 20
-165.276884
 30
0.00
 42
1
  0
VERTEX
  8
IMP_EC_PLATE_ISO-B_SILKS_GBR
 10
354.849268
 20
-165.276884
 30
0.00
 42
1
  0
SEQEND
  0
POLYLINE
  8
IMP_EC_PLATE_ISO-B_SILKS_GBR
 66
1
 10
0.00
 20
0.00
 30
0.00
 70
1
 40
0.20
 41
0.20
  0
VERTEX
  8
IMP_EC_PLATE_ISO-B_SILKS_GBR
 10
86.79506
 20
-165.163332
 30
0.00
 42
1
  0
VERTEX
  8
IMP_EC_PLATE_ISO-B_SILKS_GBR
 10
89.59506
 20
-165.163332
 30
0.00
 42
1
  0
SEQEND
  0
POLYLINE
  8
IMP_EC_PLATE_ISO-B_SILKS_GBR
 66
1
 10
0.00
 20
0.00
 30
0.00
 70
1
 40
0.20
 41
0.20
  0
VERTEX
  8
IMP_EC_PLATE_ISO-B_SILKS_GBR
 10
67.70506
 20
-127.123332
 30
0.00
 42
1
  0
VERTEX
  8
IMP_EC_PLATE_ISO-B_SILKS_GBR
 10
70.50506
 20
-127.123332
 30
0.00
 42
1
  0
SEQEND
  0
POLYLINE
  8
IMP_EC_PLATE_ISO-B_SILKS_GBR
 66
1
 10
0.00
 20
0.00
 30
0.00
 70
1
 40
0.20
 41
0.20
  0
VERTEX
  8
IMP_EC_PLATE_ISO-B_SILKS_GBR
 10
371.069268
 20
-184.296884
 30
0.00
 42
1
  0
VERTEX
  8
IMP_EC_PLATE_ISO-B_SILKS_GBR
 10
373.869268
 20
-184.296884
 30
0.00
 42
1
  0
SEQEND
  0
POLYLINE
  8
IMP_EC_PLATE_ISO-EDGE_CUTS_GBR
 66
1
 10
0.00
 20
0.00
 30
0.00
 40
0.20
 41
0.20
  0
VERTEX
  8
IMP_EC_PLATE_ISO-EDGE_CUTS_GBR
 10
124.440008
 20
-177.176818
 30
0.00
  0
VERTEX
  8
IMP_EC_PLATE_ISO-EDGE_CUTS_GBR
 10
137.040008
 20
-177.176818
 30
0.00
  0
SEQEND
  0
POLYLINE
  8
IMP_EC_PLATE_ISO-EDGE_CUTS_GBR
 66
1
 10
0.00
 20
0.00
 30
0.00
 40
0.20
 41
0.20
  0
VERTEX
  8
IMP_EC_PLATE_ISO-EDGE_CUTS_GBR
 10
137.040008
 20
-177.176818
 30
0.00
  0
VERTEX
  8
IMP_EC_PLATE_ISO-EDGE_CUTS_GBR
 10
138.040008
 20
-178.176818
 30
0.00
  0
SEQEND
  0
POLYLINE
  8
IMP_EC_PLATE_ISO-EDGE_CUTS_GBR
 66
1
 10
0.00
 20
0.00
 30
0.00
 40
0.20
 41
0.20
  0
VERTEX
  8
IMP_EC_PLATE_ISO-EDGE_CUTS_GBR
 10
138.040008
 20
-178.176818
 30
0.00
  0
VERTEX
  8
IMP_EC_PLATE_ISO-EDGE_CUTS_GBR
 10
138.040008
 20
-190.176818
 30
0.00
  0
SEQEND
  0
POLYLINE
  8
IMP_EC_PLATE_ISO-EDGE_CUTS_GBR
 66
1
 10
0.00
 20
0.00
 30
0.00
 40
0.20
 41
0.20
  0
VERTEX
  8
IMP_EC_PLATE_ISO-EDGE_CUTS_GBR
 10
138.040008
 20
-190.176818
 30
0.00
  0
VERTEX
  8
IMP_EC_PLATE_ISO-EDGE_CUTS_GBR
 10
137.040008
 20
-191.176818
 30
0.00
  0
SEQEND
  0
POLYLINE
  8
IMP_EC_PLATE_ISO-EDGE_CUTS_GBR
 66
1
 10
0.00
 20
0.00
 30
0.00
 40
0.20
 41
0.20
  0
VERTEX
  8
IMP_EC_PLATE_ISO-EDGE_CUTS_GBR
 10
137.040008
 20
-191.176818
 30
0.00
  0
VERTEX
  8
IMP_EC_PLATE_ISO-EDGE_CUTS_GBR
 10
124.440008
 20
-191.176818
 30
0.00
  0
SEQEND
  0
POLYLINE
  8
IMP_EC_PLATE_ISO-EDGE_CUTS_GBR
 66
1
 10
0.00
 20
0.00
 30
0.00
 40
0.20
 41
0.20
  0
VERTEX
  8
IMP_EC_PLATE_ISO-EDGE_CUTS_GBR
 10
123.440008
 20
-178.176818
 30
0.00
  0
VERTEX
  8
IMP_EC_PLATE_ISO-EDGE_CUTS_GBR
 10
124.440008
 20
-177.176818
 30
0.00
  0
SEQEND
  0
POLYLINE
  8
IMP_EC_PLATE_ISO-EDGE_CUTS_GBR
 66
1
 10
0.00
 20
0.00
 30
0.00
 40
0.20
 41
0.20
  0
VERTEX
  8
IMP_EC_PLATE_ISO-EDGE_CUTS_GBR
 10
124.440008
 20
-191.176818
 30
0.00
  0
VERTEX
  8
IMP_EC_PLATE_ISO-EDGE_CUTS_GBR
 10
123.440008
 20
-190.176818
 30
0.00
  0
SEQEND
  0
POLYLINE
  8
IMP_EC_PLATE_ISO-EDGE_CUTS_GBR
 66
1
 10
0.00
 20
0.00
 30
0.00
 40
0.20
 41
0.20
  0
VERTEX
  8
IMP_EC_PLATE_ISO-EDGE_CUTS_GBR
 10
123.440008
 20
-190.176818
 30
0.00
  0
VERTEX
  8
IMP_EC_PLATE_ISO-EDGE_CUTS_GBR
 10
123.440008
 20
-178.176818
 30
0.00
  0
SEQEND
  0
POLYLINE
  8
IMP_EC_PLATE_ISO-EDGE_CUTS_GBR
 66
1
 10
0.00
 20
0.00
 30
0.00
 40
0.20
 41
0.20
  0
VERTEX
  8
IMP_EC_PLATE_ISO-EDGE_CUTS_GBR
 10
219.690008
 20
-177.176818
 30
0.00
  0
VERTEX
  8
IMP_EC_PLATE_ISO-EDGE_CUTS_GBR
 10
232.290008
 20
-177.176818
 30
0.00
  0
SEQEND
  0
POLYLINE
  8
IMP_EC_PLATE_ISO-EDGE_CUTS_GBR
 66
1
 10
0.00
 20
0.00
 30
0.00
 40
0.20
 41
0.20
  0
VERTEX
  8
IMP_EC_PLATE_ISO-EDGE_CUTS_GBR
 10
232.290008
 20
-177.176818
 30
0.00
  0
VERTEX
  8
IMP_EC_PLATE_ISO-EDGE_CUTS_GBR
 10
233.290008
 20
-178.176818
 30
0.00
  0
SEQEND
  0
POLYLINE
  8
IMP_EC_PLATE_ISO-EDGE_CUTS_GBR
 66
1
 10
0.00
 20
0.00
 30
0.00
 40
0.20
 41
0.20
  0
VERTEX
  8
IMP_EC_PLATE_ISO-EDGE_CUTS_GBR
 10
233.290008
 20
-178.176818
 30
0.00
  0
VERTEX
  8
IMP_EC_PLATE_ISO-EDGE_CUTS_GBR
 10
233.290008
 20
-190.176818
 30
0.00
  0
SEQEND
  0
POLYLINE
  8
IMP_EC_PLATE_ISO-EDGE_CUTS_GBR
 66
1
 10
0.00
 20
0.00
 30
0.00
 40
0.20
 41
0.20
  0
VERTEX
  8
IMP_EC_PLATE_ISO-EDGE_CUTS_GBR
 10
233.290008
 20
-190.176818
 30
0.00
  0
VERTEX
  8
IMP_EC_PLATE_ISO-EDGE_CUTS_GBR
 10
232.290008
 20
-191.176818
 30
0.00
  0
SEQEND
  0
POLYLINE
  8
IMP_EC_PLATE_ISO-EDGE_CUTS_GBR
 66
1
 10
0.00
 20
0.00
 30
0.00
 40
0.20
 41
0.20
  0
VERTEX
  8
IMP_EC_PLATE_ISO-EDGE_CUTS_GBR
 10
232.290008
 20
-191.176818
 30
0.00
  0
VERTEX
  8
IMP_EC_PLATE_ISO-EDGE_CUTS_GBR
 10
219.690008
 20
-191.176818
 30
0.00
  0
SEQEND
  0
POLYLINE
  8
IMP_EC_PLATE_ISO-EDGE_CUTS_GBR
 66
1
 10
0.00
 20
0.00
 30
0.00
 40
0.20
 41
0.20
  0
VERTEX
  8
IMP_EC_PLATE_ISO-EDGE_CUTS_GBR
 10
218.690008
 20
-178.176818
 30
0.00
  0
VERTEX
  8
IMP_EC_PLATE_ISO-EDGE_CUTS_GBR
 10
219.690008
 20
-177.176818
 30
0.00
  0
SEQEND
  0
POLYLINE
  8
IMP_EC_PLATE_ISO-EDGE_CUTS_GBR
 66
1
 10
0.00
 20
0.00
 30
0.00
 40
0.20
 41
0.20
  0
VERTEX
  8
IMP_EC_PLATE_ISO-EDGE_CUTS_GBR
 10
219.690008
 20
-191.176818
 30
0.00
  0
VERTEX
  8
IMP_EC_PLATE_ISO-EDGE_CUTS_GBR
 10
218.690008
 20
-190.176818
 30
0.00
  0
SEQEND
  0
POLYLINE
  8
IMP_EC_PLATE_ISO-EDGE_CUTS_GBR
 66
1
 10
0.00
 20
0.00
 30
0.00
 40
0.20
 41
0.20
  0
VERTEX
  8
IMP_EC_PLATE_ISO-EDGE_CUTS_GBR
 10
218.690008
 20
-190.176818
 30
0.00
  0
VERTEX
  8
IMP_EC_PLATE_ISO-EDGE_CUTS_GBR
 10
218.690008
 20
-178.176818
 30
0.00
  0
SEQEND
  0
POLYLINE
  8
IMP_EC_PLATE_ISO-EDGE_CUTS_GBR
 66
1
 10
0.00
 20
0.00
 30
0.00
 40
0.20
 41
0.20
  0
VERTEX
  8
IMP_EC_PLATE_ISO-EDGE_CUTS_GBR
 10
255.966846
 20
-177.173332
 30
0.00
  0
VERTEX
  8
IMP_EC_PLATE_ISO-EDGE_CUTS_GBR
 10
256.966846
 20
-178.173332
 30
0.00
  0
SEQEND
  0
POLYLINE
  8
IMP_EC_PLATE_ISO-EDGE_CUTS_GBR
 66
1
 10
0.00
 20
0.00
 30
0.00
 40
0.20
 41
0.20
  0
VERTEX
  8
IMP_EC_PLATE_ISO-EDGE_CUTS_GBR
 10
243.366846
 20
-177.173332
 30
0.00
  0
VERTEX
  8
IMP_EC_PLATE_ISO-EDGE_CUTS_GBR
 10
255.966846
 20
-177.173332
 30
0.00
  0
SEQEND
  0
POLYLINE
  8
IMP_EC_PLATE_ISO-EDGE_CUTS_GBR
 66
1
 10
0.00
 20
0.00
 30
0.00
 40
0.20
 41
0.20
  0
VERTEX
  8
IMP_EC_PLATE_ISO-EDGE_CUTS_GBR
 10
256.966846
 20
-178.173332
 30
0.00
  0
VERTEX
  8
IMP_EC_PLATE_ISO-EDGE_CUTS_GBR
 10
256.966846
 20
-190.173332
 30
0.00
  0
SEQEND
  0
POLYLINE
  8
IMP_EC_PLATE_ISO-EDGE_CUTS_GBR
 66
1
 10
0.00
 20
0.00
 30
0.00
 40
0.20
 41
0.20
  0
VERTEX
  8
IMP_EC_PLATE_ISO-EDGE_CUTS_GBR
 10
256.966846
 20
-190.173332
 30
0.00
  0
VERTEX
  8
IMP_EC_PLATE_ISO-EDGE_CUTS_GBR
 10
255.966846
 20
-191.173332
 30
0.00
  0
SEQEND
  0
POLYLINE
  8
IMP_EC_PLATE_ISO-EDGE_CUTS_GBR
 66
1
 10
0.00
 20
0.00
 30
0.00
 40
0.20
 41
0.20
  0
VERTEX
  8
IMP_EC_PLATE_ISO-EDGE_CUTS_GBR
 10
255.966846
 20
-191.173332
 30
0.00
  0
VERTEX
  8
IMP_EC_PLATE_ISO-EDGE_CUTS_GBR
 10
243.366846
 20
-191.173332
 30
0.00
  0
SEQEND
  0
POLYLINE
  8
IMP_EC_PLATE_ISO-EDGE_CUTS_GBR
 66
1
 10
0.00
 20
0.00
 30
0.00
 40
0.20
 41
0.20
  0
VERTEX
  8
IMP_EC_PLATE_ISO-EDGE_CUTS_GBR
 10
242.366846
 20
-190.173332
 30
0.00
  0
VERTEX
  8
IMP_EC_PLATE_ISO-EDGE_CUTS_GBR
 10
242.366846
 20
-178.173332
 30
0.00
  0
SEQEND
  0
POLYLINE
  8
IMP_EC_PLATE_ISO-EDGE_CUTS_GBR
 66
1
 10
0.00
 20
0.00
 30
0.00
 40
0.20
 41
0.20
  0
VERTEX
  8
IMP_EC_PLATE_ISO-EDGE_CUTS_GBR
 10
242.366846
 20
-178.173332
 30
0.00
  0
VERTEX
  8
IMP_EC_PLATE_ISO-EDGE_CUTS_GBR
 10
243.366846
 20
-177.173332
 30
0.00
  0
SEQEND
  0
POLYLINE
  8
IMP_EC_PLATE_ISO-EDGE_CUTS_GBR
 66
1
 10
0.00
 20
0.00
 30
0.00
 40
0.20
 41
0.20
  0
VERTEX
  8
IMP_EC_PLATE_ISO-EDGE_CUTS_GBR
 10
243.366846
 20
-191.173332
 30
0.00
  0
VERTEX
  8
IMP_EC_PLATE_ISO-EDGE_CUTS_GBR
 10
242.366846
 20
-190.173332
 30
0.00
  0
SEQEND
  0
POLYLINE
  8
IMP_EC_PLATE_ISO-EDGE_CUTS_GBR
 66
1
 10
0.00
 20
0.00
 30
0.00
 40
0.20
 41
0.20
  0
VERTEX
  8
IMP_EC_PLATE_ISO-EDGE_CUTS_GBR
 10
279.699058
 20
-177.173332
 30
0.00
  0
VERTEX
  8
IMP_EC_PLATE_ISO-EDGE_CUTS_GBR
 10
280.699058
 20
-178.173332
 30
0.00
  0
SEQEND
  0
POLYLINE
  8
IMP_EC_PLATE_ISO-EDGE_CUTS_GBR
 66
1
 10
0.00
 20
0.00
 30
0.00
 40
0.20
 41
0.20
  0
VERTEX
  8
IMP_EC_PLATE_ISO-EDGE_CUTS_GBR
 10
267.099058
 20
-177.173332
 30
0.00
  0
VERTEX
  8
IMP_EC_PLATE_ISO-EDGE_CUTS_GBR
 10
279.699058
 20
-177.173332
 30
0.00
  0
SEQEND
  0
POLYLINE
  8
IMP_EC_PLATE_ISO-EDGE_CUTS_GBR
 66
1
 10
0.00
 20
0.00
 30
0.00
 40
0.20
 41
0.20
  0
VERTEX
  8
IMP_EC_PLATE_ISO-EDGE_CUTS_GBR
 10
280.699058
 20
-178.173332
 30
0.00
  0
VERTEX
  8
IMP_EC_PLATE_ISO-EDGE_CUTS_GBR
 10
280.699058
 20
-190.173332
 30
0.00
  0
SEQEND
  0
POLYLINE
  8
IMP_EC_PLATE_ISO-EDGE_CUTS_GBR
 66
1
 10
0.00
 20
0.00
 30
0.00
 40
0.20
 41
0.20
  0
VERTEX
  8
IMP_EC_PLATE_ISO-EDGE_CUTS_GBR
 10
280.699058
 20
-190.173332
 30
0.00
  0
VERTEX
  8
IMP_EC_PLATE_ISO-EDGE_CUTS_GBR
 10
279.699058
 20
-191.173332
 30
0.00
  0
SEQEND
  0
POLYLINE
  8
IMP_EC_PLATE_ISO-EDGE_CUTS_GBR
 66
1
 10
0.00
 20
0.00
 30
0.00
 40
0.20
 41
0.20
  0
VERTEX
  8
IMP_EC_PLATE_ISO-EDGE_CUTS_GBR
 10
279.699058
 20
-191.173332
 30
0.00
  0
VERTEX
  8
IMP_EC_PLATE_ISO-EDGE_CUTS_GBR
 10
267.099058
 20
-191.173332
 30
0.00
  0
SEQEND
  0
POLYLINE
  8
IMP_EC_PLATE_ISO-EDGE_CUTS_GBR
 66
1
 10
0.00
 20
0.00
 30
0.00
 40
0.20
 41
0.20
  0
VERTEX
  8
IMP_EC_PLATE_ISO-EDGE_CUTS_GBR
 10
266.099058
 20
-190.173332
 30
0.00
  0
VERTEX
  8
IMP_EC_PLATE_ISO-EDGE_CUTS_GBR
 10
266.099058
 20
-178.173332
 30
0.00
  0
SEQEND
  0
POLYLINE
  8
IMP_EC_PLATE_ISO-EDGE_CUTS_GBR
 66
1
 10
0.00
 20
0.00
 30
0.00
 40
0.20
 41
0.20
  0
VERTEX
  8
IMP_EC_PLATE_ISO-EDGE_CUTS_GBR
 10
266.099058
 20
-178.173332
 30
0.00
  0
VERTEX
  8
IMP_EC_PLATE_ISO-EDGE_CUTS_GBR
 10
267.099058
 20
-177.173332
 30
0.00
  0
SEQEND
  0
POLYLINE
  8
IMP_EC_PLATE_ISO-EDGE_CUTS_GBR
 66
1
 10
0.00
 20
0.00
 30
0.00
 40
0.20
 41
0.20
  0
VERTEX
  8
IMP_EC_PLATE_ISO-EDGE_CUTS_GBR
 10
267.099058
 20
-191.173332
 30
0.00
  0
VERTEX
  8
IMP_EC_PLATE_ISO-EDGE_CUTS_GBR
 10
266.099058
 20
-190.173332
 30
0.00
  0
SEQEND
  0
POLYLINE
  8
IMP_EC_PLATE_ISO-EDGE_CUTS_GBR
 66
1
 10
0.00
 20
0.00
 30
0.00
 40
0.20
 41
0.20
  0
VERTEX
  8
IMP_EC_PLATE_ISO-EDGE_CUTS_GBR
 10
64.64131
 20
-171.163332
 30
0.00
  0
VERTEX
  8
IMP_EC_PLATE_ISO-EDGE_CUTS_GBR
 10
63.64131
 20
-172.163332
 30
0.00
  0
SEQEND
  0
POLYLINE
  8
IMP_EC_PLATE_ISO-EDGE_CUTS_GBR
 66
1
 10
0.00
 20
0.00
 30
0.00
 40
0.20
 41
0.20
  0
VERTEX
  8
IMP_EC_PLATE_ISO-EDGE_CUTS_GBR
 10
50.04131
 20
-159.163332
 30
0.00
  0
VERTEX
  8
IMP_EC_PLATE_ISO-EDGE_CUTS_GBR
 10
51.04131
 20
-158.163332
 30
0.00
  0
SEQEND
  0
POLYLINE
  8
IMP_EC_PLATE_ISO-EDGE_CUTS_GBR
 66
1
 10
0.00
 20
0.00
 30
0.00
 40
0.20
 41
0.20
  0
VERTEX
  8
IMP_EC_PLATE_ISO-EDGE_CUTS_GBR
 10
50.04131
 20
-171.163332
 30
0.00
  0
VERTEX
  8
IMP_EC_PLATE_ISO-EDGE_CUTS_GBR
 10
50.04131
 20
-159.163332
 30
0.00
  0
SEQEND
  0
POLYLINE
  8
IMP_EC_PLATE_ISO-EDGE_CUTS_GBR
 66
1
 10
0.00
 20
0.00
 30
0.00
 40
0.20
 41
0.20
  0
VERTEX
  8
IMP_EC_PLATE_ISO-EDGE_CUTS_GBR
 10
64.64131
 20
-159.163332
 30
0.00
  0
VERTEX
  8
IMP_EC_PLATE_ISO-EDGE_CUTS_GBR
 10
64.64131
 20
-171.163332
 30
0.00
  0
SEQEND
  0
POLYLINE
  8
IMP_EC_PLATE_ISO-EDGE_CUTS_GBR
 66
1
 10
0.00
 20
0.00
 30
0.00
 40
0.20
 41
0.20
  0
VERTEX
  8
IMP_EC_PLATE_ISO-EDGE_CUTS_GBR
 10
51.04131
 20
-158.163332
 30
0.00
  0
VERTEX
  8
IMP_EC_PLATE_ISO-EDGE_CUTS_GBR
 10
63.64131
 20
-158.163332
 30
0.00
  0
SEQEND
  0
POLYLINE
  8
IMP_EC_PLATE_ISO-EDGE_CUTS_GBR
 66
1
 10
0.00
 20
0.00
 30
0.00
 40
0.20
 41
0.20
  0
VERTEX
  8
IMP_EC_PLATE_ISO-EDGE_CUTS_GBR
 10
63.64131
 20
-158.163332
 30
0.00
  0
VERTEX
  8
IMP_EC_PLATE_ISO-EDGE_CUTS_GBR
 10
64.64131
 20
-159.163332
 30
0.00
  0
SEQEND
  0
POLYLINE
  8
IMP_EC_PLATE_ISO-EDGE_CUTS_GBR
 66
1
 10
0.00
 20
0.00
 30
0.00
 40
0.20
 41
0.20
  0
VERTEX
  8
IMP_EC_PLATE_ISO-EDGE_CUTS_GBR
 10
63.64131
 20
-172.163332
 30
0.00
  0
VERTEX
  8
IMP_EC_PLATE_ISO-EDGE_CUTS_GBR
 10
51.04131
 20
-172.163332
 30
0.00
  0
SEQEND
  0
POLYLINE
  8
IMP_EC_PLATE_ISO-EDGE_CUTS_GBR
 66
1
 10
0.00
 20
0.00
 30
0.00
 40
0.20
 41
0.20
  0
VERTEX
  8
IMP_EC_PLATE_ISO-EDGE_CUTS_GBR
 10
51.04131
 20
-172.163332
 30
0.00
  0
VERTEX
  8
IMP_EC_PLATE_ISO-EDGE_CUTS_GBR
 10
50.04131
 20
-171.163332
 30
0.00
  0
SEQEND
  0
POLYLINE
  8
IMP_EC_PLATE_ISO-EDGE_CUTS_GBR
 66
1
 10
0.00
 20
0.00
 30
0.00
 40
0.20
 41
0.20
  0
VERTEX
  8
IMP_EC_PLATE_ISO-EDGE_CUTS_GBR
 10
71.37506
 20
-171.163332
 30
0.00
  0
VERTEX
  8
IMP_EC_PLATE_ISO-EDGE_CUTS_GBR
 10
71.37506
 20
-159.163332
 30
0.00
  0
SEQEND
  0
POLYLINE
  8
IMP_EC_PLATE_ISO-EDGE_CUTS_GBR
 66
1
 10
0.00
 20
0.00
 30
0.00
 40
0.20
 41
0.20
  0
VERTEX
  8
IMP_EC_PLATE_ISO-EDGE_CUTS_GBR
 10
72.37506
 20
-158.163332
 30
0.00
  0
VERTEX
  8
IMP_EC_PLATE_ISO-EDGE_CUTS_GBR
 10
84.97506
 20
-158.163332
 30
0.00
  0
SEQEND
  0
POLYLINE
  8
IMP_EC_PLATE_ISO-EDGE_CUTS_GBR
 66
1
 10
0.00
 20
0.00
 30
0.00
 40
0.20
 41
0.20
  0
VERTEX
  8
IMP_EC_PLATE_ISO-EDGE_CUTS_GBR
 10
71.37506
 20
-159.163332
 30
0.00
  0
VERTEX
  8
IMP_EC_PLATE_ISO-EDGE_CUTS_GBR
 10
72.37506
 20
-158.163332
 30
0.00
  0
SEQEND
  0
POLYLINE
  8
IMP_EC_PLATE_ISO-EDGE_CUTS_GBR
 66
1
 10
0.00
 20
0.00
 30
0.00
 40
0.20
 41
0.20
  0
VERTEX
  8
IMP_EC_PLATE_ISO-EDGE_CUTS_GBR
 10
84.97506
 20
-158.163332
 30
0.00
  0
VERTEX
  8
IMP_EC_PLATE_ISO-EDGE_CUTS_GBR
 10
85.97506
 20
-159.163332
 30
0.00
  0
SEQEND
  0
POLYLINE
  8
IMP_EC_PLATE_ISO-EDGE_CUTS_GBR
 66
1
 10
0.00
 20
0.00
 30
0.00
 40
0.20
 41
0.20
  0
VERTEX
  8
IMP_EC_PLATE_ISO-EDGE_CUTS_GBR
 10
84.97506
 20
-172.163332
 30
0.00
  0
VERTEX
  8
IMP_EC_PLATE_ISO-EDGE_CUTS_GBR
 10
72.37506
 20
-172.163332
 30
0.00
  0
SEQEND
  0
POLYLINE
  8
IMP_EC_PLATE_ISO-EDGE_CUTS_GBR
 66
1
 10
0.00
 20
0.00
 30
0.00
 40
0.20
 41
0.20
  0
VERTEX
  8
IMP_EC_PLATE_ISO-EDGE_CUTS_GBR
 10
85.97506
 20
-159.163332
 30
0.00
  0
VERTEX
  8
IMP_EC_PLATE_ISO-EDGE_CUTS_GBR
 10
85.97506
 20
-171.163332
 30
0.00
  0
SEQEND
  0
POLYLINE
  8
IMP_EC_PLATE_ISO-EDGE_CUTS_GBR
 66
1
 10
0.00
 20
0.00
 30
0.00
 40
0.20
 41
0.20
  0
VERTEX
  8
IMP_EC_PLATE_ISO-EDGE_CUTS_GBR
 10
72.37506
 20
-172.163332
 30
0.00
  0
VERTEX
  8
IMP_EC_PLATE_ISO-EDGE_CUTS_GBR
 10
71.37506
 20
-171.163332
 30
0.00
  0
SEQEND
  0
POLYLINE
  8
IMP_EC_PLATE_ISO-EDGE_CUTS_GBR
 66
1
 10
0.00
 20
0.00
 30
0.00
 40
0.20
 41
0.20
  0
VERTEX
  8
IMP_EC_PLATE_ISO-EDGE_CUTS_GBR
 10
85.97506
 20
-171.163332
 30
0.00
  0
VERTEX
  8
IMP_EC_PLATE_ISO-EDGE_CUTS_GBR
 10
84.97506
 20
-172.163332
 30
0.00
  0
SEQEND
  0
POLYLINE
  8
IMP_EC_PLATE_ISO-EDGE_CUTS_GBR
 66
1
 10
0.00
 20
0.00
 30
0.00
 40
0.20
 41
0.20
  0
VERTEX
  8
IMP_EC_PLATE_ISO-EDGE_CUTS_GBR
 10
291.00506
 20
-139.143332
 30
0.00
  0
VERTEX
  8
IMP_EC_PLATE_ISO-EDGE_CUTS_GBR
 10
303.60506
 20
-139.143332
 30
0.00
  0
SEQEND
  0
POLYLINE
  8
IMP_EC_PLATE_ISO-EDGE_CUTS_GBR
 66
1
 10
0.00
 20
0.00
 30
0.00
 40
0.20
 41
0.20
  0
VERTEX
  8
IMP_EC_PLATE_ISO-EDGE_CUTS_GBR
 10
303.60506
 20
-139.143332
 30
0.00
  0
VERTEX
  8
IMP_EC_PLATE_ISO-EDGE_CUTS_GBR
 10
304.60506
 20
-140.143332
 30
0.00
  0
SEQEND
  0
POLYLINE
  8
IMP_EC_PLATE_ISO-EDGE_CUTS_GBR
 66
1
 10
0.00
 20
0.00
 30
0.00
 40
0.20
 41
0.20
  0
VERTEX
  8
IMP_EC_PLATE_ISO-EDGE_CUTS_GBR
 10
291.00506
 20
-153.143332
 30
0.00
  0
VERTEX
  8
IMP_EC_PLATE_ISO-EDGE_CUTS_GBR
 10
290.00506
 20
-152.143332
 30
0.00
  0
SEQEND
  0
POLYLINE
  8
IMP_EC_PLATE_ISO-EDGE_CUTS_GBR
 66
1
 10
0.00
 20
0.00
 30
0.00
 40
0.20
 41
0.20
  0
VERTEX
  8
IMP_EC_PLATE_ISO-EDGE_CUTS_GBR
 10
304.60506
 20
-152.143332
 30
0.00
  0
VERTEX
  8
IMP_EC_PLATE_ISO-EDGE_CUTS_GBR
 10
303.60506
 20
-153.143332
 30
0.00
  0
SEQEND
  0
POLYLINE
  8
IMP_EC_PLATE_ISO-EDGE_CUTS_GBR
 66
1
 10
0.00
 20
0.00
 30
0.00
 40
0.20
 41
0.20
  0
VERTEX
  8
IMP_EC_PLATE_ISO-EDGE_CUTS_GBR
 10
303.60506
 20
-153.143332
 30
0.00
  0
VERTEX
  8
IMP_EC_PLATE_ISO-EDGE_CUTS_GBR
 10
291.00506
 20
-153.143332
 30
0.00
  0
SEQEND
  0
POLYLINE
  8
IMP_EC_PLATE_ISO-EDGE_CUTS_GBR
 66
1
 10
0.00
 20
0.00
 30
0.00
 40
0.20
 41
0.20
  0
VERTEX
  8
IMP_EC_PLATE_ISO-EDGE_CUTS_GBR
 10
304.60506
 20
-140.143332
 30
0.00
  0
VERTEX
  8
IMP_EC_PLATE_ISO-EDGE_CUTS_GBR
 10
304.60506
 20
-152.143332
 30
0.00
  0
SEQEND
  0
POLYLINE
  8
IMP_EC_PLATE_ISO-EDGE_CUTS_GBR
 66
1
 10
0.00
 20
0.00
 30
0.00
 40
0.20
 41
0.20
  0
VERTEX
  8
IMP_EC_PLATE_ISO-EDGE_CUTS_GBR
 10
290.00506
 20
-152.143332
 30
0.00
  0
VERTEX
  8
IMP_EC_PLATE_ISO-EDGE_CUTS_GBR
 10
290.00506
 20
-140.143332
 30
0.00
  0
SEQEND
  0
POLYLINE
  8
IMP_EC_PLATE_ISO-EDGE_CUTS_GBR
 66
1
 10
0.00
 20
0.00
 30
0.00
 40
0.20
 41
0.20
  0
VERTEX
  8
IMP_EC_PLATE_ISO-EDGE_CUTS_GBR
 10
290.00506
 20
-140.143332
 30
0.00
  0
VERTEX
  8
IMP_EC_PLATE_ISO-EDGE_CUTS_GBR
 10
291.00506
 20
-139.143332
 30
0.00
  0
SEQEND
  0
POLYLINE
  8
IMP_EC_PLATE_ISO-EDGE_CUTS_GBR
 66
1
 10
0.00
 20
0.00
 30
0.00
 40
0.20
 41
0.20
  0
VERTEX
  8
IMP_EC_PLATE_ISO-EDGE_CUTS_GBR
 10
291.42506
 20
-172.166816
 30
0.00
  0
VERTEX
  8
IMP_EC_PLATE_ISO-EDGE_CUTS_GBR
 10
317.42506
 20
-172.166816
 30
0.00
  0
SEQEND
  0
POLYLINE
  8
IMP_EC_PLATE_ISO-EDGE_CUTS_GBR
 66
1
 10
0.00
 20
0.00
 30
0.00
 40
0.20
 41
0.20
  0
VERTEX
  8
IMP_EC_PLATE_ISO-EDGE_CUTS_GBR
 10
319.42506
 20
-158.166818
 30
0.00
  0
VERTEX
  8
IMP_EC_PLATE_ISO-EDGE_CUTS_GBR
 10
289.42506
 20
-158.166818
 30
0.00
  0
SEQEND
  0
POLYLINE
  8
IMP_EC_PLATE_ISO-EDGE_CUTS_GBR
 66
1
 10
0.00
 20
0.00
 30
0.00
 40
0.20
 41
0.20
  0
VERTEX
  8
IMP_EC_PLATE_ISO-EDGE_CUTS_GBR
 10
325.724534
 20
-123.66937
 30
0.00
  0
VERTEX
  8
IMP_EC_PLATE_ISO-EDGE_CUTS_GBR
 10
325.724534
 20
-149.66937
 30
0.00
  0
SEQEND
  0
POLYLINE
  8
IMP_EC_PLATE_ISO-EDGE_CUTS_GBR
 66
1
 10
0.00
 20
0.00
 30
0.00
 40
0.20
 41
0.20
  0
VERTEX
  8
IMP_EC_PLATE_ISO-EDGE_CUTS_GBR
 10
311.724536
 20
-151.66937
 30
0.00
  0
VERTEX
  8
IMP_EC_PLATE_ISO-EDGE_CUTS_GBR
 10
311.724536
 20
-121.66937
 30
0.00
  0
SEQEND
  0
POLYLINE
  8
IMP_EC_PLATE_ISO-EDGE_CUTS_GBR
 66
1
 10
0.00
 20
0.00
 30
0.00
 40
0.20
 41
0.20
  0
VERTEX
  8
IMP_EC_PLATE_ISO-EDGE_CUTS_GBR
 10
324.66006
 20
-115.106816
 30
0.00
  0
VERTEX
  8
IMP_EC_PLATE_ISO-EDGE_CUTS_GBR
 10
298.66006
 20
-115.106816
 30
0.00
  0
SEQEND
  0
POLYLINE
  8
IMP_EC_PLATE_ISO-EDGE_CUTS_GBR
 66
1
 10
0.00
 20
0.00
 30
0.00
 40
0.20
 41
0.20
  0
VERTEX
  8
IMP_EC_PLATE_ISO-EDGE_CUTS_GBR
 10
296.66006
 20
-101.106818
 30
0.00
  0
VERTEX
  8
IMP_EC_PLATE_ISO-EDGE_CUTS_GBR
 10
326.66006
 20
-101.106818
 30
0.00
  0
SEQEND
  0
POLYLINE
  8
IMP_EC_PLATE_ISO-EDGE_CUTS_GBR
 66
1
 10
0.00
 20
0.00
 30
0.00
 40
0.20
 41
0.20
  0
VERTEX
  8
IMP_EC_PLATE_ISO-EDGE_CUTS_GBR
 10
328.162508
 20
-194.303332
 30
0.00
  0
VERTEX
  8
IMP_EC_PLATE_ISO-EDGE_CUTS_GBR
 10
336.953474
 20
-194.303332
 30
0.00
  0
SEQEND
  0
POLYLINE
  8
IMP_EC_PLATE_ISO-EDGE_CUTS_GBR
 66
1
 10
0.00
 20
0.00
 30
0.00
 40
0.20
 41
0.20
  0
VERTEX
  8
IMP_EC_PLATE_ISO-EDGE_CUTS_GBR
 10
328.16251
 20
-75.053332
 30
0.00
  0
VERTEX
  8
IMP_EC_PLATE_ISO-EDGE_CUTS_GBR
 10
336.953474
 20
-75.053332
 30
0.00
  0
SEQEND
  0
POLYLINE
  8
IMP_EC_PLATE_ISO-EDGE_CUTS_GBR
 66
1
 10
0.00
 20
0.00
 30
0.00
 40
0.20
 41
0.20
  0
VERTEX
  8
IMP_EC_PLATE_ISO-EDGE_CUTS_GBR
 10
314.574268
 20
-78.003332
 30
0.00
  0
VERTEX
  8
IMP_EC_PLATE_ISO-EDGE_CUTS_GBR
 10
324.310658
 20
-78.021922
 30
0.00
  0
SEQEND
  0
POLYLINE
  8
IMP_EC_PLATE_ISO-EDGE_CUTS_GBR
 66
1
 10
0.00
 20
0.00
 30
0.00
 40
0.20
 41
0.20
  0
VERTEX
  8
IMP_EC_PLATE_ISO-EDGE_CUTS_GBR
 10
328.174268
 20
-91.003332
 30
0.00
  0
VERTEX
  8
IMP_EC_PLATE_ISO-EDGE_CUTS_GBR
 10
328.177466
 20
-81.859382
 30
0.00
  0
SEQEND
  0
POLYLINE
  8
IMP_EC_PLATE_ISO-EDGE_CUTS_GBR
 66
1
 10
0.00
 20
0.00
 30
0.00
 40
0.20
 41
0.20
  0
VERTEX
  8
IMP_EC_PLATE_ISO-EDGE_CUTS_GBR
 10
328.177466
 20
-81.859382
 30
0.00
 42
1.5961238
  0
VERTEX
  8
IMP_EC_PLATE_ISO-EDGE_CUTS_GBR
 10
324.310658
 20
-78.021922
 30
0.00
 42
0.00
  0
SEQEND
  0
POLYLINE
  8
IMP_EC_PLATE_ISO-EDGE_CUTS_GBR
 66
1
 10
0.00
 20
0.00
 30
0.00
 40
0.20
 41
0.20
  0
VERTEX
  8
IMP_EC_PLATE_ISO-EDGE_CUTS_GBR
 10
313.574268
 20
-91.003332
 30
0.00
  0
VERTEX
  8
IMP_EC_PLATE_ISO-EDGE_CUTS_GBR
 10
313.574268
 20
-79.003332
 30
0.00
  0
SEQEND
  0
POLYLINE
  8
IMP_EC_PLATE_ISO-EDGE_CUTS_GBR
 66
1
 10
0.00
 20
0.00
 30
0.00
 40
0.20
 41
0.20
  0
VERTEX
  8
IMP_EC_PLATE_ISO-EDGE_CUTS_GBR
 10
314.574268
 20
-92.003332
 30
0.00
  0
VERTEX
  8
IMP_EC_PLATE_ISO-EDGE_CUTS_GBR
 10
313.574268
 20
-91.003332
 30
0.00
  0
SEQEND
  0
POLYLINE
  8
IMP_EC_PLATE_ISO-EDGE_CUTS_GBR
 66
1
 10
0.00
 20
0.00
 30
0.00
 40
0.20
 41
0.20
  0
VERTEX
  8
IMP_EC_PLATE_ISO-EDGE_CUTS_GBR
 10
327.174268
 20
-92.003332
 30
0.00
  0
VERTEX
  8
IMP_EC_PLATE_ISO-EDGE_CUTS_GBR
 10
314.574268
 20
-92.003332
 30
0.00
  0
SEQEND
  0
POLYLINE
  8
IMP_EC_PLATE_ISO-EDGE_CUTS_GBR
 66
1
 10
0.00
 20
0.00
 30
0.00
 40
0.20
 41
0.20
  0
VERTEX
  8
IMP_EC_PLATE_ISO-EDGE_CUTS_GBR
 10
328.174268
 20
-91.003332
 30
0.00
  0
VERTEX
  8
IMP_EC_PLATE_ISO-EDGE_CUTS_GBR
 10
327.174268
 20
-92.003332
 30
0.00
  0
SEQEND
  0
POLYLINE
  8
IMP_EC_PLATE_ISO-EDGE_CUTS_GBR
 66
1
 10
0.00
 20
0.00
 30
0.00
 40
0.20
 41
0.20
  0
VERTEX
  8
IMP_EC_PLATE_ISO-EDGE_CUTS_GBR
 10
313.574268
 20
-79.003332
 30
0.00
  0
VERTEX
  8
IMP_EC_PLATE_ISO-EDGE_CUTS_GBR
 10
314.574268
 20
-78.003332
 30
0.00
  0
SEQEND
  0
POLYLINE
  8
IMP_EC_PLATE_ISO-EDGE_CUTS_GBR
 66
1
 10
0.00
 20
0.00
 30
0.00
 40
0.20
 41
0.20
  0
VERTEX
  8
IMP_EC_PLATE_ISO-EDGE_CUTS_GBR
 10
52.286592
 20
-190.473332
 30
0.00
  0
VERTEX
  8
IMP_EC_PLATE_ISO-EDGE_CUTS_GBR
 10
52.286592
 20
-177.873332
 30
0.00
  0
SEQEND
  0
POLYLINE
  8
IMP_EC_PLATE_ISO-EDGE_CUTS_GBR
 66
1
 10
0.00
 20
0.00
 30
0.00
 40
0.20
 41
0.20
  0
VERTEX
  8
IMP_EC_PLATE_ISO-EDGE_CUTS_GBR
 10
66.886592
 20
-177.873332
 30
0.00
  0
VERTEX
  8
IMP_EC_PLATE_ISO-EDGE_CUTS_GBR
 10
66.886592
 20
-190.473332
 30
0.00
  0
SEQEND
  0
POLYLINE
  8
IMP_EC_PLATE_ISO-EDGE_CUTS_GBR
 66
1
 10
0.00
 20
0.00
 30
0.00
 40
0.20
 41
0.20
  0
VERTEX
  8
IMP_EC_PLATE_ISO-EDGE_CUTS_GBR
 10
55.49506
 20
-153.143332
 30
0.00
  0
VERTEX
  8
IMP_EC_PLATE_ISO-EDGE_CUTS_GBR
 10
54.49506
 20
-152.143332
 30
0.00
  0
SEQEND
  0
POLYLINE
  8
IMP_EC_PLATE_ISO-EDGE_CUTS_GBR
 66
1
 10
0.00
 20
0.00
 30
0.00
 40
0.20
 41
0.20
  0
VERTEX
  8
IMP_EC_PLATE_ISO-EDGE_CUTS_GBR
 10
69.09506
 20
-152.143332
 30
0.00
  0
VERTEX
  8
IMP_EC_PLATE_ISO-EDGE_CUTS_GBR
 10
68.09506
 20
-153.143332
 30
0.00
  0
SEQEND
  0
POLYLINE
  8
IMP_EC_PLATE_ISO-EDGE_CUTS_GBR
 66
1
 10
0.00
 20
0.00
 30
0.00
 40
0.20
 41
0.20
  0
VERTEX
  8
IMP_EC_PLATE_ISO-EDGE_CUTS_GBR
 10
54.49506
 20
-152.143332
 30
0.00
  0
VERTEX
  8
IMP_EC_PLATE_ISO-EDGE_CUTS_GBR
 10
54.49506
 20
-140.143332
 30
0.00
  0
SEQEND
  0
POLYLINE
  8
IMP_EC_PLATE_ISO-EDGE_CUTS_GBR
 66
1
 10
0.00
 20
0.00
 30
0.00
 40
0.20
 41
0.20
  0
VERTEX
  8
IMP_EC_PLATE_ISO-EDGE_CUTS_GBR
 10
55.49506
 20
-139.143332
 30
0.00
  0
VERTEX
  8
IMP_EC_PLATE_ISO-EDGE_CUTS_GBR
 10
68.09506
 20
-139.143332
 30
0.00
  0
SEQEND
  0
POLYLINE
  8
IMP_EC_PLATE_ISO-EDGE_CUTS_GBR
 66
1
 10
0.00
 20
0.00
 30
0.00
 40
0.20
 41
0.20
  0
VERTEX
  8
IMP_EC_PLATE_ISO-EDGE_CUTS_GBR
 10
69.09506
 20
-140.143332
 30
0.00
  0
VERTEX
  8
IMP_EC_PLATE_ISO-EDGE_CUTS_GBR
 10
69.09506
 20
-152.143332
 30
0.00
  0
SEQEND
  0
POLYLINE
  8
IMP_EC_PLATE_ISO-EDGE_CUTS_GBR
 66
1
 10
0.00
 20
0.00
 30
0.00
 40
0.20
 41
0.20
  0
VERTEX
  8
IMP_EC_PLATE_ISO-EDGE_CUTS_GBR
 10
54.49506
 20
-140.143332
 30
0.00
  0
VERTEX
  8
IMP_EC_PLATE_ISO-EDGE_CUTS_GBR
 10
55.49506
 20
-139.143332
 30
0.00
  0
SEQEND
  0
POLYLINE
  8
IMP_EC_PLATE_ISO-EDGE_CUTS_GBR
 66
1
 10
0.00
 20
0.00
 30
0.00
 40
0.20
 41
0.20
  0
VERTEX
  8
IMP_EC_PLATE_ISO-EDGE_CUTS_GBR
 10
68.09506
 20
-139.143332
 30
0.00
  0
VERTEX
  8
IMP_EC_PLATE_ISO-EDGE_CUTS_GBR
 10
69.09506
 20
-140.143332
 30
0.00
  0
SEQEND
  0
POLYLINE
  8
IMP_EC_PLATE_ISO-EDGE_CUTS_GBR
 66
1
 10
0.00
 20
0.00
 30
0.00
 40
0.20
 41
0.20
  0
VERTEX
  8
IMP_EC_PLATE_ISO-EDGE_CUTS_GBR
 10
68.09506
 20
-153.143332
 30
0.00
  0
VERTEX
  8
IMP_EC_PLATE_ISO-EDGE_CUTS_GBR
 10
55.49506
 20
-153.143332
 30
0.00
  0
SEQEND
  0
POLYLINE
  8
IMP_EC_PLATE_ISO-EDGE_CUTS_GBR
 66
1
 10
0.00
 20
0.00
 30
0.00
 40
0.20
 41
0.20
  0
VERTEX
  8
IMP_EC_PLATE_ISO-EDGE_CUTS_GBR
 10
356.664268
 20
-78.003332
 30
0.00
  0
VERTEX
  8
IMP_EC_PLATE_ISO-EDGE_CUTS_GBR
 10
366.400658
 20
-78.021922
 30
0.00
  0
SEQEND
  0
POLYLINE
  8
IMP_EC_PLATE_ISO-EDGE_CUTS_GBR
 66
1
 10
0.00
 20
0.00
 30
0.00
 40
0.20
 41
0.20
  0
VERTEX
  8
IMP_EC_PLATE_ISO-EDGE_CUTS_GBR
 10
370.264268
 20
-91.003332
 30
0.00
  0
VERTEX
  8
IMP_EC_PLATE_ISO-EDGE_CUTS_GBR
 10
370.267466
 20
-81.859382
 30
0.00
  0
SEQEND
  0
POLYLINE
  8
IMP_EC_PLATE_ISO-EDGE_CUTS_GBR
 66
1
 10
0.00
 20
0.00
 30
0.00
 70
1
 40
0.20
 41
0.20
  0
VERTEX
  8
IMP_EC_PLATE_ISO-EDGE_CUTS_GBR
 10
71.09506
 20
-141.143332
 30
0.00
 42
1
  0
VERTEX
  8
IMP_EC_PLATE_ISO-EDGE_CUTS_GBR
 10
75.09506
 20
-141.143332
 30
0.00
 42
1
  0
SEQEND
  0
POLYLINE
  8
IMP_EC_PLATE_ISO-EDGE_CUTS_GBR
 66
1
 10
0.00
 20
0.00
 30
0.00
 40
0.20
 41
0.20
  0
VERTEX
  8
IMP_EC_PLATE_ISO-EDGE_CUTS_GBR
 10
171.065008
 20
-178.176818
 30
0.00
  0
VERTEX
  8
IMP_EC_PLATE_ISO-EDGE_CUTS_GBR
 10
172.065008
 20
-177.176818
 30
0.00
  0
SEQEND
  0
POLYLINE
  8
IMP_EC_PLATE_ISO-EDGE_CUTS_GBR
 66
1
 10
0.00
 20
0.00
 30
0.00
 40
0.20
 41
0.20
  0
VERTEX
  8
IMP_EC_PLATE_ISO-EDGE_CUTS_GBR
 10
171.065008
 20
-190.176818
 30
0.00
  0
VERTEX
  8
IMP_EC_PLATE_ISO-EDGE_CUTS_GBR
 10
171.065008
 20
-178.176818
 30
0.00
  0
SEQEND
  0
POLYLINE
  8
IMP_EC_PLATE_ISO-EDGE_CUTS_GBR
 66
1
 10
0.00
 20
0.00
 30
0.00
 40
0.20
 41
0.20
  0
VERTEX
  8
IMP_EC_PLATE_ISO-EDGE_CUTS_GBR
 10
172.065008
 20
-191.176818
 30
0.00
  0
VERTEX
  8
IMP_EC_PLATE_ISO-EDGE_CUTS_GBR
 10
171.065008
 20
-190.176818
 30
0.00
  0
SEQEND
  0
POLYLINE
  8
IMP_EC_PLATE_ISO-EDGE_CUTS_GBR
 66
1
 10
0.00
 20
0.00
 30
0.00
 40
0.20
 41
0.20
  0
VERTEX
  8
IMP_EC_PLATE_ISO-EDGE_CUTS_GBR
 10
184.665008
 20
-191.176818
 30
0.00
  0
VERTEX
  8
IMP_EC_PLATE_ISO-EDGE_CUTS_GBR
 10
172.065008
 20
-191.176818
 30
0.00
  0
SEQEND
  0
POLYLINE
  8
IMP_EC_PLATE_ISO-EDGE_CUTS_GBR
 66
1
 10
0.00
 20
0.00
 30
0.00
 40
0.20
 41
0.20
  0
VERTEX
  8
IMP_EC_PLATE_ISO-EDGE_CUTS_GBR
 10
185.665008
 20
-190.176818
 30
0.00
  0
VERTEX
  8
IMP_EC_PLATE_ISO-EDGE_CUTS_GBR
 10
184.665008
 20
-191.176818
 30
0.00
  0
SEQEND
  0
POLYLINE
  8
IMP_EC_PLATE_ISO-EDGE_CUTS_GBR
 66
1
 10
0.00
 20
0.00
 30
0.00
 40
0.20
 41
0.20
  0
VERTEX
  8
IMP_EC_PLATE_ISO-EDGE_CUTS_GBR
 10
185.665008
 20
-178.176818
 30
0.00
  0
VERTEX
  8
IMP_EC_PLATE_ISO-EDGE_CUTS_GBR
 10
185.665008
 20
-190.176818
 30
0.00
  0
SEQEND
  0
POLYLINE
  8
IMP_EC_PLATE_ISO-EDGE_CUTS_GBR
 66
1
 10
0.00
 20
0.00
 30
0.00
 40
0.20
 41
0.20
  0
VERTEX
  8
IMP_EC_PLATE_ISO-EDGE_CUTS_GBR
 10
184.665008
 20
-177.176818
 30
0.00
  0
VERTEX
  8
IMP_EC_PLATE_ISO-EDGE_CUTS_GBR
 10
185.665008
 20
-178.176818
 30
0.00
  0
SEQEND
  0
POLYLINE
  8
IMP_EC_PLATE_ISO-EDGE_CUTS_GBR
 66
1
 10
0.00
 20
0.00
 30
0.00
 40
0.20
 41
0.20
  0
VERTEX
  8
IMP_EC_PLATE_ISO-EDGE_CUTS_GBR
 10
172.065008
 20
-177.176818
 30
0.00
  0
VERTEX
  8
IMP_EC_PLATE_ISO-EDGE_CUTS_GBR
 10
184.665008
 20
-177.176818
 30
0.00
  0
SEQEND
  0
POLYLINE
  8
IMP_EC_PLATE_ISO-EDGE_CUTS_GBR
 66
1
 10
0.00
 20
0.00
 30
0.00
 40
0.20
 41
0.20
  0
VERTEX
  8
IMP_EC_PLATE_ISO-EDGE_CUTS_GBR
 10
374.684268
 20
-79.00679
 30
0.00
  0
VERTEX
  8
IMP_EC_PLATE_ISO-EDGE_CUTS_GBR
 10
375.684268
 20
-78.00679
 30
0.00
  0
SEQEND
  0
POLYLINE
  8
IMP_EC_PLATE_ISO-EDGE_CUTS_GBR
 66
1
 10
0.00
 20
0.00
 30
0.00
 40
0.20
 41
0.20
  0
VERTEX
  8
IMP_EC_PLATE_ISO-EDGE_CUTS_GBR
 10
374.684268
 20
-91.00679
 30
0.00
  0
VERTEX
  8
IMP_EC_PLATE_ISO-EDGE_CUTS_GBR
 10
374.684268
 20
-79.00679
 30
0.00
  0
SEQEND
  0
POLYLINE
  8
IMP_EC_PLATE_ISO-EDGE_CUTS_GBR
 66
1
 10
0.00
 20
0.00
 30
0.00
 40
0.20
 41
0.20
  0
VERTEX
  8
IMP_EC_PLATE_ISO-EDGE_CUTS_GBR
 10
375.684268
 20
-92.00679
 30
0.00
  0
VERTEX
  8
IMP_EC_PLATE_ISO-EDGE_CUTS_GBR
 10
374.684268
 20
-91.00679
 30
0.00
  0
SEQEND
  0
POLYLINE
  8
IMP_EC_PLATE_ISO-EDGE_CUTS_GBR
 66
1
 10
0.00
 20
0.00
 30
0.00
 40
0.20
 41
0.20
  0
VERTEX
  8
IMP_EC_PLATE_ISO-EDGE_CUTS_GBR
 10
388.284268
 20
-92.00679
 30
0.00
  0
VERTEX
  8
IMP_EC_PLATE_ISO-EDGE_CUTS_GBR
 10
375.684268
 20
-92.00679
 30
0.00
  0
SEQEND
  0
POLYLINE
  8
IMP_EC_PLATE_ISO-EDGE_CUTS_GBR
 66
1
 10
0.00
 20
0.00
 30
0.00
 40
0.20
 41
0.20
  0
VERTEX
  8
IMP_EC_PLATE_ISO-EDGE_CUTS_GBR
 10
389.284268
 20
-91.00679
 30
0.00
  0
VERTEX
  8
IMP_EC_PLATE_ISO-EDGE_CUTS_GBR
 10
388.284268
 20
-92.00679
 30
0.00
  0
SEQEND
  0
POLYLINE
  8
IMP_EC_PLATE_ISO-EDGE_CUTS_GBR
 66
1
 10
0.00
 20
0.00
 30
0.00
 40
0.20
 41
0.20
  0
VERTEX
  8
IMP_EC_PLATE_ISO-EDGE_CUTS_GBR
 10
389.284268
 20
-79.00679
 30
0.00
  0
VERTEX
  8
IMP_EC_PLATE_ISO-EDGE_CUTS_GBR
 10
389.284268
 20
-91.00679
 30
0.00
  0
SEQEND
  0
POLYLINE
  8
IMP_EC_PLATE_ISO-EDGE_CUTS_GBR
 66
1
 10
0.00
 20
0.00
 30
0.00
 40
0.20
 41
0.20
  0
VERTEX
  8
IMP_EC_PLATE_ISO-EDGE_CUTS_GBR
 10
388.284268
 20
-78.00679
 30
0.00
  0
VERTEX
  8
IMP_EC_PLATE_ISO-EDGE_CUTS_GBR
 10
389.284268
 20
-79.00679
 30
0.00
  0
SEQEND
  0
POLYLINE
  8
IMP_EC_PLATE_ISO-EDGE_CUTS_GBR
 66
1
 10
0.00
 20
0.00
 30
0.00
 40
0.20
 41
0.20
  0
VERTEX
  8
IMP_EC_PLATE_ISO-EDGE_CUTS_GBR
 10
375.684268
 20
-78.00679
 30
0.00
  0
VERTEX
  8
IMP_EC_PLATE_ISO-EDGE_CUTS_GBR
 10
388.284268
 20
-78.00679
 30
0.00
  0
SEQEND
  0
POLYLINE
  8
IMP_EC_PLATE_ISO-EDGE_CUTS_GBR
 66
1
 10
0.00
 20
0.00
 30
0.00
 40
0.20
 41
0.20
  0
VERTEX
  8
IMP_EC_PLATE_ISO-EDGE_CUTS_GBR
 10
336.644268
 20
-79.00679
 30
0.00
  0
VERTEX
  8
IMP_EC_PLATE_ISO-EDGE_CUTS_GBR
 10
337.644268
 20
-78.00679
 30
0.00
  0
SEQEND
  0
POLYLINE
  8
IMP_EC_PLATE_ISO-EDGE_CUTS_GBR
 66
1
 10
0.00
 20
0.00
 30
0.00
 40
0.20
 41
0.20
  0
VERTEX
  8
IMP_EC_PLATE_ISO-EDGE_CUTS_GBR
 10
336.644268
 20
-91.00679
 30
0.00
  0
VERTEX
  8
IMP_EC_PLATE_ISO-EDGE_CUTS_GBR
 10
336.644268
 20
-79.00679
 30
0.00
  0
SEQEND
  0
POLYLINE
  8
IMP_EC_PLATE_ISO-EDGE_CUTS_GBR
 66
1
 10
0.00
 20
0.00
 30
0.00
 40
0.20
 41
0.20
  0
VERTEX
  8
IMP_EC_PLATE_ISO-EDGE_CUTS_GBR
 10
337.644268
 20
-92.00679
 30
0.00
  0
VERTEX
  8
IMP_EC_PLATE_ISO-EDGE_CUTS_GBR
 10
336.644268
 20
-91.00679
 30
0.00
  0
SEQEND
  0
POLYLINE
  8
IMP_EC_PLATE_ISO-EDGE_CUTS_GBR
 66
1
 10
0.00
 20
0.00
 30
0.00
 40
0.20
 41
0.20
  0
VERTEX
  8
IMP_EC_PLATE_ISO-EDGE_CUTS_GBR
 10
350.244268
 20
-92.00679
 30
0.00
  0
VERTEX
  8
IMP_EC_PLATE_ISO-EDGE_CUTS_GBR
 10
337.644268
 20
-92.00679
 30
0.00
  0
SEQEND
  0
POLYLINE
  8
IMP_EC_PLATE_ISO-EDGE_CUTS_GBR
 66
1
 10
0.00
 20
0.00
 30
0.00
 40
0.20
 41
0.20
  0
VERTEX
  8
IMP_EC_PLATE_ISO-EDGE_CUTS_GBR
 10
351.244268
 20
-91.00679
 30
0.00
  0
VERTEX
  8
IMP_EC_PLATE_ISO-EDGE_CUTS_GBR
 10
350.244268
 20
-92.00679
 30
0.00
  0
SEQEND
  0
POLYLINE
  8
IMP_EC_PLATE_ISO-EDGE_CUTS_GBR
 66
1
 10
0.00
 20
0.00
 30
0.00
 40
0.20
 41
0.20
  0
VERTEX
  8
IMP_EC_PLATE_ISO-EDGE_CUTS_GBR
 10
351.244268
 20
-79.00679
 30
0.00
  0
VERTEX
  8
IMP_EC_PLATE_ISO-EDGE_CUTS_GBR
 10
351.244268
 20
-91.00679
 30
0.00
  0
SEQEND
  0
POLYLINE
  8
IMP_EC_PLATE_ISO-EDGE_CUTS_GBR
 66
1
 10
0.00
 20
0.00
 30
0.00
 40
0.20
 41
0.20
  0
VERTEX
  8
IMP_EC_PLATE_ISO-EDGE_CUTS_GBR
 10
350.244268
 20
-78.00679
 30
0.00
  0
VERTEX
  8
IMP_EC_PLATE_ISO-EDGE_CUTS_GBR
 10
351.244268
 20
-79.00679
 30
0.00
  0
SEQEND
  0
POLYLINE
  8
IMP_EC_PLATE_ISO-EDGE_CUTS_GBR
 66
1
 10
0.00
 20
0.00
 30
0.00
 40
0.20
 41
0.20
  0
VERTEX
  8
IMP_EC_PLATE_ISO-EDGE_CUTS_GBR
 10
337.644268
 20
-78.00679
 30
0.00
  0
VERTEX
  8
IMP_EC_PLATE_ISO-EDGE_CUTS_GBR
 10
350.244268
 20
-78.00679
 30
0.00
  0
SEQEND
  0
POLYLINE
  8
IMP_EC_PLATE_ISO-EDGE_CUTS_GBR
 66
1
 10
0.00
 20
0.00
 30
0.00
 40
0.20
 41
0.20
  0
VERTEX
  8
IMP_EC_PLATE_ISO-EDGE_CUTS_GBR
 10
289.85506
 20
-79.003332
 30
0.00
  0
VERTEX
  8
IMP_EC_PLATE_ISO-EDGE_CUTS_GBR
 10
290.85506
 20
-78.003332
 30
0.00
  0
SEQEND
  0
POLYLINE
  8
IMP_EC_PLATE_ISO-EDGE_CUTS_GBR
 66
1
 10
0.00
 20
0.00
 30
0.00
 40
0.20
 41
0.20
  0
VERTEX
  8
IMP_EC_PLATE_ISO-EDGE_CUTS_GBR
 10
289.85506
 20
-91.003332
 30
0.00
  0
VERTEX
  8
IMP_EC_PLATE_ISO-EDGE_CUTS_GBR
 10
289.85506
 20
-79.003332
 30
0.00
  0
SEQEND
  0
POLYLINE
  8
IMP_EC_PLATE_ISO-EDGE_CUTS_GBR
 66
1
 10
0.00
 20
0.00
 30
0.00
 40
0.20
 41
0.20
  0
VERTEX
  8
IMP_EC_PLATE_ISO-EDGE_CUTS_GBR
 10
290.85506
 20
-92.003332
 30
0.00
  0
VERTEX
  8
IMP_EC_PLATE_ISO-EDGE_CUTS_GBR
 10
289.85506
 20
-91.003332
 30
0.00
  0
SEQEND
  0
POLYLINE
  8
IMP_EC_PLATE_ISO-EDGE_CUTS_GBR
 66
1
 10
0.00
 20
0.00
 30
0.00
 40
0.20
 41
0.20
  0
VERTEX
  8
IMP_EC_PLATE_ISO-EDGE_CUTS_GBR
 10
303.45506
 20
-92.003332
 30
0.00
  0
VERTEX
  8
IMP_EC_PLATE_ISO-EDGE_CUTS_GBR
 10
290.85506
 20
-92.003332
 30
0.00
  0
SEQEND
  0
POLYLINE
  8
IMP_EC_PLATE_ISO-EDGE_CUTS_GBR
 66
1
 10
0.00
 20
0.00
 30
0.00
 40
0.20
 41
0.20
  0
VERTEX
  8
IMP_EC_PLATE_ISO-EDGE_CUTS_GBR
 10
304.45506
 20
-91.003332
 30
0.00
  0
VERTEX
  8
IMP_EC_PLATE_ISO-EDGE_CUTS_GBR
 10
303.45506
 20
-92.003332
 30
0.00
  0
SEQEND
  0
POLYLINE
  8
IMP_EC_PLATE_ISO-EDGE_CUTS_GBR
 66
1
 10
0.00
 20
0.00
 30
0.00
 40
0.20
 41
0.20
  0
VERTEX
  8
IMP_EC_PLATE_ISO-EDGE_CUTS_GBR
 10
304.45506
 20
-79.003332
 30
0.00
  0
VERTEX
  8
IMP_EC_PLATE_ISO-EDGE_CUTS_GBR
 10
304.45506
 20
-91.003332
 30
0.00
  0
SEQEND
  0
POLYLINE
  8
IMP_EC_PLATE_ISO-EDGE_CUTS_GBR
 66
1
 10
0.00
 20
0.00
 30
0.00
 40
0.20
 41
0.20
  0
VERTEX
  8
IMP_EC_PLATE_ISO-EDGE_CUTS_GBR
 10
303.45506
 20
-78.003332
 30
0.00
  0
VERTEX
  8
IMP_EC_PLATE_ISO-EDGE_CUTS_GBR
 10
304.45506
 20
-79.003332
 30
0.00
  0
SEQEND
  0
POLYLINE
  8
IMP_EC_PLATE_ISO-EDGE_CUTS_GBR
 66
1
 10
0.00
 20
0.00
 30
0.00
 40
0.20
 41
0.20
  0
VERTEX
  8
IMP_EC_PLATE_ISO-EDGE_CUTS_GBR
 10
290.85506
 20
-78.003332
 30
0.00
  0
VERTEX
  8
IMP_EC_PLATE_ISO-EDGE_CUTS_GBR
 10
303.45506
 20
-78.003332
 30
0.00
  0
SEQEND
  0
POLYLINE
  8
IMP_EC_PLATE_ISO-EDGE_CUTS_GBR
 66
1
 10
0.00
 20
0.00
 30
0.00
 40
0.20
 41
0.20
  0
VERTEX
  8
IMP_EC_PLATE_ISO-EDGE_CUTS_GBR
 10
270.83506
 20
-79.003332
 30
0.00
  0
VERTEX
  8
IMP_EC_PLATE_ISO-EDGE_CUTS_GBR
 10
271.83506
 20
-78.003332
 30
0.00
  0
SEQEND
  0
POLYLINE
  8
IMP_EC_PLATE_ISO-EDGE_CUTS_GBR
 66
1
 10
0.00
 20
0.00
 30
0.00
 40
0.20
 41
0.20
  0
VERTEX
  8
IMP_EC_PLATE_ISO-EDGE_CUTS_GBR
 10
270.83506
 20
-91.003332
 30
0.00
  0
VERTEX
  8
IMP_EC_PLATE_ISO-EDGE_CUTS_GBR
 10
270.83506
 20
-79.003332
 30
0.00
  0
SEQEND
  0
POLYLINE
  8
IMP_EC_PLATE_ISO-EDGE_CUTS_GBR
 66
1
 10
0.00
 20
0.00
 30
0.00
 40
0.20
 41
0.20
  0
VERTEX
  8
IMP_EC_PLATE_ISO-EDGE_CUTS_GBR
 10
271.83506
 20
-92.003332
 30
0.00
  0
VERTEX
  8
IMP_EC_PLATE_ISO-EDGE_CUTS_GBR
 10
270.83506
 20
-91.003332
 30
0.00
  0
SEQEND
  0
POLYLINE
  8
IMP_EC_PLATE_ISO-EDGE_CUTS_GBR
 66
1
 10
0.00
 20
0.00
 30
0.00
 40
0.20
 41
0.20
  0
VERTEX
  8
IMP_EC_PLATE_ISO-EDGE_CUTS_GBR
 10
284.43506
 20
-92.003332
 30
0.00
  0
VERTEX
  8
IMP_EC_PLATE_ISO-EDGE_CUTS_GBR
 10
271.83506
 20
-92.003332
 30
0.00
  0
SEQEND
  0
POLYLINE
  8
IMP_EC_PLATE_ISO-EDGE_CUTS_GBR
 66
1
 10
0.00
 20
0.00
 30
0.00
 40
0.20
 41
0.20
  0
VERTEX
  8
IMP_EC_PLATE_ISO-EDGE_CUTS_GBR
 10
285.43506
 20
-91.003332
 30
0.00
  0
VERTEX
  8
IMP_EC_PLATE_ISO-EDGE_CUTS_GBR
 10
284.43506
 20
-92.003332
 30
0.00
  0
SEQEND
  0
POLYLINE
  8
IMP_EC_PLATE_ISO-EDGE_CUTS_GBR
 66
1
 10
0.00
 20
0.00
 30
0.00
 40
0.20
 41
0.20
  0
VERTEX
  8
IMP_EC_PLATE_ISO-EDGE_CUTS_GBR
 10
285.43506
 20
-79.003332
 30
0.00
  0
VERTEX
  8
IMP_EC_PLATE_ISO-EDGE_CUTS_GBR
 10
285.43506
 20
-91.003332
 30
0.00
  0
SEQEND
  0
POLYLINE
  8
IMP_EC_PLATE_ISO-EDGE_CUTS_GBR
 66
1
 10
0.00
 20
0.00
 30
0.00
 40
0.20
 41
0.20
  0
VERTEX
  8
IMP_EC_PLATE_ISO-EDGE_CUTS_GBR
 10
284.43506
 20
-78.003332
 30
0.00
  0
VERTEX
  8
IMP_EC_PLATE_ISO-EDGE_CUTS_GBR
 10
285.43506
 20
-79.003332
 30
0.00
  0
SEQEND
  0
POLYLINE
  8
IMP_EC_PLATE_ISO-EDGE_CUTS_GBR
 66
1
 10
0.00
 20
0.00
 30
0.00
 40
0.20
 41
0.20
  0
VERTEX
  8
IMP_EC_PLATE_ISO-EDGE_CUTS_GBR
 10
271.83506
 20
-78.003332
 30
0.00
  0
VERTEX
  8
IMP_EC_PLATE_ISO-EDGE_CUTS_GBR
 10
284.43506
 20
-78.003332
 30
0.00
  0
SEQEND
  0
POLYLINE
  8
IMP_EC_PLATE_ISO-EDGE_CUTS_GBR
 66
1
 10
0.00
 20
0.00
 30
0.00
 40
0.20
 41
0.20
  0
VERTEX
  8
IMP_EC_PLATE_ISO-EDGE_CUTS_GBR
 10
251.81506
 20
-79.003332
 30
0.00
  0
VERTEX
  8
IMP_EC_PLATE_ISO-EDGE_CUTS_GBR
 10
252.81506
 20
-78.003332
 30
0.00
  0
SEQEND
  0
POLYLINE
  8
IMP_EC_PLATE_ISO-EDGE_CUTS_GBR
 66
1
 10
0.00
 20
0.00
 30
0.00
 40
0.20
 41
0.20
  0
VERTEX
  8
IMP_EC_PLATE_ISO-EDGE_CUTS_GBR
 10
251.81506
 20
-91.003332
 30
0.00
  0
VERTEX
  8
IMP_EC_PLATE_ISO-EDGE_CUTS_GBR
 10
251.81506
 20
-79.003332
 30
0.00
  0
SEQEND
  0
POLYLINE
  8
IMP_EC_PLATE_ISO-EDGE_CUTS_GBR
 66
1
 10
0.00
 20
0.00
 30
0.00
 40
0.20
 41
0.20
  0
VERTEX
  8
IMP_EC_PLATE_ISO-EDGE_CUTS_GBR
 10
252.81506
 20
-92.003332
 30
0.00
  0
VERTEX
  8
IMP_EC_PLATE_ISO-EDGE_CUTS_GBR
 10
251.81506
 20
-91.003332
 30
0.00
  0
SEQEND
  0
POLYLINE
  8
IMP_EC_PLATE_ISO-EDGE_CUTS_GBR
 66
1
 10
0.00
 20
0.00
 30
0.00
 40
0.20
 41
0.20
  0
VERTEX
  8
IMP_EC_PLATE_ISO-EDGE_CUTS_GBR
 10
265.41506
 20
-92.003332
 30
0.00
  0
VERTEX
  8
IMP_EC_PLATE_ISO-EDGE_CUTS_GBR
 10
252.81506
 20
-92.003332
 30
0.00
  0
SEQEND
  0
POLYLINE
  8
IMP_EC_PLATE_ISO-EDGE_CUTS_GBR
 66
1
 10
0.00
 20
0.00
 30
0.00
 40
0.20
 41
0.20
  0
VERTEX
  8
IMP_EC_PLATE_ISO-EDGE_CUTS_GBR
 10
266.41506
 20
-91.003332
 30
0.00
  0
VERTEX
  8
IMP_EC_PLATE_ISO-EDGE_CUTS_GBR
 10
265.41506
 20
-92.003332
 30
0.00
  0
SEQEND
  0
POLYLINE
  8
IMP_EC_PLATE_ISO-EDGE_CUTS_GBR
 66
1
 10
0.00
 20
0.00
 30
0.00
 40
0.20
 41
0.20
  0
VERTEX
  8
IMP_EC_PLATE_ISO-EDGE_CUTS_GBR
 10
266.41506
 20
-79.003332
 30
0.00
  0
VERTEX
  8
IMP_EC_PLATE_ISO-EDGE_CUTS_GBR
 10
266.41506
 20
-91.003332
 30
0.00
  0
SEQEND
  0
POLYLINE
  8
IMP_EC_PLATE_ISO-EDGE_CUTS_GBR
 66
1
 10
0.00
 20
0.00
 30
0.00
 40
0.20
 41
0.20
  0
VERTEX
  8
IMP_EC_PLATE_ISO-EDGE_CUTS_GBR
 10
265.41506
 20
-78.003332
 30
0.00
  0
VERTEX
  8
IMP_EC_PLATE_ISO-EDGE_CUTS_GBR
 10
266.41506
 20
-79.003332
 30
0.00
  0
SEQEND
  0
POLYLINE
  8
IMP_EC_PLATE_ISO-EDGE_CUTS_GBR
 66
1
 10
0.00
 20
0.00
 30
0.00
 40
0.20
 41
0.20
  0
VERTEX
  8
IMP_EC_PLATE_ISO-EDGE_CUTS_GBR
 10
252.81506
 20
-78.003332
 30
0.00
  0
VERTEX
  8
IMP_EC_PLATE_ISO-EDGE_CUTS_GBR
 10
265.41506
 20
-78.003332
 30
0.00
  0
SEQEND
  0
POLYLINE
  8
IMP_EC_PLATE_ISO-EDGE_CUTS_GBR
 66
1
 10
0.00
 20
0.00
 30
0.00
 40
0.20
 41
0.20
  0
VERTEX
  8
IMP_EC_PLATE_ISO-EDGE_CUTS_GBR
 10
232.79506
 20
-79.003332
 30
0.00
  0
VERTEX
  8
IMP_EC_PLATE_ISO-EDGE_CUTS_GBR
 10
233.79506
 20
-78.003332
 30
0.00
  0
SEQEND
  0
POLYLINE
  8
IMP_EC_PLATE_ISO-EDGE_CUTS_GBR
 66
1
 10
0.00
 20
0.00
 30
0.00
 40
0.20
 41
0.20
  0
VERTEX
  8
IMP_EC_PLATE_ISO-EDGE_CUTS_GBR
 10
232.79506
 20
-91.003332
 30
0.00
  0
VERTEX
  8
IMP_EC_PLATE_ISO-EDGE_CUTS_GBR
 10
232.79506
 20
-79.003332
 30
0.00
  0
SEQEND
  0
POLYLINE
  8
IMP_EC_PLATE_ISO-EDGE_CUTS_GBR
 66
1
 10
0.00
 20
0.00
 30
0.00
 40
0.20
 41
0.20
  0
VERTEX
  8
IMP_EC_PLATE_ISO-EDGE_CUTS_GBR
 10
233.79506
 20
-92.003332
 30
0.00
  0
VERTEX
  8
IMP_EC_PLATE_ISO-EDGE_CUTS_GBR
 10
232.79506
 20
-91.003332
 30
0.00
  0
SEQEND
  0
POLYLINE
  8
IMP_EC_PLATE_ISO-EDGE_CUTS_GBR
 66
1
 10
0.00
 20
0.00
 30
0.00
 40
0.20
 41
0.20
  0
VERTEX
  8
IMP_EC_PLATE_ISO-EDGE_CUTS_GBR
 10
246.39506
 20
-92.003332
 30
0.00
  0
VERTEX
  8
IMP_EC_PLATE_ISO-EDGE_CUTS_GBR
 10
233.79506
 20
-92.003332
 30
0.00
  0
SEQEND
  0
POLYLINE
  8
IMP_EC_PLATE_ISO-EDGE_CUTS_GBR
 66
1
 10
0.00
 20
0.00
 30
0.00
 40
0.20
 41
0.20
  0
VERTEX
  8
IMP_EC_PLATE_ISO-EDGE_CUTS_GBR
 10
247.39506
 20
-91.003332
 30
0.00
  0
VERTEX
  8
IMP_EC_PLATE_ISO-EDGE_CUTS_GBR
 10
246.39506
 20
-92.003332
 30
0.00
  0
SEQEND
  0
POLYLINE
  8
IMP_EC_PLATE_ISO-EDGE_CUTS_GBR
 66
1
 10
0.00
 20
0.00
 30
0.00
 40
0.20
 41
0.20
  0
VERTEX
  8
IMP_EC_PLATE_ISO-EDGE_CUTS_GBR
 10
247.39506
 20
-79.003332
 30
0.00
  0
VERTEX
  8
IMP_EC_PLATE_ISO-EDGE_CUTS_GBR
 10
247.39506
 20
-91.003332
 30
0.00
  0
SEQEND
  0
POLYLINE
  8
IMP_EC_PLATE_ISO-EDGE_CUTS_GBR
 66
1
 10
0.00
 20
0.00
 30
0.00
 40
0.20
 41
0.20
  0
VERTEX
  8
IMP_EC_PLATE_ISO-EDGE_CUTS_GBR
 10
246.39506
 20
-78.003332
 30
0.00
  0
VERTEX
  8
IMP_EC_PLATE_ISO-EDGE_CUTS_GBR
 10
247.39506
 20
-79.003332
 30
0.00
  0
SEQEND
  0
POLYLINE
  8
IMP_EC_PLATE_ISO-EDGE_CUTS_GBR
 66
1
 10
0.00
 20
0.00
 30
0.00
 40
0.20
 41
0.20
  0
VERTEX
  8
IMP_EC_PLATE_ISO-EDGE_CUTS_GBR
 10
233.79506
 20
-78.003332
 30
0.00
  0
VERTEX
  8
IMP_EC_PLATE_ISO-EDGE_CUTS_GBR
 10
246.39506
 20
-78.003332
 30
0.00
  0
SEQEND
  0
POLYLINE
  8
IMP_EC_PLATE_ISO-EDGE_CUTS_GBR
 66
1
 10
0.00
 20
0.00
 30
0.00
 40
0.20
 41
0.20
  0
VERTEX
  8
IMP_EC_PLATE_ISO-EDGE_CUTS_GBR
 10
374.694268
 20
-178.296884
 30
0.00
  0
VERTEX
  8
IMP_EC_PLATE_ISO-EDGE_CUTS_GBR
 10
375.694268
 20
-177.296884
 30
0.00
  0
SEQEND
  0
POLYLINE
  8
IMP_EC_PLATE_ISO-EDGE_CUTS_GBR
 66
1
 10
0.00
 20
0.00
 30
0.00
 40
0.20
 41
0.20
  0
VERTEX
  8
IMP_EC_PLATE_ISO-EDGE_CUTS_GBR
 10
374.694268
 20
-190.296884
 30
0.00
  0
VERTEX
  8
IMP_EC_PLATE_ISO-EDGE_CUTS_GBR
 10
374.694268
 20
-178.296884
 30
0.00
  0
SEQEND
  0
POLYLINE
  8
IMP_EC_PLATE_ISO-EDGE_CUTS_GBR
 66
1
 10
0.00
 20
0.00
 30
0.00
 40
0.20
 41
0.20
  0
VERTEX
  8
IMP_EC_PLATE_ISO-EDGE_CUTS_GBR
 10
375.694268
 20
-191.296884
 30
0.00
  0
VERTEX
  8
IMP_EC_PLATE_ISO-EDGE_CUTS_GBR
 10
374.694268
 20
-190.296884
 30
0.00
  0
SEQEND
  0
POLYLINE
  8
IMP_EC_PLATE_ISO-EDGE_CUTS_GBR
 66
1
 10
0.00
 20
0.00
 30
0.00
 40
0.20
 41
0.20
  0
VERTEX
  8
IMP_EC_PLATE_ISO-EDGE_CUTS_GBR
 10
388.294268
 20
-191.296884
 30
0.00
  0
VERTEX
  8
IMP_EC_PLATE_ISO-EDGE_CUTS_GBR
 10
375.694268
 20
-191.296884
 30
0.00
  0
SEQEND
  0
POLYLINE
  8
IMP_EC_PLATE_ISO-EDGE_CUTS_GBR
 66
1
 10
0.00
 20
0.00
 30
0.00
 40
0.20
 41
0.20
  0
VERTEX
  8
IMP_EC_PLATE_ISO-EDGE_CUTS_GBR
 10
389.294268
 20
-190.296884
 30
0.00
  0
VERTEX
  8
IMP_EC_PLATE_ISO-EDGE_CUTS_GBR
 10
388.294268
 20
-191.296884
 30
0.00
  0
SEQEND
  0
POLYLINE
  8
IMP_EC_PLATE_ISO-EDGE_CUTS_GBR
 66
1
 10
0.00
 20
0.00
 30
0.00
 40
0.20
 41
0.20
  0
VERTEX
  8
IMP_EC_PLATE_ISO-EDGE_CUTS_GBR
 10
389.294268
 20
-178.296884
 30
0.00
  0
VERTEX
  8
IMP_EC_PLATE_ISO-EDGE_CUTS_GBR
 10
389.294268
 20
-190.296884
 30
0.00
  0
SEQEND
  0
POLYLINE
  8
IMP_EC_PLATE_ISO-EDGE_CUTS_GBR
 66
1
 10
0.00
 20
0.00
 30
0.00
 40
0.20
 41
0.20
  0
VERTEX
  8
IMP_EC_PLATE_ISO-EDGE_CUTS_GBR
 10
388.294268
 20
-177.296884
 30
0.00
  0
VERTEX
  8
IMP_EC_PLATE_ISO-EDGE_CUTS_GBR
 10
389.294268
 20
-178.296884
 30
0.00
  0
SEQEND
  0
POLYLINE
  8
IMP_EC_PLATE_ISO-EDGE_CUTS_GBR
 66
1
 10
0.00
 20
0.00
 30
0.00
 40
0.20
 41
0.20
  0
VERTEX
  8
IMP_EC_PLATE_ISO-EDGE_CUTS_GBR
 10
375.694268
 20
-177.296884
 30
0.00
  0
VERTEX
  8
IMP_EC_PLATE_ISO-EDGE_CUTS_GBR
 10
388.294268
 20
-177.296884
 30
0.00
  0
SEQEND
  0
POLYLINE
  8
IMP_EC_PLATE_ISO-EDGE_CUTS_GBR
 66
1
 10
0.00
 20
0.00
 30
0.00
 40
0.20
 41
0.20
  0
VERTEX
  8
IMP_EC_PLATE_ISO-EDGE_CUTS_GBR
 10
355.674268
 20
-178.296884
 30
0.00
  0
VERTEX
  8
IMP_EC_PLATE_ISO-EDGE_CUTS_GBR
 10
356.674268
 20
-177.296884
 30
0.00
  0
SEQEND
  0
POLYLINE
  8
IMP_EC_PLATE_ISO-EDGE_CUTS_GBR
 66
1
 10
0.00
 20
0.00
 30
0.00
 40
0.20
 41
0.20
  0
VERTEX
  8
IMP_EC_PLATE_ISO-EDGE_CUTS_GBR
 10
355.674268
 20
-190.296884
 30
0.00
  0
VERTEX
  8
IMP_EC_PLATE_ISO-EDGE_CUTS_GBR
 10
355.674268
 20
-178.296884
 30
0.00
  0
SEQEND
  0
POLYLINE
  8
IMP_EC_PLATE_ISO-EDGE_CUTS_GBR
 66
1
 10
0.00
 20
0.00
 30
0.00
 40
0.20
 41
0.20
  0
VERTEX
  8
IMP_EC_PLATE_ISO-EDGE_CUTS_GBR
 10
356.674268
 20
-191.296884
 30
0.00
  0
VERTEX
  8
IMP_EC_PLATE_ISO-EDGE_CUTS_GBR
 10
355.674268
 20
-190.296884
 30
0.00
  0
SEQEND
  0
POLYLINE
  8
IMP_EC_PLATE_ISO-EDGE_CUTS_GBR
 66
1
 10
0.00
 20
0.00
 30
0.00
 40
0.20
 41
0.20
  0
VERTEX
  8
IMP_EC_PLATE_ISO-EDGE_CUTS_GBR
 10
369.274268
 20
-191.296884
 30
0.00
  0
VERTEX
  8
IMP_EC_PLATE_ISO-EDGE_CUTS_GBR
 10
356.674268
 20
-191.296884
 30
0.00
  0
SEQEND
  0
POLYLINE
  8
IMP_EC_PLATE_ISO-EDGE_CUTS_GBR
 66
1
 10
0.00
 20
0.00
 30
0.00
 40
0.20
 41
0.20
  0
VERTEX
  8
IMP_EC_PLATE_ISO-EDGE_CUTS_GBR
 10
370.274268
 20
-190.296884
 30
0.00
  0
VERTEX
  8
IMP_EC_PLATE_ISO-EDGE_CUTS_GBR
 10
369.274268
 20
-191.296884
 30
0.00
  0
SEQEND
  0
POLYLINE
  8
IMP_EC_PLATE_ISO-EDGE_CUTS_GBR
 66
1
 10
0.00
 20
0.00
 30
0.00
 40
0.20
 41
0.20
  0
VERTEX
  8
IMP_EC_PLATE_ISO-EDGE_CUTS_GBR
 10
370.274268
 20
-178.296884
 30
0.00
  0
VERTEX
  8
IMP_EC_PLATE_ISO-EDGE_CUTS_GBR
 10
370.274268
 20
-190.296884
 30
0.00
  0
SEQEND
  0
POLYLINE
  8
IMP_EC_PLATE_ISO-EDGE_CUTS_GBR
 66
1
 10
0.00
 20
0.00
 30
0.00
 40
0.20
 41
0.20
  0
VERTEX
  8
IMP_EC_PLATE_ISO-EDGE_CUTS_GBR
 10
369.274268
 20
-177.296884
 30
0.00
  0
VERTEX
  8
IMP_EC_PLATE_ISO-EDGE_CUTS_GBR
 10
370.274268
 20
-178.296884
 30
0.00
  0
SEQEND
  0
POLYLINE
  8
IMP_EC_PLATE_ISO-EDGE_CUTS_GBR
 66
1
 10
0.00
 20
0.00
 30
0.00
 40
0.20
 41
0.20
  0
VERTEX
  8
IMP_EC_PLATE_ISO-EDGE_CUTS_GBR
 10
356.674268
 20
-177.296884
 30
0.00
  0
VERTEX
  8
IMP_EC_PLATE_ISO-EDGE_CUTS_GBR
 10
369.274268
 20
-177.296884
 30
0.00
  0
SEQEND
  0
POLYLINE
  8
IMP_EC_PLATE_ISO-EDGE_CUTS_GBR
 66
1
 10
0.00
 20
0.00
 30
0.00
 40
0.20
 41
0.20
  0
VERTEX
  8
IMP_EC_PLATE_ISO-EDGE_CUTS_GBR
 10
336.654268
 20
-178.296884
 30
0.00
  0
VERTEX
  8
IMP_EC_PLATE_ISO-EDGE_CUTS_GBR
 10
337.654268
 20
-177.296884
 30
0.00
  0
SEQEND
  0
POLYLINE
  8
IMP_EC_PLATE_ISO-EDGE_CUTS_GBR
 66
1
 10
0.00
 20
0.00
 30
0.00
 40
0.20
 41
0.20
  0
VERTEX
  8
IMP_EC_PLATE_ISO-EDGE_CUTS_GBR
 10
336.654268
 20
-190.296884
 30
0.00
  0
VERTEX
  8
IMP_EC_PLATE_ISO-EDGE_CUTS_GBR
 10
336.654268
 20
-178.296884
 30
0.00
  0
SEQEND
  0
POLYLINE
  8
IMP_EC_PLATE_ISO-EDGE_CUTS_GBR
 66
1
 10
0.00
 20
0.00
 30
0.00
 40
0.20
 41
0.20
  0
VERTEX
  8
IMP_EC_PLATE_ISO-EDGE_CUTS_GBR
 10
337.654268
 20
-191.296884
 30
0.00
  0
VERTEX
  8
IMP_EC_PLATE_ISO-EDGE_CUTS_GBR
 10
336.654268
 20
-190.296884
 30
0.00
  0
SEQEND
  0
POLYLINE
  8
IMP_EC_PLATE_ISO-EDGE_CUTS_GBR
 66
1
 10
0.00
 20
0.00
 30
0.00
 40
0.20
 41
0.20
  0
VERTEX
  8
IMP_EC_PLATE_ISO-EDGE_CUTS_GBR
 10
350.254268
 20
-191.296884
 30
0.00
  0
VERTEX
  8
IMP_EC_PLATE_ISO-EDGE_CUTS_GBR
 10
337.654268
 20
-191.296884
 30
0.00
  0
SEQEND
  0
POLYLINE
  8
IMP_EC_PLATE_ISO-EDGE_CUTS_GBR
 66
1
 10
0.00
 20
0.00
 30
0.00
 40
0.20
 41
0.20
  0
VERTEX
  8
IMP_EC_PLATE_ISO-EDGE_CUTS_GBR
 10
351.254268
 20
-190.296884
 30
0.00
  0
VERTEX
  8
IMP_EC_PLATE_ISO-EDGE_CUTS_GBR
 10
350.254268
 20
-191.296884
 30
0.00
  0
SEQEND
  0
POLYLINE
  8
IMP_EC_PLATE_ISO-EDGE_CUTS_GBR
 66
1
 10
0.00
 20
0.00
 30
0.00
 40
0.20
 41
0.20
  0
VERTEX
  8
IMP_EC_PLATE_ISO-EDGE_CUTS_GBR
 10
351.254268
 20
-178.296884
 30
0.00
  0
VERTEX
  8
IMP_EC_PLATE_ISO-EDGE_CUTS_GBR
 10
351.254268
 20
-190.296884
 30
0.00
  0
SEQEND
  0
POLYLINE
  8
IMP_EC_PLATE_ISO-EDGE_CUTS_GBR
 66
1
 10
0.00
 20
0.00
 30
0.00
 40
0.20
 41
0.20
  0
VERTEX
  8
IMP_EC_PLATE_ISO-EDGE_CUTS_GBR
 10
350.254268
 20
-177.296884
 30
0.00
  0
VERTEX
  8
IMP_EC_PLATE_ISO-EDGE_CUTS_GBR
 10
351.254268
 20
-178.296884
 30
0.00
  0
SEQEND
  0
POLYLINE
  8
IMP_EC_PLATE_ISO-EDGE_CUTS_GBR
 66
1
 10
0.00
 20
0.00
 30
0.00
 40
0.20
 41
0.20
  0
VERTEX
  8
IMP_EC_PLATE_ISO-EDGE_CUTS_GBR
 10
337.654268
 20
-177.296884
 30
0.00
  0
VERTEX
  8
IMP_EC_PLATE_ISO-EDGE_CUTS_GBR
 10
350.254268
 20
-177.296884
 30
0.00
  0
SEQEND
  0
POLYLINE
  8
IMP_EC_PLATE_ISO-EDGE_CUTS_GBR
 66
1
 10
0.00
 20
0.00
 30
0.00
 40
0.20
 41
0.20
  0
VERTEX
  8
IMP_EC_PLATE_ISO-EDGE_CUTS_GBR
 10
308.812508
 20
-178.173332
 30
0.00
  0
VERTEX
  8
IMP_EC_PLATE_ISO-EDGE_CUTS_GBR
 10
309.812508
 20
-177.173332
 30
0.00
  0
SEQEND
  0
POLYLINE
  8
IMP_EC_PLATE_ISO-EDGE_CUTS_GBR
 66
1
 10
0.00
 20
0.00
 30
0.00
 40
0.20
 41
0.20
  0
VERTEX
  8
IMP_EC_PLATE_ISO-EDGE_CUTS_GBR
 10
308.812508
 20
-190.173332
 30
0.00
  0
VERTEX
  8
IMP_EC_PLATE_ISO-EDGE_CUTS_GBR
 10
308.812508
 20
-178.173332
 30
0.00
  0
SEQEND
  0
POLYLINE
  8
IMP_EC_PLATE_ISO-EDGE_CUTS_GBR
 66
1
 10
0.00
 20
0.00
 30
0.00
 40
0.20
 41
0.20
  0
VERTEX
  8
IMP_EC_PLATE_ISO-EDGE_CUTS_GBR
 10
309.812508
 20
-191.173332
 30
0.00
  0
VERTEX
  8
IMP_EC_PLATE_ISO-EDGE_CUTS_GBR
 10
308.812508
 20
-190.173332
 30
0.00
  0
SEQEND
  0
POLYLINE
  8
IMP_EC_PLATE_ISO-EDGE_CUTS_GBR
 66
1
 10
0.00
 20
0.00
 30
0.00
 40
0.20
 41
0.20
  0
VERTEX
  8
IMP_EC_PLATE_ISO-EDGE_CUTS_GBR
 10
322.412508
 20
-191.173332
 30
0.00
  0
VERTEX
  8
IMP_EC_PLATE_ISO-EDGE_CUTS_GBR
 10
309.812508
 20
-191.173332
 30
0.00
  0
SEQEND
  0
POLYLINE
  8
IMP_EC_PLATE_ISO-EDGE_CUTS_GBR
 66
1
 10
0.00
 20
0.00
 30
0.00
 40
0.20
 41
0.20
  0
VERTEX
  8
IMP_EC_PLATE_ISO-EDGE_CUTS_GBR
 10
323.412508
 20
-190.173332
 30
0.00
  0
VERTEX
  8
IMP_EC_PLATE_ISO-EDGE_CUTS_GBR
 10
322.412508
 20
-191.173332
 30
0.00
  0
SEQEND
  0
POLYLINE
  8
IMP_EC_PLATE_ISO-EDGE_CUTS_GBR
 66
1
 10
0.00
 20
0.00
 30
0.00
 40
0.20
 41
0.20
  0
VERTEX
  8
IMP_EC_PLATE_ISO-EDGE_CUTS_GBR
 10
323.412508
 20
-178.173332
 30
0.00
  0
VERTEX
  8
IMP_EC_PLATE_ISO-EDGE_CUTS_GBR
 10
323.412508
 20
-190.173332
 30
0.00
  0
SEQEND
  0
POLYLINE
  8
IMP_EC_PLATE_ISO-EDGE_CUTS_GBR
 66
1
 10
0.00
 20
0.00
 30
0.00
 40
0.20
 41
0.20
  0
VERTEX
  8
IMP_EC_PLATE_ISO-EDGE_CUTS_GBR
 10
322.412508
 20
-177.173332
 30
0.00
  0
VERTEX
  8
IMP_EC_PLATE_ISO-EDGE_CUTS_GBR
 10
323.412508
 20
-178.173332
 30
0.00
  0
SEQEND
  0
POLYLINE
  8
IMP_EC_PLATE_ISO-EDGE_CUTS_GBR
 66
1
 10
0.00
 20
0.00
 30
0.00
 40
0.20
 41
0.20
  0
VERTEX
  8
IMP_EC_PLATE_ISO-EDGE_CUTS_GBR
 10
309.812508
 20
-177.173332
 30
0.00
  0
VERTEX
  8
IMP_EC_PLATE_ISO-EDGE_CUTS_GBR
 10
322.412508
 20
-177.173332
 30
0.00
  0
SEQEND
  0
POLYLINE
  8
IMP_EC_PLATE_ISO-EDGE_CUTS_GBR
 66
1
 10
0.00
 20
0.00
 30
0.00
 40
0.20
 41
0.20
  0
VERTEX
  8
IMP_EC_PLATE_ISO-EDGE_CUTS_GBR
 10
285.119058
 20
-178.173332
 30
0.00
  0
VERTEX
  8
IMP_EC_PLATE_ISO-EDGE_CUTS_GBR
 10
286.119058
 20
-177.173332
 30
0.00
  0
SEQEND
  0
POLYLINE
  8
IMP_EC_PLATE_ISO-EDGE_CUTS_GBR
 66
1
 10
0.00
 20
0.00
 30
0.00
 40
0.20
 41
0.20
  0
VERTEX
  8
IMP_EC_PLATE_ISO-EDGE_CUTS_GBR
 10
285.119058
 20
-190.173332
 30
0.00
  0
VERTEX
  8
IMP_EC_PLATE_ISO-EDGE_CUTS_GBR
 10
285.119058
 20
-178.173332
 30
0.00
  0
SEQEND
  0
POLYLINE
  8
IMP_EC_PLATE_ISO-EDGE_CUTS_GBR
 66
1
 10
0.00
 20
0.00
 30
0.00
 40
0.20
 41
0.20
  0
VERTEX
  8
IMP_EC_PLATE_ISO-EDGE_CUTS_GBR
 10
286.119058
 20
-191.173332
 30
0.00
  0
VERTEX
  8
IMP_EC_PLATE_ISO-EDGE_CUTS_GBR
 10
285.119058
 20
-190.173332
 30
0.00
  0
SEQEND
  0
POLYLINE
  8
IMP_EC_PLATE_ISO-EDGE_CUTS_GBR
 66
1
 10
0.00
 20
0.00
 30
0.00
 40
0.20
 41
0.20
  0
VERTEX
  8
IMP_EC_PLATE_ISO-EDGE_CUTS_GBR
 10
298.719058
 20
-191.173332
 30
0.00
  0
VERTEX
  8
IMP_EC_PLATE_ISO-EDGE_CUTS_GBR
 10
286.119058
 20
-191.173332
 30
0.00
  0
SEQEND
  0
POLYLINE
  8
IMP_EC_PLATE_ISO-EDGE_CUTS_GBR
 66
1
 10
0.00
 20
0.00
 30
0.00
 40
0.20
 41
0.20
  0
VERTEX
  8
IMP_EC_PLATE_ISO-EDGE_CUTS_GBR
 10
299.719058
 20
-190.173332
 30
0.00
  0
VERTEX
  8
IMP_EC_PLATE_ISO-EDGE_CUTS_GBR
 10
298.719058
 20
-191.173332
 30
0.00
  0
SEQEND
  0
POLYLINE
  8
IMP_EC_PLATE_ISO-EDGE_CUTS_GBR
 66
1
 10
0.00
 20
0.00
 30
0.00
 40
0.20
 41
0.20
  0
VERTEX
  8
IMP_EC_PLATE_ISO-EDGE_CUTS_GBR
 10
299.719058
 20
-178.173332
 30
0.00
  0
VERTEX
  8
IMP_EC_PLATE_ISO-EDGE_CUTS_GBR
 10
299.719058
 20
-190.173332
 30
0.00
  0
SEQEND
  0
POLYLINE
  8
IMP_EC_PLATE_ISO-EDGE_CUTS_GBR
 66
1
 10
0.00
 20
0.00
 30
0.00
 40
0.20
 41
0.20
  0
VERTEX
  8
IMP_EC_PLATE_ISO-EDGE_CUTS_GBR
 10
298.719058
 20
-177.173332
 30
0.00
  0
VERTEX
  8
IMP_EC_PLATE_ISO-EDGE_CUTS_GBR
 10
299.719058
 20
-178.173332
 30
0.00
  0
SEQEND
  0
POLYLINE
  8
IMP_EC_PLATE_ISO-EDGE_CUTS_GBR
 66
1
 10
0.00
 20
0.00
 30
0.00
 40
0.20
 41
0.20
  0
VERTEX
  8
IMP_EC_PLATE_ISO-EDGE_CUTS_GBR
 10
286.119058
 20
-177.173332
 30
0.00
  0
VERTEX
  8
IMP_EC_PLATE_ISO-EDGE_CUTS_GBR
 10
298.719058
 20
-177.173332
 30
0.00
  0
SEQEND
  0
POLYLINE
  8
IMP_EC_PLATE_ISO-EDGE_CUTS_GBR
 66
1
 10
0.00
 20
0.00
 30
0.00
 40
0.20
 41
0.20
  0
VERTEX
  8
IMP_EC_PLATE_ISO-EDGE_CUTS_GBR
 10
355.674268
 20
-159.276884
 30
0.00
  0
VERTEX
  8
IMP_EC_PLATE_ISO-EDGE_CUTS_GBR
 10
356.674268
 20
-158.276884
 30
0.00
  0
SEQEND
  0
POLYLINE
  8
IMP_EC_PLATE_ISO-EDGE_CUTS_GBR
 66
1
 10
0.00
 20
0.00
 30
0.00
 40
0.20
 41
0.20
  0
VERTEX
  8
IMP_EC_PLATE_ISO-EDGE_CUTS_GBR
 10
355.674268
 20
-171.276884
 30
0.00
  0
VERTEX
  8
IMP_EC_PLATE_ISO-EDGE_CUTS_GBR
 10
355.674268
 20
-159.276884
 30
0.00
  0
SEQEND
  0
POLYLINE
  8
IMP_EC_PLATE_ISO-EDGE_CUTS_GBR
 66
1
 10
0.00
 20
0.00
 30
0.00
 40
0.20
 41
0.20
  0
VERTEX
  8
IMP_EC_PLATE_ISO-EDGE_CUTS_GBR
 10
356.674268
 20
-172.276884
 30
0.00
  0
VERTEX
  8
IMP_EC_PLATE_ISO-EDGE_CUTS_GBR
 10
355.674268
 20
-171.276884
 30
0.00
  0
SEQEND
  0
POLYLINE
  8
IMP_EC_PLATE_ISO-EDGE_CUTS_GBR
 66
1
 10
0.00
 20
0.00
 30
0.00
 40
0.20
 41
0.20
  0
VERTEX
  8
IMP_EC_PLATE_ISO-EDGE_CUTS_GBR
 10
369.274268
 20
-172.276884
 30
0.00
  0
VERTEX
  8
IMP_EC_PLATE_ISO-EDGE_CUTS_GBR
 10
356.674268
 20
-172.276884
 30
0.00
  0
SEQEND
  0
POLYLINE
  8
IMP_EC_PLATE_ISO-EDGE_CUTS_GBR
 66
1
 10
0.00
 20
0.00
 30
0.00
 40
0.20
 41
0.20
  0
VERTEX
  8
IMP_EC_PLATE_ISO-EDGE_CUTS_GBR
 10
370.274268
 20
-171.276884
 30
0.00
  0
VERTEX
  8
IMP_EC_PLATE_ISO-EDGE_CUTS_GBR
 10
369.274268
 20
-172.276884
 30
0.00
  0
SEQEND
  0
POLYLINE
  8
IMP_EC_PLATE_ISO-EDGE_CUTS_GBR
 66
1
 10
0.00
 20
0.00
 30
0.00
 40
0.20
 41
0.20
  0
VERTEX
  8
IMP_EC_PLATE_ISO-EDGE_CUTS_GBR
 10
370.274268
 20
-159.276884
 30
0.00
  0
VERTEX
  8
IMP_EC_PLATE_ISO-EDGE_CUTS_GBR
 10
370.274268
 20
-171.276884
 30
0.00
  0
SEQEND
  0
POLYLINE
  8
IMP_EC_PLATE_ISO-EDGE_CUTS_GBR
 66
1
 10
0.00
 20
0.00
 30
0.00
 40
0.20
 41
0.20
  0
VERTEX
  8
IMP_EC_PLATE_ISO-EDGE_CUTS_GBR
 10
369.274268
 20
-158.276884
 30
0.00
  0
VERTEX
  8
IMP_EC_PLATE_ISO-EDGE_CUTS_GBR
 10
370.274268
 20
-159.276884
 30
0.00
  0
SEQEND
  0
POLYLINE
  8
IMP_EC_PLATE_ISO-EDGE_CUTS_GBR
 66
1
 10
0.00
 20
0.00
 30
0.00
 40
0.20
 41
0.20
  0
VERTEX
  8
IMP_EC_PLATE_ISO-EDGE_CUTS_GBR
 10
356.674268
 20
-158.276884
 30
0.00
  0
VERTEX
  8
IMP_EC_PLATE_ISO-EDGE_CUTS_GBR
 10
369.274268
 20
-158.276884
 30
0.00
  0
SEQEND
  0
POLYLINE
  8
IMP_EC_PLATE_ISO-EDGE_CUTS_GBR
 66
1
 10
0.00
 20
0.00
 30
0.00
 40
0.20
 41
0.20
  0
VERTEX
  8
IMP_EC_PLATE_ISO-EDGE_CUTS_GBR
 10
261.39506
 20
-159.163332
 30
0.00
  0
VERTEX
  8
IMP_EC_PLATE_ISO-EDGE_CUTS_GBR
 10
262.39506
 20
-158.163332
 30
0.00
  0
SEQEND
  0
POLYLINE
  8
IMP_EC_PLATE_ISO-EDGE_CUTS_GBR
 66
1
 10
0.00
 20
0.00
 30
0.00
 40
0.20
 41
0.20
  0
VERTEX
  8
IMP_EC_PLATE_ISO-EDGE_CUTS_GBR
 10
261.39506
 20
-171.163332
 30
0.00
  0
VERTEX
  8
IMP_EC_PLATE_ISO-EDGE_CUTS_GBR
 10
261.39506
 20
-159.163332
 30
0.00
  0
SEQEND
  0
POLYLINE
  8
IMP_EC_PLATE_ISO-EDGE_CUTS_GBR
 66
1
 10
0.00
 20
0.00
 30
0.00
 40
0.20
 41
0.20
  0
VERTEX
  8
IMP_EC_PLATE_ISO-EDGE_CUTS_GBR
 10
262.39506
 20
-172.163332
 30
0.00
  0
VERTEX
  8
IMP_EC_PLATE_ISO-EDGE_CUTS_GBR
 10
261.39506
 20
-171.163332
 30
0.00
  0
SEQEND
  0
POLYLINE
  8
IMP_EC_PLATE_ISO-EDGE_CUTS_GBR
 66
1
 10
0.00
 20
0.00
 30
0.00
 40
0.20
 41
0.20
  0
VERTEX
  8
IMP_EC_PLATE_ISO-EDGE_CUTS_GBR
 10
274.99506
 20
-172.163332
 30
0.00
  0
VERTEX
  8
IMP_EC_PLATE_ISO-EDGE_CUTS_GBR
 10
262.39506
 20
-172.163332
 30
0.00
  0
SEQEND
  0
POLYLINE
  8
IMP_EC_PLATE_ISO-EDGE_CUTS_GBR
 66
1
 10
0.00
 20
0.00
 30
0.00
 40
0.20
 41
0.20
  0
VERTEX
  8
IMP_EC_PLATE_ISO-EDGE_CUTS_GBR
 10
275.99506
 20
-171.163332
 30
0.00
  0
VERTEX
  8
IMP_EC_PLATE_ISO-EDGE_CUTS_GBR
 10
274.99506
 20
-172.163332
 30
0.00
  0
SEQEND
  0
POLYLINE
  8
IMP_EC_PLATE_ISO-EDGE_CUTS_GBR
 66
1
 10
0.00
 20
0.00
 30
0.00
 40
0.20
 41
0.20
  0
VERTEX
  8
IMP_EC_PLATE_ISO-EDGE_CUTS_GBR
 10
275.99506
 20
-159.163332
 30
0.00
  0
VERTEX
  8
IMP_EC_PLATE_ISO-EDGE_CUTS_GBR
 10
275.99506
 20
-171.163332
 30
0.00
  0
SEQEND
  0
POLYLINE
  8
IMP_EC_PLATE_ISO-EDGE_CUTS_GBR
 66
1
 10
0.00
 20
0.00
 30
0.00
 40
0.20
 41
0.20
  0
VERTEX
  8
IMP_EC_PLATE_ISO-EDGE_CUTS_GBR
 10
274.99506
 20
-158.163332
 30
0.00
  0
VERTEX
  8
IMP_EC_PLATE_ISO-EDGE_CUTS_GBR
 10
275.99506
 20
-159.163332
 30
0.00
  0
SEQEND
  0
POLYLINE
  8
IMP_EC_PLATE_ISO-EDGE_CUTS_GBR
 66
1
 10
0.00
 20
0.00
 30
0.00
 40
0.20
 41
0.20
  0
VERTEX
  8
IMP_EC_PLATE_ISO-EDGE_CUTS_GBR
 10
262.39506
 20
-158.163332
 30
0.00
  0
VERTEX
  8
IMP_EC_PLATE_ISO-EDGE_CUTS_GBR
 10
274.99506
 20
-158.163332
 30
0.00
  0
SEQEND
  0
POLYLINE
  8
IMP_EC_PLATE_ISO-EDGE_CUTS_GBR
 66
1
 10
0.00
 20
0.00
 30
0.00
 40
0.20
 41
0.20
  0
VERTEX
  8
IMP_EC_PLATE_ISO-EDGE_CUTS_GBR
 10
242.39506
 20
-159.163332
 30
0.00
  0
VERTEX
  8
IMP_EC_PLATE_ISO-EDGE_CUTS_GBR
 10
243.39506
 20
-158.163332
 30
0.00
  0
SEQEND
  0
POLYLINE
  8
IMP_EC_PLATE_ISO-EDGE_CUTS_GBR
 66
1
 10
0.00
 20
0.00
 30
0.00
 40
0.20
 41
0.20
  0
VERTEX
  8
IMP_EC_PLATE_ISO-EDGE_CUTS_GBR
 10
242.39506
 20
-171.163332
 30
0.00
  0
VERTEX
  8
IMP_EC_PLATE_ISO-EDGE_CUTS_GBR
 10
242.39506
 20
-159.163332
 30
0.00
  0
SEQEND
  0
POLYLINE
  8
IMP_EC_PLATE_ISO-EDGE_CUTS_GBR
 66
1
 10
0.00
 20
0.00
 30
0.00
 40
0.20
 41
0.20
  0
VERTEX
  8
IMP_EC_PLATE_ISO-EDGE_CUTS_GBR
 10
243.39506
 20
-172.163332
 30
0.00
  0
VERTEX
  8
IMP_EC_PLATE_ISO-EDGE_CUTS_GBR
 10
242.39506
 20
-171.163332
 30
0.00
  0
SEQEND
  0
POLYLINE
  8
IMP_EC_PLATE_ISO-EDGE_CUTS_GBR
 66
1
 10
0.00
 20
0.00
 30
0.00
 40
0.20
 41
0.20
  0
VERTEX
  8
IMP_EC_PLATE_ISO-EDGE_CUTS_GBR
 10
255.99506
 20
-172.163332
 30
0.00
  0
VERTEX
  8
IMP_EC_PLATE_ISO-EDGE_CUTS_GBR
 10
243.39506
 20
-172.163332
 30
0.00
  0
SEQEND
  0
POLYLINE
  8
IMP_EC_PLATE_ISO-EDGE_CUTS_GBR
 66
1
 10
0.00
 20
0.00
 30
0.00
 40
0.20
 41
0.20
  0
VERTEX
  8
IMP_EC_PLATE_ISO-EDGE_CUTS_GBR
 10
256.99506
 20
-171.163332
 30
0.00
  0
VERTEX
  8
IMP_EC_PLATE_ISO-EDGE_CUTS_GBR
 10
255.99506
 20
-172.163332
 30
0.00
  0
SEQEND
  0
POLYLINE
  8
IMP_EC_PLATE_ISO-EDGE_CUTS_GBR
 66
1
 10
0.00
 20
0.00
 30
0.00
 40
0.20
 41
0.20
  0
VERTEX
  8
IMP_EC_PLATE_ISO-EDGE_CUTS_GBR
 10
256.99506
 20
-159.163332
 30
0.00
  0
VERTEX
  8
IMP_EC_PLATE_ISO-EDGE_CUTS_GBR
 10
256.99506
 20
-171.163332
 30
0.00
  0
SEQEND
  0
POLYLINE
  8
IMP_EC_PLATE_ISO-EDGE_CUTS_GBR
 66
1
 10
0.00
 20
0.00
 30
0.00
 40
0.20
 41
0.20
  0
VERTEX
  8
IMP_EC_PLATE_ISO-EDGE_CUTS_GBR
 10
255.99506
 20
-158.163332
 30
0.00
  0
VERTEX
  8
IMP_EC_PLATE_ISO-EDGE_CUTS_GBR
 10
256.99506
 20
-159.163332
 30
0.00
  0
SEQEND
  0
POLYLINE
  8
IMP_EC_PLATE_ISO-EDGE_CUTS_GBR
 66
1
 10
0.00
 20
0.00
 30
0.00
 40
0.20
 41
0.20
  0
VERTEX
  8
IMP_EC_PLATE_ISO-EDGE_CUTS_GBR
 10
243.39506
 20
-158.163332
 30
0.00
  0
VERTEX
  8
IMP_EC_PLATE_ISO-EDGE_CUTS_GBR
 10
255.99506
 20
-158.163332
 30
0.00
  0
SEQEND
  0
POLYLINE
  8
IMP_EC_PLATE_ISO-EDGE_CUTS_GBR
 66
1
 10
0.00
 20
0.00
 30
0.00
 40
0.20
 41
0.20
  0
VERTEX
  8
IMP_EC_PLATE_ISO-EDGE_CUTS_GBR
 10
223.39506
 20
-159.163332
 30
0.00
  0
VERTEX
  8
IMP_EC_PLATE_ISO-EDGE_CUTS_GBR
 10
224.39506
 20
-158.163332
 30
0.00
  0
SEQEND
  0
POLYLINE
  8
IMP_EC_PLATE_ISO-EDGE_CUTS_GBR
 66
1
 10
0.00
 20
0.00
 30
0.00
 40
0.20
 41
0.20
  0
VERTEX
  8
IMP_EC_PLATE_ISO-EDGE_CUTS_GBR
 10
223.39506
 20
-171.163332
 30
0.00
  0
VERTEX
  8
IMP_EC_PLATE_ISO-EDGE_CUTS_GBR
 10
223.39506
 20
-159.163332
 30
0.00
  0
SEQEND
  0
POLYLINE
  8
IMP_EC_PLATE_ISO-EDGE_CUTS_GBR
 66
1
 10
0.00
 20
0.00
 30
0.00
 40
0.20
 41
0.20
  0
VERTEX
  8
IMP_EC_PLATE_ISO-EDGE_CUTS_GBR
 10
224.39506
 20
-172.163332
 30
0.00
  0
VERTEX
  8
IMP_EC_PLATE_ISO-EDGE_CUTS_GBR
 10
223.39506
 20
-171.163332
 30
0.00
  0
SEQEND
  0
POLYLINE
  8
IMP_EC_PLATE_ISO-EDGE_CUTS_GBR
 66
1
 10
0.00
 20
0.00
 30
0.00
 40
0.20
 41
0.20
  0
VERTEX
  8
IMP_EC_PLATE_ISO-EDGE_CUTS_GBR
 10
236.99506
 20
-172.163332
 30
0.00
  0
VERTEX
  8
IMP_EC_PLATE_ISO-EDGE_CUTS_GBR
 10
224.39506
 20
-172.163332
 30
0.00
  0
SEQEND
  0
POLYLINE
  8
IMP_EC_PLATE_ISO-EDGE_CUTS_GBR
 66
1
 10
0.00
 20
0.00
 30
0.00
 40
0.20
 41
0.20
  0
VERTEX
  8
IMP_EC_PLATE_ISO-EDGE_CUTS_GBR
 10
237.99506
 20
-171.163332
 30
0.00
  0
VERTEX
  8
IMP_EC_PLATE_ISO-EDGE_CUTS_GBR
 10
236.99506
 20
-172.163332
 30
0.00
  0
SEQEND
  0
POLYLINE
  8
IMP_EC_PLATE_ISO-EDGE_CUTS_GBR
 66
1
 10
0.00
 20
0.00
 30
0.00
 40
0.20
 41
0.20
  0
VERTEX
  8
IMP_EC_PLATE_ISO-EDGE_CUTS_GBR
 10
237.99506
 20
-159.163332
 30
0.00
  0
VERTEX
  8
IMP_EC_PLATE_ISO-EDGE_CUTS_GBR
 10
237.99506
 20
-171.163332
 30
0.00
  0
SEQEND
  0
POLYLINE
  8
IMP_EC_PLATE_ISO-EDGE_CUTS_GBR
 66
1
 10
0.00
 20
0.00
 30
0.00
 40
0.20
 41
0.20
  0
VERTEX
  8
IMP_EC_PLATE_ISO-EDGE_CUTS_GBR
 10
236.99506
 20
-158.163332
 30
0.00
  0
VERTEX
  8
IMP_EC_PLATE_ISO-EDGE_CUTS_GBR
 10
237.99506
 20
-159.163332
 30
0.00
  0
SEQEND
  0
POLYLINE
  8
IMP_EC_PLATE_ISO-EDGE_CUTS_GBR
 66
1
 10
0.00
 20
0.00
 30
0.00
 40
0.20
 41
0.20
  0
VERTEX
  8
IMP_EC_PLATE_ISO-EDGE_CUTS_GBR
 10
224.39506
 20
-158.163332
 30
0.00
  0
VERTEX
  8
IMP_EC_PLATE_ISO-EDGE_CUTS_GBR
 10
236.99506
 20
-158.163332
 30
0.00
  0
SEQEND
  0
POLYLINE
  8
IMP_EC_PLATE_ISO-EDGE_CUTS_GBR
 66
1
 10
0.00
 20
0.00
 30
0.00
 40
0.20
 41
0.20
  0
VERTEX
  8
IMP_EC_PLATE_ISO-EDGE_CUTS_GBR
 10
270.98506
 20
-140.143332
 30
0.00
  0
VERTEX
  8
IMP_EC_PLATE_ISO-EDGE_CUTS_GBR
 10
271.98506
 20
-139.143332
 30
0.00
  0
SEQEND
  0
POLYLINE
  8
IMP_EC_PLATE_ISO-EDGE_CUTS_GBR
 66
1
 10
0.00
 20
0.00
 30
0.00
 40
0.20
 41
0.20
  0
VERTEX
  8
IMP_EC_PLATE_ISO-EDGE_CUTS_GBR
 10
270.98506
 20
-152.143332
 30
0.00
  0
VERTEX
  8
IMP_EC_PLATE_ISO-EDGE_CUTS_GBR
 10
270.98506
 20
-140.143332
 30
0.00
  0
SEQEND
  0
POLYLINE
  8
IMP_EC_PLATE_ISO-EDGE_CUTS_GBR
 66
1
 10
0.00
 20
0.00
 30
0.00
 40
0.20
 41
0.20
  0
VERTEX
  8
IMP_EC_PLATE_ISO-EDGE_CUTS_GBR
 10
271.98506
 20
-153.143332
 30
0.00
  0
VERTEX
  8
IMP_EC_PLATE_ISO-EDGE_CUTS_GBR
 10
270.98506
 20
-152.143332
 30
0.00
  0
SEQEND
  0
POLYLINE
  8
IMP_EC_PLATE_ISO-EDGE_CUTS_GBR
 66
1
 10
0.00
 20
0.00
 30
0.00
 40
0.20
 41
0.20
  0
VERTEX
  8
IMP_EC_PLATE_ISO-EDGE_CUTS_GBR
 10
284.58506
 20
-153.143332
 30
0.00
  0
VERTEX
  8
IMP_EC_PLATE_ISO-EDGE_CUTS_GBR
 10
271.98506
 20
-153.143332
 30
0.00
  0
SEQEND
  0
POLYLINE
  8
IMP_EC_PLATE_ISO-EDGE_CUTS_GBR
 66
1
 10
0.00
 20
0.00
 30
0.00
 40
0.20
 41
0.20
  0
VERTEX
  8
IMP_EC_PLATE_ISO-EDGE_CUTS_GBR
 10
285.58506
 20
-152.143332
 30
0.00
  0
VERTEX
  8
IMP_EC_PLATE_ISO-EDGE_CUTS_GBR
 10
284.58506
 20
-153.143332
 30
0.00
  0
SEQEND
  0
POLYLINE
  8
IMP_EC_PLATE_ISO-EDGE_CUTS_GBR
 66
1
 10
0.00
 20
0.00
 30
0.00
 40
0.20
 41
0.20
  0
VERTEX
  8
IMP_EC_PLATE_ISO-EDGE_CUTS_GBR
 10
285.58506
 20
-140.143332
 30
0.00
  0
VERTEX
  8
IMP_EC_PLATE_ISO-EDGE_CUTS_GBR
 10
285.58506
 20
-152.143332
 30
0.00
  0
SEQEND
  0
POLYLINE
  8
IMP_EC_PLATE_ISO-EDGE_CUTS_GBR
 66
1
 10
0.00
 20
0.00
 30
0.00
 40
0.20
 41
0.20
  0
VERTEX
  8
IMP_EC_PLATE_ISO-EDGE_CUTS_GBR
 10
284.58506
 20
-139.143332
 30
0.00
  0
VERTEX
  8
IMP_EC_PLATE_ISO-EDGE_CUTS_GBR
 10
285.58506
 20
-140.143332
 30
0.00
  0
SEQEND
  0
POLYLINE
  8
IMP_EC_PLATE_ISO-EDGE_CUTS_GBR
 66
1
 10
0.00
 20
0.00
 30
0.00
 40
0.20
 41
0.20
  0
VERTEX
  8
IMP_EC_PLATE_ISO-EDGE_CUTS_GBR
 10
271.98506
 20
-139.143332
 30
0.00
  0
VERTEX
  8
IMP_EC_PLATE_ISO-EDGE_CUTS_GBR
 10
284.58506
 20
-139.143332
 30
0.00
  0
SEQEND
  0
POLYLINE
  8
IMP_EC_PLATE_ISO-EDGE_CUTS_GBR
 66
1
 10
0.00
 20
0.00
 30
0.00
 40
0.20
 41
0.20
  0
VERTEX
  8
IMP_EC_PLATE_ISO-EDGE_CUTS_GBR
 10
251.98506
 20
-140.143332
 30
0.00
  0
VERTEX
  8
IMP_EC_PLATE_ISO-EDGE_CUTS_GBR
 10
252.98506
 20
-139.143332
 30
0.00
  0
SEQEND
  0
POLYLINE
  8
IMP_EC_PLATE_ISO-EDGE_CUTS_GBR
 66
1
 10
0.00
 20
0.00
 30
0.00
 40
0.20
 41
0.20
  0
VERTEX
  8
IMP_EC_PLATE_ISO-EDGE_CUTS_GBR
 10
251.98506
 20
-152.143332
 30
0.00
  0
VERTEX
  8
IMP_EC_PLATE_ISO-EDGE_CUTS_GBR
 10
251.98506
 20
-140.143332
 30
0.00
  0
SEQEND
  0
POLYLINE
  8
IMP_EC_PLATE_ISO-EDGE_CUTS_GBR
 66
1
 10
0.00
 20
0.00
 30
0.00
 40
0.20
 41
0.20
  0
VERTEX
  8
IMP_EC_PLATE_ISO-EDGE_CUTS_GBR
 10
252.98506
 20
-153.143332
 30
0.00
  0
VERTEX
  8
IMP_EC_PLATE_ISO-EDGE_CUTS_GBR
 10
251.98506
 20
-152.143332
 30
0.00
  0
SEQEND
  0
POLYLINE
  8
IMP_EC_PLATE_ISO-EDGE_CUTS_GBR
 66
1
 10
0.00
 20
0.00
 30
0.00
 40
0.20
 41
0.20
  0
VERTEX
  8
IMP_EC_PLATE_ISO-EDGE_CUTS_GBR
 10
265.58506
 20
-153.143332
 30
0.00
  0
VERTEX
  8
IMP_EC_PLATE_ISO-EDGE_CUTS_GBR
 10
252.98506
 20
-153.143332
 30
0.00
  0
SEQEND
  0
POLYLINE
  8
IMP_EC_PLATE_ISO-EDGE_CUTS_GBR
 66
1
 10
0.00
 20
0.00
 30
0.00
 40
0.20
 41
0.20
  0
VERTEX
  8
IMP_EC_PLATE_ISO-EDGE_CUTS_GBR
 10
266.58506
 20
-152.143332
 30
0.00
  0
VERTEX
  8
IMP_EC_PLATE_ISO-EDGE_CUTS_GBR
 10
265.58506
 20
-153.143332
 30
0.00
  0
SEQEND
  0
POLYLINE
  8
IMP_EC_PLATE_ISO-EDGE_CUTS_GBR
 66
1
 10
0.00
 20
0.00
 30
0.00
 40
0.20
 41
0.20
  0
VERTEX
  8
IMP_EC_PLATE_ISO-EDGE_CUTS_GBR
 10
266.58506
 20
-140.143332
 30
0.00
  0
VERTEX
  8
IMP_EC_PLATE_ISO-EDGE_CUTS_GBR
 10
266.58506
 20
-152.143332
 30
0.00
  0
SEQEND
  0
POLYLINE
  8
IMP_EC_PLATE_ISO-EDGE_CUTS_GBR
 66
1
 10
0.00
 20
0.00
 30
0.00
 40
0.20
 41
0.20
  0
VERTEX
  8
IMP_EC_PLATE_ISO-EDGE_CUTS_GBR
 10
265.58506
 20
-139.143332
 30
0.00
  0
VERTEX
  8
IMP_EC_PLATE_ISO-EDGE_CUTS_GBR
 10
266.58506
 20
-140.143332
 30
0.00
  0
SEQEND
  0
POLYLINE
  8
IMP_EC_PLATE_ISO-EDGE_CUTS_GBR
 66
1
 10
0.00
 20
0.00
 30
0.00
 40
0.20
 41
0.20
  0
VERTEX
  8
IMP_EC_PLATE_ISO-EDGE_CUTS_GBR
 10
252.98506
 20
-139.143332
 30
0.00
  0
VERTEX
  8
IMP_EC_PLATE_ISO-EDGE_CUTS_GBR
 10
265.58506
 20
-139.143332
 30
0.00
  0
SEQEND
  0
POLYLINE
  8
IMP_EC_PLATE_ISO-EDGE_CUTS_GBR
 66
1
 10
0.00
 20
0.00
 30
0.00
 40
0.20
 41
0.20
  0
VERTEX
  8
IMP_EC_PLATE_ISO-EDGE_CUTS_GBR
 10
232.98506
 20
-140.143332
 30
0.00
  0
VERTEX
  8
IMP_EC_PLATE_ISO-EDGE_CUTS_GBR
 10
233.98506
 20
-139.143332
 30
0.00
  0
SEQEND
  0
POLYLINE
  8
IMP_EC_PLATE_ISO-EDGE_CUTS_GBR
 66
1
 10
0.00
 20
0.00
 30
0.00
 40
0.20
 41
0.20
  0
VERTEX
  8
IMP_EC_PLATE_ISO-EDGE_CUTS_GBR
 10
232.98506
 20
-152.143332
 30
0.00
  0
VERTEX
  8
IMP_EC_PLATE_ISO-EDGE_CUTS_GBR
 10
232.98506
 20
-140.143332
 30
0.00
  0
SEQEND
  0
POLYLINE
  8
IMP_EC_PLATE_ISO-EDGE_CUTS_GBR
 66
1
 10
0.00
 20
0.00
 30
0.00
 40
0.20
 41
0.20
  0
VERTEX
  8
IMP_EC_PLATE_ISO-EDGE_CUTS_GBR
 10
233.98506
 20
-153.143332
 30
0.00
  0
VERTEX
  8
IMP_EC_PLATE_ISO-EDGE_CUTS_GBR
 10
232.98506
 20
-152.143332
 30
0.00
  0
SEQEND
  0
POLYLINE
  8
IMP_EC_PLATE_ISO-EDGE_CUTS_GBR
 66
1
 10
0.00
 20
0.00
 30
0.00
 40
0.20
 41
0.20
  0
VERTEX
  8
IMP_EC_PLATE_ISO-EDGE_CUTS_GBR
 10
246.58506
 20
-153.143332
 30
0.00
  0
VERTEX
  8
IMP_EC_PLATE_ISO-EDGE_CUTS_GBR
 10
233.98506
 20
-153.143332
 30
0.00
  0
SEQEND
  0
POLYLINE
  8
IMP_EC_PLATE_ISO-EDGE_CUTS_GBR
 66
1
 10
0.00
 20
0.00
 30
0.00
 40
0.20
 41
0.20
  0
VERTEX
  8
IMP_EC_PLATE_ISO-EDGE_CUTS_GBR
 10
247.58506
 20
-152.143332
 30
0.00
  0
VERTEX
  8
IMP_EC_PLATE_ISO-EDGE_CUTS_GBR
 10
246.58506
 20
-153.143332
 30
0.00
  0
SEQEND
  0
POLYLINE
  8
IMP_EC_PLATE_ISO-EDGE_CUTS_GBR
 66
1
 10
0.00
 20
0.00
 30
0.00
 40
0.20
 41
0.20
  0
VERTEX
  8
IMP_EC_PLATE_ISO-EDGE_CUTS_GBR
 10
247.58506
 20
-140.143332
 30
0.00
  0
VERTEX
  8
IMP_EC_PLATE_ISO-EDGE_CUTS_GBR
 10
247.58506
 20
-152.143332
 30
0.00
  0
SEQEND
  0
POLYLINE
  8
IMP_EC_PLATE_ISO-EDGE_CUTS_GBR
 66
1
 10
0.00
 20
0.00
 30
0.00
 40
0.20
 41
0.20
  0
VERTEX
  8
IMP_EC_PLATE_ISO-EDGE_CUTS_GBR
 10
246.58506
 20
-139.143332
 30
0.00
  0
VERTEX
  8
IMP_EC_PLATE_ISO-EDGE_CUTS_GBR
 10
247.58506
 20
-140.143332
 30
0.00
  0
SEQEND
  0
POLYLINE
  8
IMP_EC_PLATE_ISO-EDGE_CUTS_GBR
 66
1
 10
0.00
 20
0.00
 30
0.00
 40
0.20
 41
0.20
  0
VERTEX
  8
IMP_EC_PLATE_ISO-EDGE_CUTS_GBR
 10
233.98506
 20
-139.143332
 30
0.00
  0
VERTEX
  8
IMP_EC_PLATE_ISO-EDGE_CUTS_GBR
 10
246.58506
 20
-139.143332
 30
0.00
  0
SEQEND
  0
POLYLINE
  8
IMP_EC_PLATE_ISO-EDGE_CUTS_GBR
 66
1
 10
0.00
 20
0.00
 30
0.00
 40
0.20
 41
0.20
  0
VERTEX
  8
IMP_EC_PLATE_ISO-EDGE_CUTS_GBR
 10
374.684268
 20
-121.146884
 30
0.00
  0
VERTEX
  8
IMP_EC_PLATE_ISO-EDGE_CUTS_GBR
 10
375.684268
 20
-120.146884
 30
0.00
  0
SEQEND
  0
POLYLINE
  8
IMP_EC_PLATE_ISO-EDGE_CUTS_GBR
 66
1
 10
0.00
 20
0.00
 30
0.00
 40
0.20
 41
0.20
  0
VERTEX
  8
IMP_EC_PLATE_ISO-EDGE_CUTS_GBR
 10
374.684268
 20
-133.146884
 30
0.00
  0
VERTEX
  8
IMP_EC_PLATE_ISO-EDGE_CUTS_GBR
 10
374.684268
 20
-121.146884
 30
0.00
  0
SEQEND
  0
POLYLINE
  8
IMP_EC_PLATE_ISO-EDGE_CUTS_GBR
 66
1
 10
0.00
 20
0.00
 30
0.00
 40
0.20
 41
0.20
  0
VERTEX
  8
IMP_EC_PLATE_ISO-EDGE_CUTS_GBR
 10
375.684268
 20
-134.146884
 30
0.00
  0
VERTEX
  8
IMP_EC_PLATE_ISO-EDGE_CUTS_GBR
 10
374.684268
 20
-133.146884
 30
0.00
  0
SEQEND
  0
POLYLINE
  8
IMP_EC_PLATE_ISO-EDGE_CUTS_GBR
 66
1
 10
0.00
 20
0.00
 30
0.00
 40
0.20
 41
0.20
  0
VERTEX
  8
IMP_EC_PLATE_ISO-EDGE_CUTS_GBR
 10
388.284268
 20
-134.146884
 30
0.00
  0
VERTEX
  8
IMP_EC_PLATE_ISO-EDGE_CUTS_GBR
 10
375.684268
 20
-134.146884
 30
0.00
  0
SEQEND
  0
POLYLINE
  8
IMP_EC_PLATE_ISO-EDGE_CUTS_GBR
 66
1
 10
0.00
 20
0.00
 30
0.00
 40
0.20
 41
0.20
  0
VERTEX
  8
IMP_EC_PLATE_ISO-EDGE_CUTS_GBR
 10
389.284268
 20
-133.146884
 30
0.00
  0
VERTEX
  8
IMP_EC_PLATE_ISO-EDGE_CUTS_GBR
 10
388.284268
 20
-134.146884
 30
0.00
  0
SEQEND
  0
POLYLINE
  8
IMP_EC_PLATE_ISO-EDGE_CUTS_GBR
 66
1
 10
0.00
 20
0.00
 30
0.00
 40
0.20
 41
0.20
  0
VERTEX
  8
IMP_EC_PLATE_ISO-EDGE_CUTS_GBR
 10
389.284268
 20
-121.146884
 30
0.00
  0
VERTEX
  8
IMP_EC_PLATE_ISO-EDGE_CUTS_GBR
 10
389.284268
 20
-133.146884
 30
0.00
  0
SEQEND
  0
POLYLINE
  8
IMP_EC_PLATE_ISO-EDGE_CUTS_GBR
 66
1
 10
0.00
 20
0.00
 30
0.00
 40
0.20
 41
0.20
  0
VERTEX
  8
IMP_EC_PLATE_ISO-EDGE_CUTS_GBR
 10
388.284268
 20
-120.146884
 30
0.00
  0
VERTEX
  8
IMP_EC_PLATE_ISO-EDGE_CUTS_GBR
 10
389.284268
 20
-121.146884
 30
0.00
  0
SEQEND
  0
POLYLINE
  8
IMP_EC_PLATE_ISO-EDGE_CUTS_GBR
 66
1
 10
0.00
 20
0.00
 30
0.00
 40
0.20
 41
0.20
  0
VERTEX
  8
IMP_EC_PLATE_ISO-EDGE_CUTS_GBR
 10
375.684268
 20
-120.146884
 30
0.00
  0
VERTEX
  8
IMP_EC_PLATE_ISO-EDGE_CUTS_GBR
 10
388.284268
 20
-120.146884
 30
0.00
  0
SEQEND
  0
POLYLINE
  8
IMP_EC_PLATE_ISO-EDGE_CUTS_GBR
 66
1
 10
0.00
 20
0.00
 30
0.00
 40
0.20
 41
0.20
  0
VERTEX
  8
IMP_EC_PLATE_ISO-EDGE_CUTS_GBR
 10
355.664268
 20
-121.146884
 30
0.00
  0
VERTEX
  8
IMP_EC_PLATE_ISO-EDGE_CUTS_GBR
 10
356.664268
 20
-120.146884
 30
0.00
  0
SEQEND
  0
POLYLINE
  8
IMP_EC_PLATE_ISO-EDGE_CUTS_GBR
 66
1
 10
0.00
 20
0.00
 30
0.00
 40
0.20
 41
0.20
  0
VERTEX
  8
IMP_EC_PLATE_ISO-EDGE_CUTS_GBR
 10
355.664268
 20
-133.146884
 30
0.00
  0
VERTEX
  8
IMP_EC_PLATE_ISO-EDGE_CUTS_GBR
 10
355.664268
 20
-121.146884
 30
0.00
  0
SEQEND
  0
POLYLINE
  8
IMP_EC_PLATE_ISO-EDGE_CUTS_GBR
 66
1
 10
0.00
 20
0.00
 30
0.00
 40
0.20
 41
0.20
  0
VERTEX
  8
IMP_EC_PLATE_ISO-EDGE_CUTS_GBR
 10
356.664268
 20
-134.146884
 30
0.00
  0
VERTEX
  8
IMP_EC_PLATE_ISO-EDGE_CUTS_GBR
 10
355.664268
 20
-133.146884
 30
0.00
  0
SEQEND
  0
POLYLINE
  8
IMP_EC_PLATE_ISO-EDGE_CUTS_GBR
 66
1
 10
0.00
 20
0.00
 30
0.00
 40
0.20
 41
0.20
  0
VERTEX
  8
IMP_EC_PLATE_ISO-EDGE_CUTS_GBR
 10
369.264268
 20
-134.146884
 30
0.00
  0
VERTEX
  8
IMP_EC_PLATE_ISO-EDGE_CUTS_GBR
 10
356.664268
 20
-134.146884
 30
0.00
  0
SEQEND
  0
POLYLINE
  8
IMP_EC_PLATE_ISO-EDGE_CUTS_GBR
 66
1
 10
0.00
 20
0.00
 30
0.00
 40
0.20
 41
0.20
  0
VERTEX
  8
IMP_EC_PLATE_ISO-EDGE_CUTS_GBR
 10
370.264268
 20
-133.146884
 30
0.00
  0
VERTEX
  8
IMP_EC_PLATE_ISO-EDGE_CUTS_GBR
 10
369.264268
 20
-134.146884
 30
0.00
  0
SEQEND
  0
POLYLINE
  8
IMP_EC_PLATE_ISO-EDGE_CUTS_GBR
 66
1
 10
0.00
 20
0.00
 30
0.00
 40
0.20
 41
0.20
  0
VERTEX
  8
IMP_EC_PLATE_ISO-EDGE_CUTS_GBR
 10
370.264268
 20
-121.146884
 30
0.00
  0
VERTEX
  8
IMP_EC_PLATE_ISO-EDGE_CUTS_GBR
 10
370.264268
 20
-133.146884
 30
0.00
  0
SEQEND
  0
POLYLINE
  8
IMP_EC_PLATE_ISO-EDGE_CUTS_GBR
 66
1
 10
0.00
 20
0.00
 30
0.00
 40
0.20
 41
0.20
  0
VERTEX
  8
IMP_EC_PLATE_ISO-EDGE_CUTS_GBR
 10
369.264268
 20
-120.146884
 30
0.00
  0
VERTEX
  8
IMP_EC_PLATE_ISO-EDGE_CUTS_GBR
 10
370.264268
 20
-121.146884
 30
0.00
  0
SEQEND
  0
POLYLINE
  8
IMP_EC_PLATE_ISO-EDGE_CUTS_GBR
 66
1
 10
0.00
 20
0.00
 30
0.00
 40
0.20
 41
0.20
  0
VERTEX
  8
IMP_EC_PLATE_ISO-EDGE_CUTS_GBR
 10
356.664268
 20
-120.146884
 30
0.00
  0
VERTEX
  8
IMP_EC_PLATE_ISO-EDGE_CUTS_GBR
 10
369.264268
 20
-120.146884
 30
0.00
  0
SEQEND
  0
POLYLINE
  8
IMP_EC_PLATE_ISO-EDGE_CUTS_GBR
 66
1
 10
0.00
 20
0.00
 30
0.00
 40
0.20
 41
0.20
  0
VERTEX
  8
IMP_EC_PLATE_ISO-EDGE_CUTS_GBR
 10
336.644268
 20
-121.146884
 30
0.00
  0
VERTEX
  8
IMP_EC_PLATE_ISO-EDGE_CUTS_GBR
 10
337.644268
 20
-120.146884
 30
0.00
  0
SEQEND
  0
POLYLINE
  8
IMP_EC_PLATE_ISO-EDGE_CUTS_GBR
 66
1
 10
0.00
 20
0.00
 30
0.00
 40
0.20
 41
0.20
  0
VERTEX
  8
IMP_EC_PLATE_ISO-EDGE_CUTS_GBR
 10
336.644268
 20
-133.146884
 30
0.00
  0
VERTEX
  8
IMP_EC_PLATE_ISO-EDGE_CUTS_GBR
 10
336.644268
 20
-121.146884
 30
0.00
  0
SEQEND
  0
POLYLINE
  8
IMP_EC_PLATE_ISO-EDGE_CUTS_GBR
 66
1
 10
0.00
 20
0.00
 30
0.00
 40
0.20
 41
0.20
  0
VERTEX
  8
IMP_EC_PLATE_ISO-EDGE_CUTS_GBR
 10
337.644268
 20
-134.146884
 30
0.00
  0
VERTEX
  8
IMP_EC_PLATE_ISO-EDGE_CUTS_GBR
 10
336.644268
 20
-133.146884
 30
0.00
  0
SEQEND
  0
POLYLINE
  8
IMP_EC_PLATE_ISO-EDGE_CUTS_GBR
 66
1
 10
0.00
 20
0.00
 30
0.00
 40
0.20
 41
0.20
  0
VERTEX
  8
IMP_EC_PLATE_ISO-EDGE_CUTS_GBR
 10
350.244268
 20
-134.146884
 30
0.00
  0
VERTEX
  8
IMP_EC_PLATE_ISO-EDGE_CUTS_GBR
 10
337.644268
 20
-134.146884
 30
0.00
  0
SEQEND
  0
POLYLINE
  8
IMP_EC_PLATE_ISO-EDGE_CUTS_GBR
 66
1
 10
0.00
 20
0.00
 30
0.00
 40
0.20
 41
0.20
  0
VERTEX
  8
IMP_EC_PLATE_ISO-EDGE_CUTS_GBR
 10
351.244268
 20
-133.146884
 30
0.00
  0
VERTEX
  8
IMP_EC_PLATE_ISO-EDGE_CUTS_GBR
 10
350.244268
 20
-134.146884
 30
0.00
  0
SEQEND
  0
POLYLINE
  8
IMP_EC_PLATE_ISO-EDGE_CUTS_GBR
 66
1
 10
0.00
 20
0.00
 30
0.00
 40
0.20
 41
0.20
  0
VERTEX
  8
IMP_EC_PLATE_ISO-EDGE_CUTS_GBR
 10
351.244268
 20
-121.146884
 30
0.00
  0
VERTEX
  8
IMP_EC_PLATE_ISO-EDGE_CUTS_GBR
 10
351.244268
 20
-133.146884
 30
0.00
  0
SEQEND
  0
POLYLINE
  8
IMP_EC_PLATE_ISO-EDGE_CUTS_GBR
 66
1
 10
0.00
 20
0.00
 30
0.00
 40
0.20
 41
0.20
  0
VERTEX
  8
IMP_EC_PLATE_ISO-EDGE_CUTS_GBR
 10
350.244268
 20
-120.146884
 30
0.00
  0
VERTEX
  8
IMP_EC_PLATE_ISO-EDGE_CUTS_GBR
 10
351.244268
 20
-121.146884
 30
0.00
  0
SEQEND
  0
POLYLINE
  8
IMP_EC_PLATE_ISO-EDGE_CUTS_GBR
 66
1
 10
0.00
 20
0.00
 30
0.00
 40
0.20
 41
0.20
  0
VERTEX
  8
IMP_EC_PLATE_ISO-EDGE_CUTS_GBR
 10
337.644268
 20
-120.146884
 30
0.00
  0
VERTEX
  8
IMP_EC_PLATE_ISO-EDGE_CUTS_GBR
 10
350.244268
 20
-120.146884
 30
0.00
  0
SEQEND
  0
POLYLINE
  8
IMP_EC_PLATE_ISO-EDGE_CUTS_GBR
 66
1
 10
0.00
 20
0.00
 30
0.00
 40
0.20
 41
0.20
  0
VERTEX
  8
IMP_EC_PLATE_ISO-EDGE_CUTS_GBR
 10
285.27506
 20
-121.123332
 30
0.00
  0
VERTEX
  8
IMP_EC_PLATE_ISO-EDGE_CUTS_GBR
 10
286.27506
 20
-120.123332
 30
0.00
  0
SEQEND
  0
POLYLINE
  8
IMP_EC_PLATE_ISO-EDGE_CUTS_GBR
 66
1
 10
0.00
 20
0.00
 30
0.00
 40
0.20
 41
0.20
  0
VERTEX
  8
IMP_EC_PLATE_ISO-EDGE_CUTS_GBR
 10
285.27506
 20
-133.123332
 30
0.00
  0
VERTEX
  8
IMP_EC_PLATE_ISO-EDGE_CUTS_GBR
 10
285.27506
 20
-121.123332
 30
0.00
  0
SEQEND
  0
POLYLINE
  8
IMP_EC_PLATE_ISO-EDGE_CUTS_GBR
 66
1
 10
0.00
 20
0.00
 30
0.00
 40
0.20
 41
0.20
  0
VERTEX
  8
IMP_EC_PLATE_ISO-EDGE_CUTS_GBR
 10
286.27506
 20
-134.123332
 30
0.00
  0
VERTEX
  8
IMP_EC_PLATE_ISO-EDGE_CUTS_GBR
 10
285.27506
 20
-133.123332
 30
0.00
  0
SEQEND
  0
POLYLINE
  8
IMP_EC_PLATE_ISO-EDGE_CUTS_GBR
 66
1
 10
0.00
 20
0.00
 30
0.00
 40
0.20
 41
0.20
  0
VERTEX
  8
IMP_EC_PLATE_ISO-EDGE_CUTS_GBR
 10
298.87506
 20
-134.123332
 30
0.00
  0
VERTEX
  8
IMP_EC_PLATE_ISO-EDGE_CUTS_GBR
 10
286.27506
 20
-134.123332
 30
0.00
  0
SEQEND
  0
POLYLINE
  8
IMP_EC_PLATE_ISO-EDGE_CUTS_GBR
 66
1
 10
0.00
 20
0.00
 30
0.00
 40
0.20
 41
0.20
  0
VERTEX
  8
IMP_EC_PLATE_ISO-EDGE_CUTS_GBR
 10
299.87506
 20
-133.123332
 30
0.00
  0
VERTEX
  8
IMP_EC_PLATE_ISO-EDGE_CUTS_GBR
 10
298.87506
 20
-134.123332
 30
0.00
  0
SEQEND
  0
POLYLINE
  8
IMP_EC_PLATE_ISO-EDGE_CUTS_GBR
 66
1
 10
0.00
 20
0.00
 30
0.00
 40
0.20
 41
0.20
  0
VERTEX
  8
IMP_EC_PLATE_ISO-EDGE_CUTS_GBR
 10
299.87506
 20
-121.123332
 30
0.00
  0
VERTEX
  8
IMP_EC_PLATE_ISO-EDGE_CUTS_GBR
 10
299.87506
 20
-133.123332
 30
0.00
  0
SEQEND
  0
POLYLINE
  8
IMP_EC_PLATE_ISO-EDGE_CUTS_GBR
 66
1
 10
0.00
 20
0.00
 30
0.00
 40
0.20
 41
0.20
  0
VERTEX
  8
IMP_EC_PLATE_ISO-EDGE_CUTS_GBR
 10
298.87506
 20
-120.123332
 30
0.00
  0
VERTEX
  8
IMP_EC_PLATE_ISO-EDGE_CUTS_GBR
 10
299.87506
 20
-121.123332
 30
0.00
  0
SEQEND
  0
POLYLINE
  8
IMP_EC_PLATE_ISO-EDGE_CUTS_GBR
 66
1
 10
0.00
 20
0.00
 30
0.00
 40
0.20
 41
0.20
  0
VERTEX
  8
IMP_EC_PLATE_ISO-EDGE_CUTS_GBR
 10
286.27506
 20
-120.123332
 30
0.00
  0
VERTEX
  8
IMP_EC_PLATE_ISO-EDGE_CUTS_GBR
 10
298.87506
 20
-120.123332
 30
0.00
  0
SEQEND
  0
POLYLINE
  8
IMP_EC_PLATE_ISO-EDGE_CUTS_GBR
 66
1
 10
0.00
 20
0.00
 30
0.00
 40
0.20
 41
0.20
  0
VERTEX
  8
IMP_EC_PLATE_ISO-EDGE_CUTS_GBR
 10
266.25506
 20
-121.123332
 30
0.00
  0
VERTEX
  8
IMP_EC_PLATE_ISO-EDGE_CUTS_GBR
 10
267.25506
 20
-120.123332
 30
0.00
  0
SEQEND
  0
POLYLINE
  8
IMP_EC_PLATE_ISO-EDGE_CUTS_GBR
 66
1
 10
0.00
 20
0.00
 30
0.00
 40
0.20
 41
0.20
  0
VERTEX
  8
IMP_EC_PLATE_ISO-EDGE_CUTS_GBR
 10
266.25506
 20
-133.123332
 30
0.00
  0
VERTEX
  8
IMP_EC_PLATE_ISO-EDGE_CUTS_GBR
 10
266.25506
 20
-121.123332
 30
0.00
  0
SEQEND
  0
POLYLINE
  8
IMP_EC_PLATE_ISO-EDGE_CUTS_GBR
 66
1
 10
0.00
 20
0.00
 30
0.00
 40
0.20
 41
0.20
  0
VERTEX
  8
IMP_EC_PLATE_ISO-EDGE_CUTS_GBR
 10
267.25506
 20
-134.123332
 30
0.00
  0
VERTEX
  8
IMP_EC_PLATE_ISO-EDGE_CUTS_GBR
 10
266.25506
 20
-133.123332
 30
0.00
  0
SEQEND
  0
POLYLINE
  8
IMP_EC_PLATE_ISO-EDGE_CUTS_GBR
 66
1
 10
0.00
 20
0.00
 30
0.00
 40
0.20
 41
0.20
  0
VERTEX
  8
IMP_EC_PLATE_ISO-EDGE_CUTS_GBR
 10
279.85506
 20
-134.123332
 30
0.00
  0
VERTEX
  8
IMP_EC_PLATE_ISO-EDGE_CUTS_GBR
 10
267.25506
 20
-134.123332
 30
0.00
  0
SEQEND
  0
POLYLINE
  8
IMP_EC_PLATE_ISO-EDGE_CUTS_GBR
 66
1
 10
0.00
 20
0.00
 30
0.00
 40
0.20
 41
0.20
  0
VERTEX
  8
IMP_EC_PLATE_ISO-EDGE_CUTS_GBR
 10
280.85506
 20
-133.123332
 30
0.00
  0
VERTEX
  8
IMP_EC_PLATE_ISO-EDGE_CUTS_GBR
 10
279.85506
 20
-134.123332
 30
0.00
  0
SEQEND
  0
POLYLINE
  8
IMP_EC_PLATE_ISO-EDGE_CUTS_GBR
 66
1
 10
0.00
 20
0.00
 30
0.00
 40
0.20
 41
0.20
  0
VERTEX
  8
IMP_EC_PLATE_ISO-EDGE_CUTS_GBR
 10
280.85506
 20
-121.123332
 30
0.00
  0
VERTEX
  8
IMP_EC_PLATE_ISO-EDGE_CUTS_GBR
 10
280.85506
 20
-133.123332
 30
0.00
  0
SEQEND
  0
POLYLINE
  8
IMP_EC_PLATE_ISO-EDGE_CUTS_GBR
 66
1
 10
0.00
 20
0.00
 30
0.00
 40
0.20
 41
0.20
  0
VERTEX
  8
IMP_EC_PLATE_ISO-EDGE_CUTS_GBR
 10
279.85506
 20
-120.123332
 30
0.00
  0
VERTEX
  8
IMP_EC_PLATE_ISO-EDGE_CUTS_GBR
 10
280.85506
 20
-121.123332
 30
0.00
  0
SEQEND
  0
POLYLINE
  8
IMP_EC_PLATE_ISO-EDGE_CUTS_GBR
 66
1
 10
0.00
 20
0.00
 30
0.00
 40
0.20
 41
0.20
  0
VERTEX
  8
IMP_EC_PLATE_ISO-EDGE_CUTS_GBR
 10
267.25506
 20
-120.123332
 30
0.00
  0
VERTEX
  8
IMP_EC_PLATE_ISO-EDGE_CUTS_GBR
 10
279.85506
 20
-120.123332
 30
0.00
  0
SEQEND
  0
POLYLINE
  8
IMP_EC_PLATE_ISO-EDGE_CUTS_GBR
 66
1
 10
0.00
 20
0.00
 30
0.00
 40
0.20
 41
0.20
  0
VERTEX
  8
IMP_EC_PLATE_ISO-EDGE_CUTS_GBR
 10
247.23506
 20
-121.123332
 30
0.00
  0
VERTEX
  8
IMP_EC_PLATE_ISO-EDGE_CUTS_GBR
 10
248.23506
 20
-120.123332
 30
0.00
  0
SEQEND
  0
POLYLINE
  8
IMP_EC_PLATE_ISO-EDGE_CUTS_GBR
 66
1
 10
0.00
 20
0.00
 30
0.00
 40
0.20
 41
0.20
  0
VERTEX
  8
IMP_EC_PLATE_ISO-EDGE_CUTS_GBR
 10
247.23506
 20
-133.123332
 30
0.00
  0
VERTEX
  8
IMP_EC_PLATE_ISO-EDGE_CUTS_GBR
 10
247.23506
 20
-121.123332
 30
0.00
  0
SEQEND
  0
POLYLINE
  8
IMP_EC_PLATE_ISO-EDGE_CUTS_GBR
 66
1
 10
0.00
 20
0.00
 30
0.00
 40
0.20
 41
0.20
  0
VERTEX
  8
IMP_EC_PLATE_ISO-EDGE_CUTS_GBR
 10
248.23506
 20
-134.123332
 30
0.00
  0
VERTEX
  8
IMP_EC_PLATE_ISO-EDGE_CUTS_GBR
 10
247.23506
 20
-133.123332
 30
0.00
  0
SEQEND
  0
POLYLINE
  8
IMP_EC_PLATE_ISO-EDGE_CUTS_GBR
 66
1
 10
0.00
 20
0.00
 30
0.00
 40
0.20
 41
0.20
  0
VERTEX
  8
IMP_EC_PLATE_ISO-EDGE_CUTS_GBR
 10
260.83506
 20
-134.123332
 30
0.00
  0
VERTEX
  8
IMP_EC_PLATE_ISO-EDGE_CUTS_GBR
 10
248.23506
 20
-134.123332
 30
0.00
  0
SEQEND
  0
POLYLINE
  8
IMP_EC_PLATE_ISO-EDGE_CUTS_GBR
 66
1
 10
0.00
 20
0.00
 30
0.00
 40
0.20
 41
0.20
  0
VERTEX
  8
IMP_EC_PLATE_ISO-EDGE_CUTS_GBR
 10
261.83506
 20
-133.123332
 30
0.00
  0
VERTEX
  8
IMP_EC_PLATE_ISO-EDGE_CUTS_GBR
 10
260.83506
 20
-134.123332
 30
0.00
  0
SEQEND
  0
POLYLINE
  8
IMP_EC_PLATE_ISO-EDGE_CUTS_GBR
 66
1
 10
0.00
 20
0.00
 30
0.00
 40
0.20
 41
0.20
  0
VERTEX
  8
IMP_EC_PLATE_ISO-EDGE_CUTS_GBR
 10
261.83506
 20
-121.123332
 30
0.00
  0
VERTEX
  8
IMP_EC_PLATE_ISO-EDGE_CUTS_GBR
 10
261.83506
 20
-133.123332
 30
0.00
  0
SEQEND
  0
POLYLINE
  8
IMP_EC_PLATE_ISO-EDGE_CUTS_GBR
 66
1
 10
0.00
 20
0.00
 30
0.00
 40
0.20
 41
0.20
  0
VERTEX
  8
IMP_EC_PLATE_ISO-EDGE_CUTS_GBR
 10
260.83506
 20
-120.123332
 30
0.00
  0
VERTEX
  8
IMP_EC_PLATE_ISO-EDGE_CUTS_GBR
 10
261.83506
 20
-121.123332
 30
0.00
  0
SEQEND
  0
POLYLINE
  8
IMP_EC_PLATE_ISO-EDGE_CUTS_GBR
 66
1
 10
0.00
 20
0.00
 30
0.00
 40
0.20
 41
0.20
  0
VERTEX
  8
IMP_EC_PLATE_ISO-EDGE_CUTS_GBR
 10
248.23506
 20
-120.123332
 30
0.00
  0
VERTEX
  8
IMP_EC_PLATE_ISO-EDGE_CUTS_GBR
 10
260.83506
 20
-120.123332
 30
0.00
  0
SEQEND
  0
POLYLINE
  8
IMP_EC_PLATE_ISO-EDGE_CUTS_GBR
 66
1
 10
0.00
 20
0.00
 30
0.00
 40
0.20
 41
0.20
  0
VERTEX
  8
IMP_EC_PLATE_ISO-EDGE_CUTS_GBR
 10
228.21506
 20
-121.123332
 30
0.00
  0
VERTEX
  8
IMP_EC_PLATE_ISO-EDGE_CUTS_GBR
 10
229.21506
 20
-120.123332
 30
0.00
  0
SEQEND
  0
POLYLINE
  8
IMP_EC_PLATE_ISO-EDGE_CUTS_GBR
 66
1
 10
0.00
 20
0.00
 30
0.00
 40
0.20
 41
0.20
  0
VERTEX
  8
IMP_EC_PLATE_ISO-EDGE_CUTS_GBR
 10
228.21506
 20
-133.123332
 30
0.00
  0
VERTEX
  8
IMP_EC_PLATE_ISO-EDGE_CUTS_GBR
 10
228.21506
 20
-121.123332
 30
0.00
  0
SEQEND
  0
POLYLINE
  8
IMP_EC_PLATE_ISO-EDGE_CUTS_GBR
 66
1
 10
0.00
 20
0.00
 30
0.00
 40
0.20
 41
0.20
  0
VERTEX
  8
IMP_EC_PLATE_ISO-EDGE_CUTS_GBR
 10
229.21506
 20
-134.123332
 30
0.00
  0
VERTEX
  8
IMP_EC_PLATE_ISO-EDGE_CUTS_GBR
 10
228.21506
 20
-133.123332
 30
0.00
  0
SEQEND
  0
POLYLINE
  8
IMP_EC_PLATE_ISO-EDGE_CUTS_GBR
 66
1
 10
0.00
 20
0.00
 30
0.00
 40
0.20
 41
0.20
  0
VERTEX
  8
IMP_EC_PLATE_ISO-EDGE_CUTS_GBR
 10
241.81506
 20
-134.123332
 30
0.00
  0
VERTEX
  8
IMP_EC_PLATE_ISO-EDGE_CUTS_GBR
 10
229.21506
 20
-134.123332
 30
0.00
  0
SEQEND
  0
POLYLINE
  8
IMP_EC_PLATE_ISO-EDGE_CUTS_GBR
 66
1
 10
0.00
 20
0.00
 30
0.00
 40
0.20
 41
0.20
  0
VERTEX
  8
IMP_EC_PLATE_ISO-EDGE_CUTS_GBR
 10
242.81506
 20
-133.123332
 30
0.00
  0
VERTEX
  8
IMP_EC_PLATE_ISO-EDGE_CUTS_GBR
 10
241.81506
 20
-134.123332
 30
0.00
  0
SEQEND
  0
POLYLINE
  8
IMP_EC_PLATE_ISO-EDGE_CUTS_GBR
 66
1
 10
0.00
 20
0.00
 30
0.00
 40
0.20
 41
0.20
  0
VERTEX
  8
IMP_EC_PLATE_ISO-EDGE_CUTS_GBR
 10
242.81506
 20
-121.123332
 30
0.00
  0
VERTEX
  8
IMP_EC_PLATE_ISO-EDGE_CUTS_GBR
 10
242.81506
 20
-133.123332
 30
0.00
  0
SEQEND
  0
POLYLINE
  8
IMP_EC_PLATE_ISO-EDGE_CUTS_GBR
 66
1
 10
0.00
 20
0.00
 30
0.00
 40
0.20
 41
0.20
  0
VERTEX
  8
IMP_EC_PLATE_ISO-EDGE_CUTS_GBR
 10
241.81506
 20
-120.123332
 30
0.00
  0
VERTEX
  8
IMP_EC_PLATE_ISO-EDGE_CUTS_GBR
 10
242.81506
 20
-121.123332
 30
0.00
  0
SEQEND
  0
POLYLINE
  8
IMP_EC_PLATE_ISO-EDGE_CUTS_GBR
 66
1
 10
0.00
 20
0.00
 30
0.00
 40
0.20
 41
0.20
  0
VERTEX
  8
IMP_EC_PLATE_ISO-EDGE_CUTS_GBR
 10
229.21506
 20
-120.123332
 30
0.00
  0
VERTEX
  8
IMP_EC_PLATE_ISO-EDGE_CUTS_GBR
 10
241.81506
 20
-120.123332
 30
0.00
  0
SEQEND
  0
POLYLINE
  8
IMP_EC_PLATE_ISO-EDGE_CUTS_GBR
 66
1
 10
0.00
 20
0.00
 30
0.00
 40
0.20
 41
0.20
  0
VERTEX
  8
IMP_EC_PLATE_ISO-EDGE_CUTS_GBR
 10
374.684268
 20
-102.126884
 30
0.00
  0
VERTEX
  8
IMP_EC_PLATE_ISO-EDGE_CUTS_GBR
 10
375.684268
 20
-101.126884
 30
0.00
  0
SEQEND
  0
POLYLINE
  8
IMP_EC_PLATE_ISO-EDGE_CUTS_GBR
 66
1
 10
0.00
 20
0.00
 30
0.00
 40
0.20
 41
0.20
  0
VERTEX
  8
IMP_EC_PLATE_ISO-EDGE_CUTS_GBR
 10
374.684268
 20
-114.126884
 30
0.00
  0
VERTEX
  8
IMP_EC_PLATE_ISO-EDGE_CUTS_GBR
 10
374.684268
 20
-102.126884
 30
0.00
  0
SEQEND
  0
POLYLINE
  8
IMP_EC_PLATE_ISO-EDGE_CUTS_GBR
 66
1
 10
0.00
 20
0.00
 30
0.00
 40
0.20
 41
0.20
  0
VERTEX
  8
IMP_EC_PLATE_ISO-EDGE_CUTS_GBR
 10
375.684268
 20
-115.126884
 30
0.00
  0
VERTEX
  8
IMP_EC_PLATE_ISO-EDGE_CUTS_GBR
 10
374.684268
 20
-114.126884
 30
0.00
  0
SEQEND
  0
POLYLINE
  8
IMP_EC_PLATE_ISO-EDGE_CUTS_GBR
 66
1
 10
0.00
 20
0.00
 30
0.00
 40
0.20
 41
0.20
  0
VERTEX
  8
IMP_EC_PLATE_ISO-EDGE_CUTS_GBR
 10
388.284268
 20
-115.126884
 30
0.00
  0
VERTEX
  8
IMP_EC_PLATE_ISO-EDGE_CUTS_GBR
 10
375.684268
 20
-115.126884
 30
0.00
  0
SEQEND
  0
POLYLINE
  8
IMP_EC_PLATE_ISO-EDGE_CUTS_GBR
 66
1
 10
0.00
 20
0.00
 30
0.00
 40
0.20
 41
0.20
  0
VERTEX
  8
IMP_EC_PLATE_ISO-EDGE_CUTS_GBR
 10
389.284268
 20
-114.126884
 30
0.00
  0
VERTEX
  8
IMP_EC_PLATE_ISO-EDGE_CUTS_GBR
 10
388.284268
 20
-115.126884
 30
0.00
  0
SEQEND
  0
POLYLINE
  8
IMP_EC_PLATE_ISO-EDGE_CUTS_GBR
 66
1
 10
0.00
 20
0.00
 30
0.00
 40
0.20
 41
0.20
  0
VERTEX
  8
IMP_EC_PLATE_ISO-EDGE_CUTS_GBR
 10
389.284268
 20
-102.126884
 30
0.00
  0
VERTEX
  8
IMP_EC_PLATE_ISO-EDGE_CUTS_GBR
 10
389.284268
 20
-114.126884
 30
0.00
  0
SEQEND
  0
POLYLINE
  8
IMP_EC_PLATE_ISO-EDGE_CUTS_GBR
 66
1
 10
0.00
 20
0.00
 30
0.00
 40
0.20
 41
0.20
  0
VERTEX
  8
IMP_EC_PLATE_ISO-EDGE_CUTS_GBR
 10
388.284268
 20
-101.126884
 30
0.00
  0
VERTEX
  8
IMP_EC_PLATE_ISO-EDGE_CUTS_GBR
 10
389.284268
 20
-102.126884
 30
0.00
  0
SEQEND
  0
POLYLINE
  8
IMP_EC_PLATE_ISO-EDGE_CUTS_GBR
 66
1
 10
0.00
 20
0.00
 30
0.00
 40
0.20
 41
0.20
  0
VERTEX
  8
IMP_EC_PLATE_ISO-EDGE_CUTS_GBR
 10
375.684268
 20
-101.126884
 30
0.00
  0
VERTEX
  8
IMP_EC_PLATE_ISO-EDGE_CUTS_GBR
 10
388.284268
 20
-101.126884
 30
0.00
  0
SEQEND
  0
POLYLINE
  8
IMP_EC_PLATE_ISO-EDGE_CUTS_GBR
 66
1
 10
0.00
 20
0.00
 30
0.00
 40
0.20
 41
0.20
  0
VERTEX
  8
IMP_EC_PLATE_ISO-EDGE_CUTS_GBR
 10
355.664268
 20
-102.126884
 30
0.00
  0
VERTEX
  8
IMP_EC_PLATE_ISO-EDGE_CUTS_GBR
 10
356.664268
 20
-101.126884
 30
0.00
  0
SEQEND
  0
POLYLINE
  8
IMP_EC_PLATE_ISO-EDGE_CUTS_GBR
 66
1
 10
0.00
 20
0.00
 30
0.00
 40
0.20
 41
0.20
  0
VERTEX
  8
IMP_EC_PLATE_ISO-EDGE_CUTS_GBR
 10
355.664268
 20
-114.126884
 30
0.00
  0
VERTEX
  8
IMP_EC_PLATE_ISO-EDGE_CUTS_GBR
 10
355.664268
 20
-102.126884
 30
0.00
  0
SEQEND
  0
POLYLINE
  8
IMP_EC_PLATE_ISO-EDGE_CUTS_GBR
 66
1
 10
0.00
 20
0.00
 30
0.00
 40
0.20
 41
0.20
  0
VERTEX
  8
IMP_EC_PLATE_ISO-EDGE_CUTS_GBR
 10
356.664268
 20
-115.126884
 30
0.00
  0
VERTEX
  8
IMP_EC_PLATE_ISO-EDGE_CUTS_GBR
 10
355.664268
 20
-114.126884
 30
0.00
  0
SEQEND
  0
POLYLINE
  8
IMP_EC_PLATE_ISO-EDGE_CUTS_GBR
 66
1
 10
0.00
 20
0.00
 30
0.00
 40
0.20
 41
0.20
  0
VERTEX
  8
IMP_EC_PLATE_ISO-EDGE_CUTS_GBR
 10
369.264268
 20
-115.126884
 30
0.00
  0
VERTEX
  8
IMP_EC_PLATE_ISO-EDGE_CUTS_GBR
 10
356.664268
 20
-115.126884
 30
0.00
  0
SEQEND
  0
POLYLINE
  8
IMP_EC_PLATE_ISO-EDGE_CUTS_GBR
 66
1
 10
0.00
 20
0.00
 30
0.00
 40
0.20
 41
0.20
  0
VERTEX
  8
IMP_EC_PLATE_ISO-EDGE_CUTS_GBR
 10
370.264268
 20
-114.126884
 30
0.00
  0
VERTEX
  8
IMP_EC_PLATE_ISO-EDGE_CUTS_GBR
 10
369.264268
 20
-115.126884
 30
0.00
  0
SEQEND
  0
POLYLINE
  8
IMP_EC_PLATE_ISO-EDGE_CUTS_GBR
 66
1
 10
0.00
 20
0.00
 30
0.00
 40
0.20
 41
0.20
  0
VERTEX
  8
IMP_EC_PLATE_ISO-EDGE_CUTS_GBR
 10
370.264268
 20
-102.126884
 30
0.00
  0
VERTEX
  8
IMP_EC_PLATE_ISO-EDGE_CUTS_GBR
 10
370.264268
 20
-114.126884
 30
0.00
  0
SEQEND
  0
POLYLINE
  8
IMP_EC_PLATE_ISO-EDGE_CUTS_GBR
 66
1
 10
0.00
 20
0.00
 30
0.00
 40
0.20
 41
0.20
  0
VERTEX
  8
IMP_EC_PLATE_ISO-EDGE_CUTS_GBR
 10
369.264268
 20
-101.126884
 30
0.00
  0
VERTEX
  8
IMP_EC_PLATE_ISO-EDGE_CUTS_GBR
 10
370.264268
 20
-102.126884
 30
0.00
  0
SEQEND
  0
POLYLINE
  8
IMP_EC_PLATE_ISO-EDGE_CUTS_GBR
 66
1
 10
0.00
 20
0.00
 30
0.00
 40
0.20
 41
0.20
  0
VERTEX
  8
IMP_EC_PLATE_ISO-EDGE_CUTS_GBR
 10
356.664268
 20
-101.126884
 30
0.00
  0
VERTEX
  8
IMP_EC_PLATE_ISO-EDGE_CUTS_GBR
 10
369.264268
 20
-101.126884
 30
0.00
  0
SEQEND
  0
POLYLINE
  8
IMP_EC_PLATE_ISO-EDGE_CUTS_GBR
 66
1
 10
0.00
 20
0.00
 30
0.00
 40
0.20
 41
0.20
  0
VERTEX
  8
IMP_EC_PLATE_ISO-EDGE_CUTS_GBR
 10
336.644268
 20
-102.126884
 30
0.00
  0
VERTEX
  8
IMP_EC_PLATE_ISO-EDGE_CUTS_GBR
 10
337.644268
 20
-101.126884
 30
0.00
  0
SEQEND
  0
POLYLINE
  8
IMP_EC_PLATE_ISO-EDGE_CUTS_GBR
 66
1
 10
0.00
 20
0.00
 30
0.00
 40
0.20
 41
0.20
  0
VERTEX
  8
IMP_EC_PLATE_ISO-EDGE_CUTS_GBR
 10
336.644268
 20
-114.126884
 30
0.00
  0
VERTEX
  8
IMP_EC_PLATE_ISO-EDGE_CUTS_GBR
 10
336.644268
 20
-102.126884
 30
0.00
  0
SEQEND
  0
POLYLINE
  8
IMP_EC_PLATE_ISO-EDGE_CUTS_GBR
 66
1
 10
0.00
 20
0.00
 30
0.00
 40
0.20
 41
0.20
  0
VERTEX
  8
IMP_EC_PLATE_ISO-EDGE_CUTS_GBR
 10
337.644268
 20
-115.126884
 30
0.00
  0
VERTEX
  8
IMP_EC_PLATE_ISO-EDGE_CUTS_GBR
 10
336.644268
 20
-114.126884
 30
0.00
  0
SEQEND
  0
POLYLINE
  8
IMP_EC_PLATE_ISO-EDGE_CUTS_GBR
 66
1
 10
0.00
 20
0.00
 30
0.00
 40
0.20
 41
0.20
  0
VERTEX
  8
IMP_EC_PLATE_ISO-EDGE_CUTS_GBR
 10
350.244268
 20
-115.126884
 30
0.00
  0
VERTEX
  8
IMP_EC_PLATE_ISO-EDGE_CUTS_GBR
 10
337.644268
 20
-115.126884
 30
0.00
  0
SEQEND
  0
POLYLINE
  8
IMP_EC_PLATE_ISO-EDGE_CUTS_GBR
 66
1
 10
0.00
 20
0.00
 30
0.00
 40
0.20
 41
0.20
  0
VERTEX
  8
IMP_EC_PLATE_ISO-EDGE_CUTS_GBR
 10
351.244268
 20
-114.126884
 30
0.00
  0
VERTEX
  8
IMP_EC_PLATE_ISO-EDGE_CUTS_GBR
 10
350.244268
 20
-115.126884
 30
0.00
  0
SEQEND
  0
POLYLINE
  8
IMP_EC_PLATE_ISO-EDGE_CUTS_GBR
 66
1
 10
0.00
 20
0.00
 30
0.00
 40
0.20
 41
0.20
  0
VERTEX
  8
IMP_EC_PLATE_ISO-EDGE_CUTS_GBR
 10
351.244268
 20
-102.126884
 30
0.00
  0
VERTEX
  8
IMP_EC_PLATE_ISO-EDGE_CUTS_GBR
 10
351.244268
 20
-114.126884
 30
0.00
  0
SEQEND
  0
POLYLINE
  8
IMP_EC_PLATE_ISO-EDGE_CUTS_GBR
 66
1
 10
0.00
 20
0.00
 30
0.00
 40
0.20
 41
0.20
  0
VERTEX
  8
IMP_EC_PLATE_ISO-EDGE_CUTS_GBR
 10
350.244268
 20
-101.126884
 30
0.00
  0
VERTEX
  8
IMP_EC_PLATE_ISO-EDGE_CUTS_GBR
 10
351.244268
 20
-102.126884
 30
0.00
  0
SEQEND
  0
POLYLINE
  8
IMP_EC_PLATE_ISO-EDGE_CUTS_GBR
 66
1
 10
0.00
 20
0.00
 30
0.00
 40
0.20
 41
0.20
  0
VERTEX
  8
IMP_EC_PLATE_ISO-EDGE_CUTS_GBR
 10
337.644268
 20
-101.126884
 30
0.00
  0
VERTEX
  8
IMP_EC_PLATE_ISO-EDGE_CUTS_GBR
 10
350.244268
 20
-101.126884
 30
0.00
  0
SEQEND
  0
POLYLINE
  8
IMP_EC_PLATE_ISO-EDGE_CUTS_GBR
 66
1
 10
0.00
 20
0.00
 30
0.00
 40
0.20
 41
0.20
  0
VERTEX
  8
IMP_EC_PLATE_ISO-EDGE_CUTS_GBR
 10
275.81506
 20
-102.103332
 30
0.00
  0
VERTEX
  8
IMP_EC_PLATE_ISO-EDGE_CUTS_GBR
 10
276.81506
 20
-101.103332
 30
0.00
  0
SEQEND
  0
POLYLINE
  8
IMP_EC_PLATE_ISO-EDGE_CUTS_GBR
 66
1
 10
0.00
 20
0.00
 30
0.00
 40
0.20
 41
0.20
  0
VERTEX
  8
IMP_EC_PLATE_ISO-EDGE_CUTS_GBR
 10
275.81506
 20
-114.103332
 30
0.00
  0
VERTEX
  8
IMP_EC_PLATE_ISO-EDGE_CUTS_GBR
 10
275.81506
 20
-102.103332
 30
0.00
  0
SEQEND
  0
POLYLINE
  8
IMP_EC_PLATE_ISO-EDGE_CUTS_GBR
 66
1
 10
0.00
 20
0.00
 30
0.00
 40
0.20
 41
0.20
  0
VERTEX
  8
IMP_EC_PLATE_ISO-EDGE_CUTS_GBR
 10
276.81506
 20
-115.103332
 30
0.00
  0
VERTEX
  8
IMP_EC_PLATE_ISO-EDGE_CUTS_GBR
 10
275.81506
 20
-114.103332
 30
0.00
  0
SEQEND
  0
POLYLINE
  8
IMP_EC_PLATE_ISO-EDGE_CUTS_GBR
 66
1
 10
0.00
 20
0.00
 30
0.00
 40
0.20
 41
0.20
  0
VERTEX
  8
IMP_EC_PLATE_ISO-EDGE_CUTS_GBR
 10
289.41506
 20
-115.103332
 30
0.00
  0
VERTEX
  8
IMP_EC_PLATE_ISO-EDGE_CUTS_GBR
 10
276.81506
 20
-115.103332
 30
0.00
  0
SEQEND
  0
POLYLINE
  8
IMP_EC_PLATE_ISO-EDGE_CUTS_GBR
 66
1
 10
0.00
 20
0.00
 30
0.00
 40
0.20
 41
0.20
  0
VERTEX
  8
IMP_EC_PLATE_ISO-EDGE_CUTS_GBR
 10
290.41506
 20
-114.103332
 30
0.00
  0
VERTEX
  8
IMP_EC_PLATE_ISO-EDGE_CUTS_GBR
 10
289.41506
 20
-115.103332
 30
0.00
  0
SEQEND
  0
POLYLINE
  8
IMP_EC_PLATE_ISO-EDGE_CUTS_GBR
 66
1
 10
0.00
 20
0.00
 30
0.00
 40
0.20
 41
0.20
  0
VERTEX
  8
IMP_EC_PLATE_ISO-EDGE_CUTS_GBR
 10
290.41506
 20
-102.103332
 30
0.00
  0
VERTEX
  8
IMP_EC_PLATE_ISO-EDGE_CUTS_GBR
 10
290.41506
 20
-114.103332
 30
0.00
  0
SEQEND
  0
POLYLINE
  8
IMP_EC_PLATE_ISO-EDGE_CUTS_GBR
 66
1
 10
0.00
 20
0.00
 30
0.00
 40
0.20
 41
0.20
  0
VERTEX
  8
IMP_EC_PLATE_ISO-EDGE_CUTS_GBR
 10
289.41506
 20
-101.103332
 30
0.00
  0
VERTEX
  8
IMP_EC_PLATE_ISO-EDGE_CUTS_GBR
 10
290.41506
 20
-102.103332
 30
0.00
  0
SEQEND
  0
POLYLINE
  8
IMP_EC_PLATE_ISO-EDGE_CUTS_GBR
 66
1
 10
0.00
 20
0.00
 30
0.00
 40
0.20
 41
0.20
  0
VERTEX
  8
IMP_EC_PLATE_ISO-EDGE_CUTS_GBR
 10
276.81506
 20
-101.103332
 30
0.00
  0
VERTEX
  8
IMP_EC_PLATE_ISO-EDGE_CUTS_GBR
 10
289.41506
 20
-101.103332
 30
0.00
  0
SEQEND
  0
POLYLINE
  8
IMP_EC_PLATE_ISO-EDGE_CUTS_GBR
 66
1
 10
0.00
 20
0.00
 30
0.00
 40
0.20
 41
0.20
  0
VERTEX
  8
IMP_EC_PLATE_ISO-EDGE_CUTS_GBR
 10
256.79506
 20
-102.103332
 30
0.00
  0
VERTEX
  8
IMP_EC_PLATE_ISO-EDGE_CUTS_GBR
 10
257.79506
 20
-101.103332
 30
0.00
  0
SEQEND
  0
POLYLINE
  8
IMP_EC_PLATE_ISO-EDGE_CUTS_GBR
 66
1
 10
0.00
 20
0.00
 30
0.00
 40
0.20
 41
0.20
  0
VERTEX
  8
IMP_EC_PLATE_ISO-EDGE_CUTS_GBR
 10
256.79506
 20
-114.103332
 30
0.00
  0
VERTEX
  8
IMP_EC_PLATE_ISO-EDGE_CUTS_GBR
 10
256.79506
 20
-102.103332
 30
0.00
  0
SEQEND
  0
POLYLINE
  8
IMP_EC_PLATE_ISO-EDGE_CUTS_GBR
 66
1
 10
0.00
 20
0.00
 30
0.00
 40
0.20
 41
0.20
  0
VERTEX
  8
IMP_EC_PLATE_ISO-EDGE_CUTS_GBR
 10
257.79506
 20
-115.103332
 30
0.00
  0
VERTEX
  8
IMP_EC_PLATE_ISO-EDGE_CUTS_GBR
 10
256.79506
 20
-114.103332
 30
0.00
  0
SEQEND
  0
POLYLINE
  8
IMP_EC_PLATE_ISO-EDGE_CUTS_GBR
 66
1
 10
0.00
 20
0.00
 30
0.00
 40
0.20
 41
0.20
  0
VERTEX
  8
IMP_EC_PLATE_ISO-EDGE_CUTS_GBR
 10
270.39506
 20
-115.103332
 30
0.00
  0
VERTEX
  8
IMP_EC_PLATE_ISO-EDGE_CUTS_GBR
 10
257.79506
 20
-115.103332
 30
0.00
  0
SEQEND
  0
POLYLINE
  8
IMP_EC_PLATE_ISO-EDGE_CUTS_GBR
 66
1
 10
0.00
 20
0.00
 30
0.00
 40
0.20
 41
0.20
  0
VERTEX
  8
IMP_EC_PLATE_ISO-EDGE_CUTS_GBR
 10
271.39506
 20
-114.103332
 30
0.00
  0
VERTEX
  8
IMP_EC_PLATE_ISO-EDGE_CUTS_GBR
 10
270.39506
 20
-115.103332
 30
0.00
  0
SEQEND
  0
POLYLINE
  8
IMP_EC_PLATE_ISO-EDGE_CUTS_GBR
 66
1
 10
0.00
 20
0.00
 30
0.00
 40
0.20
 41
0.20
  0
VERTEX
  8
IMP_EC_PLATE_ISO-EDGE_CUTS_GBR
 10
271.39506
 20
-102.103332
 30
0.00
  0
VERTEX
  8
IMP_EC_PLATE_ISO-EDGE_CUTS_GBR
 10
271.39506
 20
-114.103332
 30
0.00
  0
SEQEND
  0
POLYLINE
  8
IMP_EC_PLATE_ISO-EDGE_CUTS_GBR
 66
1
 10
0.00
 20
0.00
 30
0.00
 40
0.20
 41
0.20
  0
VERTEX
  8
IMP_EC_PLATE_ISO-EDGE_CUTS_GBR
 10
270.39506
 20
-101.103332
 30
0.00
  0
VERTEX
  8
IMP_EC_PLATE_ISO-EDGE_CUTS_GBR
 10
271.39506
 20
-102.103332
 30
0.00
  0
SEQEND
  0
POLYLINE
  8
IMP_EC_PLATE_ISO-EDGE_CUTS_GBR
 66
1
 10
0.00
 20
0.00
 30
0.00
 40
0.20
 41
0.20
  0
VERTEX
  8
IMP_EC_PLATE_ISO-EDGE_CUTS_GBR
 10
257.79506
 20
-101.103332
 30
0.00
  0
VERTEX
  8
IMP_EC_PLATE_ISO-EDGE_CUTS_GBR
 10
270.39506
 20
-101.103332
 30
0.00
  0
SEQEND
  0
POLYLINE
  8
IMP_EC_PLATE_ISO-EDGE_CUTS_GBR
 66
1
 10
0.00
 20
0.00
 30
0.00
 40
0.20
 41
0.20
  0
VERTEX
  8
IMP_EC_PLATE_ISO-EDGE_CUTS_GBR
 10
237.77506
 20
-102.103332
 30
0.00
  0
VERTEX
  8
IMP_EC_PLATE_ISO-EDGE_CUTS_GBR
 10
238.77506
 20
-101.103332
 30
0.00
  0
SEQEND
  0
POLYLINE
  8
IMP_EC_PLATE_ISO-EDGE_CUTS_GBR
 66
1
 10
0.00
 20
0.00
 30
0.00
 40
0.20
 41
0.20
  0
VERTEX
  8
IMP_EC_PLATE_ISO-EDGE_CUTS_GBR
 10
237.77506
 20
-114.103332
 30
0.00
  0
VERTEX
  8
IMP_EC_PLATE_ISO-EDGE_CUTS_GBR
 10
237.77506
 20
-102.103332
 30
0.00
  0
SEQEND
  0
POLYLINE
  8
IMP_EC_PLATE_ISO-EDGE_CUTS_GBR
 66
1
 10
0.00
 20
0.00
 30
0.00
 40
0.20
 41
0.20
  0
VERTEX
  8
IMP_EC_PLATE_ISO-EDGE_CUTS_GBR
 10
238.77506
 20
-115.103332
 30
0.00
  0
VERTEX
  8
IMP_EC_PLATE_ISO-EDGE_CUTS_GBR
 10
237.77506
 20
-114.103332
 30
0.00
  0
SEQEND
  0
POLYLINE
  8
IMP_EC_PLATE_ISO-EDGE_CUTS_GBR
 66
1
 10
0.00
 20
0.00
 30
0.00
 40
0.20
 41
0.20
  0
VERTEX
  8
IMP_EC_PLATE_ISO-EDGE_CUTS_GBR
 10
251.37506
 20
-115.103332
 30
0.00
  0
VERTEX
  8
IMP_EC_PLATE_ISO-EDGE_CUTS_GBR
 10
238.77506
 20
-115.103332
 30
0.00
  0
SEQEND
  0
POLYLINE
  8
IMP_EC_PLATE_ISO-EDGE_CUTS_GBR
 66
1
 10
0.00
 20
0.00
 30
0.00
 40
0.20
 41
0.20
  0
VERTEX
  8
IMP_EC_PLATE_ISO-EDGE_CUTS_GBR
 10
252.37506
 20
-114.103332
 30
0.00
  0
VERTEX
  8
IMP_EC_PLATE_ISO-EDGE_CUTS_GBR
 10
251.37506
 20
-115.103332
 30
0.00
  0
SEQEND
  0
POLYLINE
  8
IMP_EC_PLATE_ISO-EDGE_CUTS_GBR
 66
1
 10
0.00
 20
0.00
 30
0.00
 40
0.20
 41
0.20
  0
VERTEX
  8
IMP_EC_PLATE_ISO-EDGE_CUTS_GBR
 10
252.37506
 20
-102.103332
 30
0.00
  0
VERTEX
  8
IMP_EC_PLATE_ISO-EDGE_CUTS_GBR
 10
252.37506
 20
-114.103332
 30
0.00
  0
SEQEND
  0
POLYLINE
  8
IMP_EC_PLATE_ISO-EDGE_CUTS_GBR
 66
1
 10
0.00
 20
0.00
 30
0.00
 40
0.20
 41
0.20
  0
VERTEX
  8
IMP_EC_PLATE_ISO-EDGE_CUTS_GBR
 10
251.37506
 20
-101.103332
 30
0.00
  0
VERTEX
  8
IMP_EC_PLATE_ISO-EDGE_CUTS_GBR
 10
252.37506
 20
-102.103332
 30
0.00
  0
SEQEND
  0
POLYLINE
  8
IMP_EC_PLATE_ISO-EDGE_CUTS_GBR
 66
1
 10
0.00
 20
0.00
 30
0.00
 40
0.20
 41
0.20
  0
VERTEX
  8
IMP_EC_PLATE_ISO-EDGE_CUTS_GBR
 10
238.77506
 20
-101.103332
 30
0.00
  0
VERTEX
  8
IMP_EC_PLATE_ISO-EDGE_CUTS_GBR
 10
251.37506
 20
-101.103332
 30
0.00
  0
SEQEND
  0
POLYLINE
  8
IMP_EC_PLATE_ISO-EDGE_CUTS_GBR
 66
1
 10
0.00
 20
0.00
 30
0.00
 40
0.20
 41
0.20
  0
VERTEX
  8
IMP_EC_PLATE_ISO-EDGE_CUTS_GBR
 10
218.75506
 20
-102.103332
 30
0.00
  0
VERTEX
  8
IMP_EC_PLATE_ISO-EDGE_CUTS_GBR
 10
219.75506
 20
-101.103332
 30
0.00
  0
SEQEND
  0
POLYLINE
  8
IMP_EC_PLATE_ISO-EDGE_CUTS_GBR
 66
1
 10
0.00
 20
0.00
 30
0.00
 40
0.20
 41
0.20
  0
VERTEX
  8
IMP_EC_PLATE_ISO-EDGE_CUTS_GBR
 10
218.75506
 20
-114.103332
 30
0.00
  0
VERTEX
  8
IMP_EC_PLATE_ISO-EDGE_CUTS_GBR
 10
218.75506
 20
-102.103332
 30
0.00
  0
SEQEND
  0
POLYLINE
  8
IMP_EC_PLATE_ISO-EDGE_CUTS_GBR
 66
1
 10
0.00
 20
0.00
 30
0.00
 40
0.20
 41
0.20
  0
VERTEX
  8
IMP_EC_PLATE_ISO-EDGE_CUTS_GBR
 10
219.75506
 20
-115.103332
 30
0.00
  0
VERTEX
  8
IMP_EC_PLATE_ISO-EDGE_CUTS_GBR
 10
218.75506
 20
-114.103332
 30
0.00
  0
SEQEND
  0
POLYLINE
  8
IMP_EC_PLATE_ISO-EDGE_CUTS_GBR
 66
1
 10
0.00
 20
0.00
 30
0.00
 40
0.20
 41
0.20
  0
VERTEX
  8
IMP_EC_PLATE_ISO-EDGE_CUTS_GBR
 10
232.35506
 20
-115.103332
 30
0.00
  0
VERTEX
  8
IMP_EC_PLATE_ISO-EDGE_CUTS_GBR
 10
219.75506
 20
-115.103332
 30
0.00
  0
SEQEND
  0
POLYLINE
  8
IMP_EC_PLATE_ISO-EDGE_CUTS_GBR
 66
1
 10
0.00
 20
0.00
 30
0.00
 40
0.20
 41
0.20
  0
VERTEX
  8
IMP_EC_PLATE_ISO-EDGE_CUTS_GBR
 10
233.35506
 20
-114.103332
 30
0.00
  0
VERTEX
  8
IMP_EC_PLATE_ISO-EDGE_CUTS_GBR
 10
232.35506
 20
-115.103332
 30
0.00
  0
SEQEND
  0
POLYLINE
  8
IMP_EC_PLATE_ISO-EDGE_CUTS_GBR
 66
1
 10
0.00
 20
0.00
 30
0.00
 40
0.20
 41
0.20
  0
VERTEX
  8
IMP_EC_PLATE_ISO-EDGE_CUTS_GBR
 10
233.35506
 20
-102.103332
 30
0.00
  0
VERTEX
  8
IMP_EC_PLATE_ISO-EDGE_CUTS_GBR
 10
233.35506
 20
-114.103332
 30
0.00
  0
SEQEND
  0
POLYLINE
  8
IMP_EC_PLATE_ISO-EDGE_CUTS_GBR
 66
1
 10
0.00
 20
0.00
 30
0.00
 40
0.20
 41
0.20
  0
VERTEX
  8
IMP_EC_PLATE_ISO-EDGE_CUTS_GBR
 10
232.35506
 20
-101.103332
 30
0.00
  0
VERTEX
  8
IMP_EC_PLATE_ISO-EDGE_CUTS_GBR
 10
233.35506
 20
-102.103332
 30
0.00
  0
SEQEND
  0
POLYLINE
  8
IMP_EC_PLATE_ISO-EDGE_CUTS_GBR
 66
1
 10
0.00
 20
0.00
 30
0.00
 40
0.20
 41
0.20
  0
VERTEX
  8
IMP_EC_PLATE_ISO-EDGE_CUTS_GBR
 10
219.75506
 20
-101.103332
 30
0.00
  0
VERTEX
  8
IMP_EC_PLATE_ISO-EDGE_CUTS_GBR
 10
232.35506
 20
-101.103332
 30
0.00
  0
SEQEND
  0
POLYLINE
  8
IMP_EC_PLATE_ISO-EDGE_CUTS_GBR
 66
1
 10
0.00
 20
0.00
 30
0.00
 40
0.20
 41
0.20
  0
VERTEX
  8
IMP_EC_PLATE_ISO-EDGE_CUTS_GBR
 10
209.08506
 20
-79.003332
 30
0.00
  0
VERTEX
  8
IMP_EC_PLATE_ISO-EDGE_CUTS_GBR
 10
210.08506
 20
-78.003332
 30
0.00
  0
SEQEND
  0
POLYLINE
  8
IMP_EC_PLATE_ISO-EDGE_CUTS_GBR
 66
1
 10
0.00
 20
0.00
 30
0.00
 40
0.20
 41
0.20
  0
VERTEX
  8
IMP_EC_PLATE_ISO-EDGE_CUTS_GBR
 10
209.08506
 20
-91.003332
 30
0.00
  0
VERTEX
  8
IMP_EC_PLATE_ISO-EDGE_CUTS_GBR
 10
209.08506
 20
-79.003332
 30
0.00
  0
SEQEND
  0
POLYLINE
  8
IMP_EC_PLATE_ISO-EDGE_CUTS_GBR
 66
1
 10
0.00
 20
0.00
 30
0.00
 40
0.20
 41
0.20
  0
VERTEX
  8
IMP_EC_PLATE_ISO-EDGE_CUTS_GBR
 10
210.08506
 20
-92.003332
 30
0.00
  0
VERTEX
  8
IMP_EC_PLATE_ISO-EDGE_CUTS_GBR
 10
209.08506
 20
-91.003332
 30
0.00
  0
SEQEND
  0
POLYLINE
  8
IMP_EC_PLATE_ISO-EDGE_CUTS_GBR
 66
1
 10
0.00
 20
0.00
 30
0.00
 40
0.20
 41
0.20
  0
VERTEX
  8
IMP_EC_PLATE_ISO-EDGE_CUTS_GBR
 10
222.68506
 20
-92.003332
 30
0.00
  0
VERTEX
  8
IMP_EC_PLATE_ISO-EDGE_CUTS_GBR
 10
210.08506
 20
-92.003332
 30
0.00
  0
SEQEND
  0
POLYLINE
  8
IMP_EC_PLATE_ISO-EDGE_CUTS_GBR
 66
1
 10
0.00
 20
0.00
 30
0.00
 40
0.20
 41
0.20
  0
VERTEX
  8
IMP_EC_PLATE_ISO-EDGE_CUTS_GBR
 10
223.68506
 20
-91.003332
 30
0.00
  0
VERTEX
  8
IMP_EC_PLATE_ISO-EDGE_CUTS_GBR
 10
222.68506
 20
-92.003332
 30
0.00
  0
SEQEND
  0
POLYLINE
  8
IMP_EC_PLATE_ISO-EDGE_CUTS_GBR
 66
1
 10
0.00
 20
0.00
 30
0.00
 40
0.20
 41
0.20
  0
VERTEX
  8
IMP_EC_PLATE_ISO-EDGE_CUTS_GBR
 10
223.68506
 20
-79.003332
 30
0.00
  0
VERTEX
  8
IMP_EC_PLATE_ISO-EDGE_CUTS_GBR
 10
223.68506
 20
-91.003332
 30
0.00
  0
SEQEND
  0
POLYLINE
  8
IMP_EC_PLATE_ISO-EDGE_CUTS_GBR
 66
1
 10
0.00
 20
0.00
 30
0.00
 40
0.20
 41
0.20
  0
VERTEX
  8
IMP_EC_PLATE_ISO-EDGE_CUTS_GBR
 10
222.68506
 20
-78.003332
 30
0.00
  0
VERTEX
  8
IMP_EC_PLATE_ISO-EDGE_CUTS_GBR
 10
223.68506
 20
-79.003332
 30
0.00
  0
SEQEND
  0
POLYLINE
  8
IMP_EC_PLATE_ISO-EDGE_CUTS_GBR
 66
1
 10
0.00
 20
0.00
 30
0.00
 40
0.20
 41
0.20
  0
VERTEX
  8
IMP_EC_PLATE_ISO-EDGE_CUTS_GBR
 10
210.08506
 20
-78.003332
 30
0.00
  0
VERTEX
  8
IMP_EC_PLATE_ISO-EDGE_CUTS_GBR
 10
222.68506
 20
-78.003332
 30
0.00
  0
SEQEND
  0
POLYLINE
  8
IMP_EC_PLATE_ISO-EDGE_CUTS_GBR
 66
1
 10
0.00
 20
0.00
 30
0.00
 40
0.20
 41
0.20
  0
VERTEX
  8
IMP_EC_PLATE_ISO-EDGE_CUTS_GBR
 10
190.06506
 20
-79.003332
 30
0.00
  0
VERTEX
  8
IMP_EC_PLATE_ISO-EDGE_CUTS_GBR
 10
191.06506
 20
-78.003332
 30
0.00
  0
SEQEND
  0
POLYLINE
  8
IMP_EC_PLATE_ISO-EDGE_CUTS_GBR
 66
1
 10
0.00
 20
0.00
 30
0.00
 40
0.20
 41
0.20
  0
VERTEX
  8
IMP_EC_PLATE_ISO-EDGE_CUTS_GBR
 10
190.06506
 20
-91.003332
 30
0.00
  0
VERTEX
  8
IMP_EC_PLATE_ISO-EDGE_CUTS_GBR
 10
190.06506
 20
-79.003332
 30
0.00
  0
SEQEND
  0
POLYLINE
  8
IMP_EC_PLATE_ISO-EDGE_CUTS_GBR
 66
1
 10
0.00
 20
0.00
 30
0.00
 40
0.20
 41
0.20
  0
VERTEX
  8
IMP_EC_PLATE_ISO-EDGE_CUTS_GBR
 10
191.06506
 20
-92.003332
 30
0.00
  0
VERTEX
  8
IMP_EC_PLATE_ISO-EDGE_CUTS_GBR
 10
190.06506
 20
-91.003332
 30
0.00
  0
SEQEND
  0
POLYLINE
  8
IMP_EC_PLATE_ISO-EDGE_CUTS_GBR
 66
1
 10
0.00
 20
0.00
 30
0.00
 40
0.20
 41
0.20
  0
VERTEX
  8
IMP_EC_PLATE_ISO-EDGE_CUTS_GBR
 10
203.66506
 20
-92.003332
 30
0.00
  0
VERTEX
  8
IMP_EC_PLATE_ISO-EDGE_CUTS_GBR
 10
191.06506
 20
-92.003332
 30
0.00
  0
SEQEND
  0
POLYLINE
  8
IMP_EC_PLATE_ISO-EDGE_CUTS_GBR
 66
1
 10
0.00
 20
0.00
 30
0.00
 40
0.20
 41
0.20
  0
VERTEX
  8
IMP_EC_PLATE_ISO-EDGE_CUTS_GBR
 10
204.66506
 20
-91.003332
 30
0.00
  0
VERTEX
  8
IMP_EC_PLATE_ISO-EDGE_CUTS_GBR
 10
203.66506
 20
-92.003332
 30
0.00
  0
SEQEND
  0
POLYLINE
  8
IMP_EC_PLATE_ISO-EDGE_CUTS_GBR
 66
1
 10
0.00
 20
0.00
 30
0.00
 40
0.20
 41
0.20
  0
VERTEX
  8
IMP_EC_PLATE_ISO-EDGE_CUTS_GBR
 10
204.66506
 20
-79.003332
 30
0.00
  0
VERTEX
  8
IMP_EC_PLATE_ISO-EDGE_CUTS_GBR
 10
204.66506
 20
-91.003332
 30
0.00
  0
SEQEND
  0
POLYLINE
  8
IMP_EC_PLATE_ISO-EDGE_CUTS_GBR
 66
1
 10
0.00
 20
0.00
 30
0.00
 40
0.20
 41
0.20
  0
VERTEX
  8
IMP_EC_PLATE_ISO-EDGE_CUTS_GBR
 10
203.66506
 20
-78.003332
 30
0.00
  0
VERTEX
  8
IMP_EC_PLATE_ISO-EDGE_CUTS_GBR
 10
204.66506
 20
-79.003332
 30
0.00
  0
SEQEND
  0
POLYLINE
  8
IMP_EC_PLATE_ISO-EDGE_CUTS_GBR
 66
1
 10
0.00
 20
0.00
 30
0.00
 40
0.20
 41
0.20
  0
VERTEX
  8
IMP_EC_PLATE_ISO-EDGE_CUTS_GBR
 10
191.06506
 20
-78.003332
 30
0.00
  0
VERTEX
  8
IMP_EC_PLATE_ISO-EDGE_CUTS_GBR
 10
203.66506
 20
-78.003332
 30
0.00
  0
SEQEND
  0
POLYLINE
  8
IMP_EC_PLATE_ISO-EDGE_CUTS_GBR
 66
1
 10
0.00
 20
0.00
 30
0.00
 40
0.20
 41
0.20
  0
VERTEX
  8
IMP_EC_PLATE_ISO-EDGE_CUTS_GBR
 10
171.04506
 20
-79.003332
 30
0.00
  0
VERTEX
  8
IMP_EC_PLATE_ISO-EDGE_CUTS_GBR
 10
172.04506
 20
-78.003332
 30
0.00
  0
SEQEND
  0
POLYLINE
  8
IMP_EC_PLATE_ISO-EDGE_CUTS_GBR
 66
1
 10
0.00
 20
0.00
 30
0.00
 40
0.20
 41
0.20
  0
VERTEX
  8
IMP_EC_PLATE_ISO-EDGE_CUTS_GBR
 10
171.04506
 20
-91.003332
 30
0.00
  0
VERTEX
  8
IMP_EC_PLATE_ISO-EDGE_CUTS_GBR
 10
171.04506
 20
-79.003332
 30
0.00
  0
SEQEND
  0
POLYLINE
  8
IMP_EC_PLATE_ISO-EDGE_CUTS_GBR
 66
1
 10
0.00
 20
0.00
 30
0.00
 40
0.20
 41
0.20
  0
VERTEX
  8
IMP_EC_PLATE_ISO-EDGE_CUTS_GBR
 10
172.04506
 20
-92.003332
 30
0.00
  0
VERTEX
  8
IMP_EC_PLATE_ISO-EDGE_CUTS_GBR
 10
171.04506
 20
-91.003332
 30
0.00
  0
SEQEND
  0
POLYLINE
  8
IMP_EC_PLATE_ISO-EDGE_CUTS_GBR
 66
1
 10
0.00
 20
0.00
 30
0.00
 40
0.20
 41
0.20
  0
VERTEX
  8
IMP_EC_PLATE_ISO-EDGE_CUTS_GBR
 10
184.64506
 20
-92.003332
 30
0.00
  0
VERTEX
  8
IMP_EC_PLATE_ISO-EDGE_CUTS_GBR
 10
172.04506
 20
-92.003332
 30
0.00
  0
SEQEND
  0
POLYLINE
  8
IMP_EC_PLATE_ISO-EDGE_CUTS_GBR
 66
1
 10
0.00
 20
0.00
 30
0.00
 40
0.20
 41
0.20
  0
VERTEX
  8
IMP_EC_PLATE_ISO-EDGE_CUTS_GBR
 10
185.64506
 20
-91.003332
 30
0.00
  0
VERTEX
  8
IMP_EC_PLATE_ISO-EDGE_CUTS_GBR
 10
184.64506
 20
-92.003332
 30
0.00
  0
SEQEND
  0
POLYLINE
  8
IMP_EC_PLATE_ISO-EDGE_CUTS_GBR
 66
1
 10
0.00
 20
0.00
 30
0.00
 40
0.20
 41
0.20
  0
VERTEX
  8
IMP_EC_PLATE_ISO-EDGE_CUTS_GBR
 10
185.64506
 20
-79.003332
 30
0.00
  0
VERTEX
  8
IMP_EC_PLATE_ISO-EDGE_CUTS_GBR
 10
185.64506
 20
-91.003332
 30
0.00
  0
SEQEND
  0
POLYLINE
  8
IMP_EC_PLATE_ISO-EDGE_CUTS_GBR
 66
1
 10
0.00
 20
0.00
 30
0.00
 40
0.20
 41
0.20
  0
VERTEX
  8
IMP_EC_PLATE_ISO-EDGE_CUTS_GBR
 10
184.64506
 20
-78.003332
 30
0.00
  0
VERTEX
  8
IMP_EC_PLATE_ISO-EDGE_CUTS_GBR
 10
185.64506
 20
-79.003332
 30
0.00
  0
SEQEND
  0
POLYLINE
  8
IMP_EC_PLATE_ISO-EDGE_CUTS_GBR
 66
1
 10
0.00
 20
0.00
 30
0.00
 40
0.20
 41
0.20
  0
VERTEX
  8
IMP_EC_PLATE_ISO-EDGE_CUTS_GBR
 10
172.04506
 20
-78.003332
 30
0.00
  0
VERTEX
  8
IMP_EC_PLATE_ISO-EDGE_CUTS_GBR
 10
184.64506
 20
-78.003332
 30
0.00
  0
SEQEND
  0
POLYLINE
  8
IMP_EC_PLATE_ISO-EDGE_CUTS_GBR
 66
1
 10
0.00
 20
0.00
 30
0.00
 40
0.20
 41
0.20
  0
VERTEX
  8
IMP_EC_PLATE_ISO-EDGE_CUTS_GBR
 10
152.02506
 20
-79.003332
 30
0.00
  0
VERTEX
  8
IMP_EC_PLATE_ISO-EDGE_CUTS_GBR
 10
153.02506
 20
-78.003332
 30
0.00
  0
SEQEND
  0
POLYLINE
  8
IMP_EC_PLATE_ISO-EDGE_CUTS_GBR
 66
1
 10
0.00
 20
0.00
 30
0.00
 40
0.20
 41
0.20
  0
VERTEX
  8
IMP_EC_PLATE_ISO-EDGE_CUTS_GBR
 10
152.02506
 20
-91.003332
 30
0.00
  0
VERTEX
  8
IMP_EC_PLATE_ISO-EDGE_CUTS_GBR
 10
152.02506
 20
-79.003332
 30
0.00
  0
SEQEND
  0
POLYLINE
  8
IMP_EC_PLATE_ISO-EDGE_CUTS_GBR
 66
1
 10
0.00
 20
0.00
 30
0.00
 40
0.20
 41
0.20
  0
VERTEX
  8
IMP_EC_PLATE_ISO-EDGE_CUTS_GBR
 10
153.02506
 20
-92.003332
 30
0.00
  0
VERTEX
  8
IMP_EC_PLATE_ISO-EDGE_CUTS_GBR
 10
152.02506
 20
-91.003332
 30
0.00
  0
SEQEND
  0
POLYLINE
  8
IMP_EC_PLATE_ISO-EDGE_CUTS_GBR
 66
1
 10
0.00
 20
0.00
 30
0.00
 40
0.20
 41
0.20
  0
VERTEX
  8
IMP_EC_PLATE_ISO-EDGE_CUTS_GBR
 10
165.62506
 20
-92.003332
 30
0.00
  0
VERTEX
  8
IMP_EC_PLATE_ISO-EDGE_CUTS_GBR
 10
153.02506
 20
-92.003332
 30
0.00
  0
SEQEND
  0
POLYLINE
  8
IMP_EC_PLATE_ISO-EDGE_CUTS_GBR
 66
1
 10
0.00
 20
0.00
 30
0.00
 40
0.20
 41
0.20
  0
VERTEX
  8
IMP_EC_PLATE_ISO-EDGE_CUTS_GBR
 10
166.62506
 20
-91.003332
 30
0.00
  0
VERTEX
  8
IMP_EC_PLATE_ISO-EDGE_CUTS_GBR
 10
165.62506
 20
-92.003332
 30
0.00
  0
SEQEND
  0
POLYLINE
  8
IMP_EC_PLATE_ISO-EDGE_CUTS_GBR
 66
1
 10
0.00
 20
0.00
 30
0.00
 40
0.20
 41
0.20
  0
VERTEX
  8
IMP_EC_PLATE_ISO-EDGE_CUTS_GBR
 10
166.62506
 20
-79.003332
 30
0.00
  0
VERTEX
  8
IMP_EC_PLATE_ISO-EDGE_CUTS_GBR
 10
166.62506
 20
-91.003332
 30
0.00
  0
SEQEND
  0
POLYLINE
  8
IMP_EC_PLATE_ISO-EDGE_CUTS_GBR
 66
1
 10
0.00
 20
0.00
 30
0.00
 40
0.20
 41
0.20
  0
VERTEX
  8
IMP_EC_PLATE_ISO-EDGE_CUTS_GBR
 10
165.62506
 20
-78.003332
 30
0.00
  0
VERTEX
  8
IMP_EC_PLATE_ISO-EDGE_CUTS_GBR
 10
166.62506
 20
-79.003332
 30
0.00
  0
SEQEND
  0
POLYLINE
  8
IMP_EC_PLATE_ISO-EDGE_CUTS_GBR
 66
1
 10
0.00
 20
0.00
 30
0.00
 40
0.20
 41
0.20
  0
VERTEX
  8
IMP_EC_PLATE_ISO-EDGE_CUTS_GBR
 10
153.02506
 20
-78.003332
 30
0.00
  0
VERTEX
  8
IMP_EC_PLATE_ISO-EDGE_CUTS_GBR
 10
165.62506
 20
-78.003332
 30
0.00
  0
SEQEND
  0
POLYLINE
  8
IMP_EC_PLATE_ISO-EDGE_CUTS_GBR
 66
1
 10
0.00
 20
0.00
 30
0.00
 40
0.20
 41
0.20
  0
VERTEX
  8
IMP_EC_PLATE_ISO-EDGE_CUTS_GBR
 10
128.35506
 20
-79.003332
 30
0.00
  0
VERTEX
  8
IMP_EC_PLATE_ISO-EDGE_CUTS_GBR
 10
129.35506
 20
-78.003332
 30
0.00
  0
SEQEND
  0
POLYLINE
  8
IMP_EC_PLATE_ISO-EDGE_CUTS_GBR
 66
1
 10
0.00
 20
0.00
 30
0.00
 40
0.20
 41
0.20
  0
VERTEX
  8
IMP_EC_PLATE_ISO-EDGE_CUTS_GBR
 10
128.35506
 20
-91.003332
 30
0.00
  0
VERTEX
  8
IMP_EC_PLATE_ISO-EDGE_CUTS_GBR
 10
128.35506
 20
-79.003332
 30
0.00
  0
SEQEND
  0
POLYLINE
  8
IMP_EC_PLATE_ISO-EDGE_CUTS_GBR
 66
1
 10
0.00
 20
0.00
 30
0.00
 40
0.20
 41
0.20
  0
VERTEX
  8
IMP_EC_PLATE_ISO-EDGE_CUTS_GBR
 10
129.35506
 20
-92.003332
 30
0.00
  0
VERTEX
  8
IMP_EC_PLATE_ISO-EDGE_CUTS_GBR
 10
128.35506
 20
-91.003332
 30
0.00
  0
SEQEND
  0
POLYLINE
  8
IMP_EC_PLATE_ISO-EDGE_CUTS_GBR
 66
1
 10
0.00
 20
0.00
 30
0.00
 40
0.20
 41
0.20
  0
VERTEX
  8
IMP_EC_PLATE_ISO-EDGE_CUTS_GBR
 10
141.95506
 20
-92.003332
 30
0.00
  0
VERTEX
  8
IMP_EC_PLATE_ISO-EDGE_CUTS_GBR
 10
129.35506
 20
-92.003332
 30
0.00
  0
SEQEND
  0
POLYLINE
  8
IMP_EC_PLATE_ISO-EDGE_CUTS_GBR
 66
1
 10
0.00
 20
0.00
 30
0.00
 40
0.20
 41
0.20
  0
VERTEX
  8
IMP_EC_PLATE_ISO-EDGE_CUTS_GBR
 10
142.95506
 20
-91.003332
 30
0.00
  0
VERTEX
  8
IMP_EC_PLATE_ISO-EDGE_CUTS_GBR
 10
141.95506
 20
-92.003332
 30
0.00
  0
SEQEND
  0
POLYLINE
  8
IMP_EC_PLATE_ISO-EDGE_CUTS_GBR
 66
1
 10
0.00
 20
0.00
 30
0.00
 40
0.20
 41
0.20
  0
VERTEX
  8
IMP_EC_PLATE_ISO-EDGE_CUTS_GBR
 10
142.95506
 20
-79.003332
 30
0.00
  0
VERTEX
  8
IMP_EC_PLATE_ISO-EDGE_CUTS_GBR
 10
142.95506
 20
-91.003332
 30
0.00
  0
SEQEND
  0
POLYLINE
  8
IMP_EC_PLATE_ISO-EDGE_CUTS_GBR
 66
1
 10
0.00
 20
0.00
 30
0.00
 40
0.20
 41
0.20
  0
VERTEX
  8
IMP_EC_PLATE_ISO-EDGE_CUTS_GBR
 10
141.95506
 20
-78.003332
 30
0.00
  0
VERTEX
  8
IMP_EC_PLATE_ISO-EDGE_CUTS_GBR
 10
142.95506
 20
-79.003332
 30
0.00
  0
SEQEND
  0
POLYLINE
  8
IMP_EC_PLATE_ISO-EDGE_CUTS_GBR
 66
1
 10
0.00
 20
0.00
 30
0.00
 40
0.20
 41
0.20
  0
VERTEX
  8
IMP_EC_PLATE_ISO-EDGE_CUTS_GBR
 10
129.35506
 20
-78.003332
 30
0.00
  0
VERTEX
  8
IMP_EC_PLATE_ISO-EDGE_CUTS_GBR
 10
141.95506
 20
-78.003332
 30
0.00
  0
SEQEND
  0
POLYLINE
  8
IMP_EC_PLATE_ISO-EDGE_CUTS_GBR
 66
1
 10
0.00
 20
0.00
 30
0.00
 40
0.20
 41
0.20
  0
VERTEX
  8
IMP_EC_PLATE_ISO-EDGE_CUTS_GBR
 10
109.33506
 20
-79.003332
 30
0.00
  0
VERTEX
  8
IMP_EC_PLATE_ISO-EDGE_CUTS_GBR
 10
110.33506
 20
-78.003332
 30
0.00
  0
SEQEND
  0
POLYLINE
  8
IMP_EC_PLATE_ISO-EDGE_CUTS_GBR
 66
1
 10
0.00
 20
0.00
 30
0.00
 40
0.20
 41
0.20
  0
VERTEX
  8
IMP_EC_PLATE_ISO-EDGE_CUTS_GBR
 10
109.33506
 20
-91.003332
 30
0.00
  0
VERTEX
  8
IMP_EC_PLATE_ISO-EDGE_CUTS_GBR
 10
109.33506
 20
-79.003332
 30
0.00
  0
SEQEND
  0
POLYLINE
  8
IMP_EC_PLATE_ISO-EDGE_CUTS_GBR
 66
1
 10
0.00
 20
0.00
 30
0.00
 40
0.20
 41
0.20
  0
VERTEX
  8
IMP_EC_PLATE_ISO-EDGE_CUTS_GBR
 10
110.33506
 20
-92.003332
 30
0.00
  0
VERTEX
  8
IMP_EC_PLATE_ISO-EDGE_CUTS_GBR
 10
109.33506
 20
-91.003332
 30
0.00
  0
SEQEND
  0
POLYLINE
  8
IMP_EC_PLATE_ISO-EDGE_CUTS_GBR
 66
1
 10
0.00
 20
0.00
 30
0.00
 40
0.20
 41
0.20
  0
VERTEX
  8
IMP_EC_PLATE_ISO-EDGE_CUTS_GBR
 10
122.93506
 20
-92.003332
 30
0.00
  0
VERTEX
  8
IMP_EC_PLATE_ISO-EDGE_CUTS_GBR
 10
110.33506
 20
-92.003332
 30
0.00
  0
SEQEND
  0
POLYLINE
  8
IMP_EC_PLATE_ISO-EDGE_CUTS_GBR
 66
1
 10
0.00
 20
0.00
 30
0.00
 40
0.20
 41
0.20
  0
VERTEX
  8
IMP_EC_PLATE_ISO-EDGE_CUTS_GBR
 10
123.93506
 20
-91.003332
 30
0.00
  0
VERTEX
  8
IMP_EC_PLATE_ISO-EDGE_CUTS_GBR
 10
122.93506
 20
-92.003332
 30
0.00
  0
SEQEND
  0
POLYLINE
  8
IMP_EC_PLATE_ISO-EDGE_CUTS_GBR
 66
1
 10
0.00
 20
0.00
 30
0.00
 40
0.20
 41
0.20
  0
VERTEX
  8
IMP_EC_PLATE_ISO-EDGE_CUTS_GBR
 10
123.93506
 20
-79.003332
 30
0.00
  0
VERTEX
  8
IMP_EC_PLATE_ISO-EDGE_CUTS_GBR
 10
123.93506
 20
-91.003332
 30
0.00
  0
SEQEND
  0
POLYLINE
  8
IMP_EC_PLATE_ISO-EDGE_CUTS_GBR
 66
1
 10
0.00
 20
0.00
 30
0.00
 40
0.20
 41
0.20
  0
VERTEX
  8
IMP_EC_PLATE_ISO-EDGE_CUTS_GBR
 10
122.93506
 20
-78.003332
 30
0.00
  0
VERTEX
  8
IMP_EC_PLATE_ISO-EDGE_CUTS_GBR
 10
123.93506
 20
-79.003332
 30
0.00
  0
SEQEND
  0
POLYLINE
  8
IMP_EC_PLATE_ISO-EDGE_CUTS_GBR
 66
1
 10
0.00
 20
0.00
 30
0.00
 40
0.20
 41
0.20
  0
VERTEX
  8
IMP_EC_PLATE_ISO-EDGE_CUTS_GBR
 10
110.33506
 20
-78.003332
 30
0.00
  0
VERTEX
  8
IMP_EC_PLATE_ISO-EDGE_CUTS_GBR
 10
122.93506
 20
-78.003332
 30
0.00
  0
SEQEND
  0
POLYLINE
  8
IMP_EC_PLATE_ISO-EDGE_CUTS_GBR
 66
1
 10
0.00
 20
0.00
 30
0.00
 40
0.20
 41
0.20
  0
VERTEX
  8
IMP_EC_PLATE_ISO-EDGE_CUTS_GBR
 10
90.31506
 20
-79.003332
 30
0.00
  0
VERTEX
  8
IMP_EC_PLATE_ISO-EDGE_CUTS_GBR
 10
91.31506
 20
-78.003332
 30
0.00
  0
SEQEND
  0
POLYLINE
  8
IMP_EC_PLATE_ISO-EDGE_CUTS_GBR
 66
1
 10
0.00
 20
0.00
 30
0.00
 40
0.20
 41
0.20
  0
VERTEX
  8
IMP_EC_PLATE_ISO-EDGE_CUTS_GBR
 10
90.31506
 20
-91.003332
 30
0.00
  0
VERTEX
  8
IMP_EC_PLATE_ISO-EDGE_CUTS_GBR
 10
90.31506
 20
-79.003332
 30
0.00
  0
SEQEND
  0
POLYLINE
  8
IMP_EC_PLATE_ISO-EDGE_CUTS_GBR
 66
1
 10
0.00
 20
0.00
 30
0.00
 40
0.20
 41
0.20
  0
VERTEX
  8
IMP_EC_PLATE_ISO-EDGE_CUTS_GBR
 10
91.31506
 20
-92.003332
 30
0.00
  0
VERTEX
  8
IMP_EC_PLATE_ISO-EDGE_CUTS_GBR
 10
90.31506
 20
-91.003332
 30
0.00
  0
SEQEND
  0
POLYLINE
  8
IMP_EC_PLATE_ISO-EDGE_CUTS_GBR
 66
1
 10
0.00
 20
0.00
 30
0.00
 40
0.20
 41
0.20
  0
VERTEX
  8
IMP_EC_PLATE_ISO-EDGE_CUTS_GBR
 10
103.91506
 20
-92.003332
 30
0.00
  0
VERTEX
  8
IMP_EC_PLATE_ISO-EDGE_CUTS_GBR
 10
91.31506
 20
-92.003332
 30
0.00
  0
SEQEND
  0
POLYLINE
  8
IMP_EC_PLATE_ISO-EDGE_CUTS_GBR
 66
1
 10
0.00
 20
0.00
 30
0.00
 40
0.20
 41
0.20
  0
VERTEX
  8
IMP_EC_PLATE_ISO-EDGE_CUTS_GBR
 10
104.91506
 20
-91.003332
 30
0.00
  0
VERTEX
  8
IMP_EC_PLATE_ISO-EDGE_CUTS_GBR
 10
103.91506
 20
-92.003332
 30
0.00
  0
SEQEND
  0
POLYLINE
  8
IMP_EC_PLATE_ISO-EDGE_CUTS_GBR
 66
1
 10
0.00
 20
0.00
 30
0.00
 40
0.20
 41
0.20
  0
VERTEX
  8
IMP_EC_PLATE_ISO-EDGE_CUTS_GBR
 10
104.91506
 20
-79.003332
 30
0.00
  0
VERTEX
  8
IMP_EC_PLATE_ISO-EDGE_CUTS_GBR
 10
104.91506
 20
-91.003332
 30
0.00
  0
SEQEND
  0
POLYLINE
  8
IMP_EC_PLATE_ISO-EDGE_CUTS_GBR
 66
1
 10
0.00
 20
0.00
 30
0.00
 40
0.20
 41
0.20
  0
VERTEX
  8
IMP_EC_PLATE_ISO-EDGE_CUTS_GBR
 10
103.91506
 20
-78.003332
 30
0.00
  0
VERTEX
  8
IMP_EC_PLATE_ISO-EDGE_CUTS_GBR
 10
104.91506
 20
-79.003332
 30
0.00
  0
SEQEND
  0
POLYLINE
  8
IMP_EC_PLATE_ISO-EDGE_CUTS_GBR
 66
1
 10
0.00
 20
0.00
 30
0.00
 40
0.20
 41
0.20
  0
VERTEX
  8
IMP_EC_PLATE_ISO-EDGE_CUTS_GBR
 10
91.31506
 20
-78.003332
 30
0.00
  0
VERTEX
  8
IMP_EC_PLATE_ISO-EDGE_CUTS_GBR
 10
103.91506
 20
-78.003332
 30
0.00
  0
SEQEND
  0
POLYLINE
  8
IMP_EC_PLATE_ISO-EDGE_CUTS_GBR
 66
1
 10
0.00
 20
0.00
 30
0.00
 40
0.20
 41
0.20
  0
VERTEX
  8
IMP_EC_PLATE_ISO-EDGE_CUTS_GBR
 10
71.29506
 20
-79.003332
 30
0.00
  0
VERTEX
  8
IMP_EC_PLATE_ISO-EDGE_CUTS_GBR
 10
72.29506
 20
-78.003332
 30
0.00
  0
SEQEND
  0
POLYLINE
  8
IMP_EC_PLATE_ISO-EDGE_CUTS_GBR
 66
1
 10
0.00
 20
0.00
 30
0.00
 40
0.20
 41
0.20
  0
VERTEX
  8
IMP_EC_PLATE_ISO-EDGE_CUTS_GBR
 10
71.29506
 20
-91.003332
 30
0.00
  0
VERTEX
  8
IMP_EC_PLATE_ISO-EDGE_CUTS_GBR
 10
71.29506
 20
-79.003332
 30
0.00
  0
SEQEND
  0
POLYLINE
  8
IMP_EC_PLATE_ISO-EDGE_CUTS_GBR
 66
1
 10
0.00
 20
0.00
 30
0.00
 40
0.20
 41
0.20
  0
VERTEX
  8
IMP_EC_PLATE_ISO-EDGE_CUTS_GBR
 10
72.29506
 20
-92.003332
 30
0.00
  0
VERTEX
  8
IMP_EC_PLATE_ISO-EDGE_CUTS_GBR
 10
71.29506
 20
-91.003332
 30
0.00
  0
SEQEND
  0
POLYLINE
  8
IMP_EC_PLATE_ISO-EDGE_CUTS_GBR
 66
1
 10
0.00
 20
0.00
 30
0.00
 40
0.20
 41
0.20
  0
VERTEX
  8
IMP_EC_PLATE_ISO-EDGE_CUTS_GBR
 10
84.89506
 20
-92.003332
 30
0.00
  0
VERTEX
  8
IMP_EC_PLATE_ISO-EDGE_CUTS_GBR
 10
72.29506
 20
-92.003332
 30
0.00
  0
SEQEND
  0
POLYLINE
  8
IMP_EC_PLATE_ISO-EDGE_CUTS_GBR
 66
1
 10
0.00
 20
0.00
 30
0.00
 40
0.20
 41
0.20
  0
VERTEX
  8
IMP_EC_PLATE_ISO-EDGE_CUTS_GBR
 10
85.89506
 20
-91.003332
 30
0.00
  0
VERTEX
  8
IMP_EC_PLATE_ISO-EDGE_CUTS_GBR
 10
84.89506
 20
-92.003332
 30
0.00
  0
SEQEND
  0
POLYLINE
  8
IMP_EC_PLATE_ISO-EDGE_CUTS_GBR
 66
1
 10
0.00
 20
0.00
 30
0.00
 40
0.20
 41
0.20
  0
VERTEX
  8
IMP_EC_PLATE_ISO-EDGE_CUTS_GBR
 10
85.89506
 20
-79.003332
 30
0.00
  0
VERTEX
  8
IMP_EC_PLATE_ISO-EDGE_CUTS_GBR
 10
85.89506
 20
-91.003332
 30
0.00
  0
SEQEND
  0
POLYLINE
  8
IMP_EC_PLATE_ISO-EDGE_CUTS_GBR
 66
1
 10
0.00
 20
0.00
 30
0.00
 40
0.20
 41
0.20
  0
VERTEX
  8
IMP_EC_PLATE_ISO-EDGE_CUTS_GBR
 10
84.89506
 20
-78.003332
 30
0.00
  0
VERTEX
  8
IMP_EC_PLATE_ISO-EDGE_CUTS_GBR
 10
85.89506
 20
-79.003332
 30
0.00
  0
SEQEND
  0
POLYLINE
  8
IMP_EC_PLATE_ISO-EDGE_CUTS_GBR
 66
1
 10
0.00
 20
0.00
 30
0.00
 40
0.20
 41
0.20
  0
VERTEX
  8
IMP_EC_PLATE_ISO-EDGE_CUTS_GBR
 10
72.29506
 20
-78.003332
 30
0.00
  0
VERTEX
  8
IMP_EC_PLATE_ISO-EDGE_CUTS_GBR
 10
84.89506
 20
-78.003332
 30
0.00
  0
SEQEND
  0
POLYLINE
  8
IMP_EC_PLATE_ISO-EDGE_CUTS_GBR
 66
1
 10
0.00
 20
0.00
 30
0.00
 40
0.20
 41
0.20
  0
VERTEX
  8
IMP_EC_PLATE_ISO-EDGE_CUTS_GBR
 10
99.618596
 20
-178.173332
 30
0.00
  0
VERTEX
  8
IMP_EC_PLATE_ISO-EDGE_CUTS_GBR
 10
100.618596
 20
-177.173332
 30
0.00
  0
SEQEND
  0
POLYLINE
  8
IMP_EC_PLATE_ISO-EDGE_CUTS_GBR
 66
1
 10
0.00
 20
0.00
 30
0.00
 40
0.20
 41
0.20
  0
VERTEX
  8
IMP_EC_PLATE_ISO-EDGE_CUTS_GBR
 10
99.618596
 20
-190.173332
 30
0.00
  0
VERTEX
  8
IMP_EC_PLATE_ISO-EDGE_CUTS_GBR
 10
99.618596
 20
-178.173332
 30
0.00
  0
SEQEND
  0
POLYLINE
  8
IMP_EC_PLATE_ISO-EDGE_CUTS_GBR
 66
1
 10
0.00
 20
0.00
 30
0.00
 40
0.20
 41
0.20
  0
VERTEX
  8
IMP_EC_PLATE_ISO-EDGE_CUTS_GBR
 10
100.618596
 20
-191.173332
 30
0.00
  0
VERTEX
  8
IMP_EC_PLATE_ISO-EDGE_CUTS_GBR
 10
99.618596
 20
-190.173332
 30
0.00
  0
SEQEND
  0
POLYLINE
  8
IMP_EC_PLATE_ISO-EDGE_CUTS_GBR
 66
1
 10
0.00
 20
0.00
 30
0.00
 40
0.20
 41
0.20
  0
VERTEX
  8
IMP_EC_PLATE_ISO-EDGE_CUTS_GBR
 10
113.218596
 20
-191.173332
 30
0.00
  0
VERTEX
  8
IMP_EC_PLATE_ISO-EDGE_CUTS_GBR
 10
100.618596
 20
-191.173332
 30
0.00
  0
SEQEND
  0
POLYLINE
  8
IMP_EC_PLATE_ISO-EDGE_CUTS_GBR
 66
1
 10
0.00
 20
0.00
 30
0.00
 40
0.20
 41
0.20
  0
VERTEX
  8
IMP_EC_PLATE_ISO-EDGE_CUTS_GBR
 10
114.218596
 20
-190.173332
 30
0.00
  0
VERTEX
  8
IMP_EC_PLATE_ISO-EDGE_CUTS_GBR
 10
113.218596
 20
-191.173332
 30
0.00
  0
SEQEND
  0
POLYLINE
  8
IMP_EC_PLATE_ISO-EDGE_CUTS_GBR
 66
1
 10
0.00
 20
0.00
 30
0.00
 40
0.20
 41
0.20
  0
VERTEX
  8
IMP_EC_PLATE_ISO-EDGE_CUTS_GBR
 10
114.218596
 20
-178.173332
 30
0.00
  0
VERTEX
  8
IMP_EC_PLATE_ISO-EDGE_CUTS_GBR
 10
114.218596
 20
-190.173332
 30
0.00
  0
SEQEND
  0
POLYLINE
  8
IMP_EC_PLATE_ISO-EDGE_CUTS_GBR
 66
1
 10
0.00
 20
0.00
 30
0.00
 40
0.20
 41
0.20
  0
VERTEX
  8
IMP_EC_PLATE_ISO-EDGE_CUTS_GBR
 10
113.218596
 20
-177.173332
 30
0.00
  0
VERTEX
  8
IMP_EC_PLATE_ISO-EDGE_CUTS_GBR
 10
114.218596
 20
-178.173332
 30
0.00
  0
SEQEND
  0
POLYLINE
  8
IMP_EC_PLATE_ISO-EDGE_CUTS_GBR
 66
1
 10
0.00
 20
0.00
 30
0.00
 40
0.20
 41
0.20
  0
VERTEX
  8
IMP_EC_PLATE_ISO-EDGE_CUTS_GBR
 10
100.618596
 20
-177.173332
 30
0.00
  0
VERTEX
  8
IMP_EC_PLATE_ISO-EDGE_CUTS_GBR
 10
113.218596
 20
-177.173332
 30
0.00
  0
SEQEND
  0
POLYLINE
  8
IMP_EC_PLATE_ISO-EDGE_CUTS_GBR
 66
1
 10
0.00
 20
0.00
 30
0.00
 40
0.20
 41
0.20
  0
VERTEX
  8
IMP_EC_PLATE_ISO-EDGE_CUTS_GBR
 10
76.031008
 20
-178.173332
 30
0.00
  0
VERTEX
  8
IMP_EC_PLATE_ISO-EDGE_CUTS_GBR
 10
77.031008
 20
-177.173332
 30
0.00
  0
SEQEND
  0
POLYLINE
  8
IMP_EC_PLATE_ISO-EDGE_CUTS_GBR
 66
1
 10
0.00
 20
0.00
 30
0.00
 40
0.20
 41
0.20
  0
VERTEX
  8
IMP_EC_PLATE_ISO-EDGE_CUTS_GBR
 10
76.031008
 20
-190.173332
 30
0.00
  0
VERTEX
  8
IMP_EC_PLATE_ISO-EDGE_CUTS_GBR
 10
76.031008
 20
-178.173332
 30
0.00
  0
SEQEND
  0
POLYLINE
  8
IMP_EC_PLATE_ISO-EDGE_CUTS_GBR
 66
1
 10
0.00
 20
0.00
 30
0.00
 40
0.20
 41
0.20
  0
VERTEX
  8
IMP_EC_PLATE_ISO-EDGE_CUTS_GBR
 10
77.031008
 20
-191.173332
 30
0.00
  0
VERTEX
  8
IMP_EC_PLATE_ISO-EDGE_CUTS_GBR
 10
76.031008
 20
-190.173332
 30
0.00
  0
SEQEND
  0
POLYLINE
  8
IMP_EC_PLATE_ISO-EDGE_CUTS_GBR
 66
1
 10
0.00
 20
0.00
 30
0.00
 40
0.20
 41
0.20
  0
VERTEX
  8
IMP_EC_PLATE_ISO-EDGE_CUTS_GBR
 10
89.631008
 20
-191.173332
 30
0.00
  0
VERTEX
  8
IMP_EC_PLATE_ISO-EDGE_CUTS_GBR
 10
77.031008
 20
-191.173332
 30
0.00
  0
SEQEND
  0
POLYLINE
  8
IMP_EC_PLATE_ISO-EDGE_CUTS_GBR
 66
1
 10
0.00
 20
0.00
 30
0.00
 40
0.20
 41
0.20
  0
VERTEX
  8
IMP_EC_PLATE_ISO-EDGE_CUTS_GBR
 10
90.631008
 20
-190.173332
 30
0.00
  0
VERTEX
  8
IMP_EC_PLATE_ISO-EDGE_CUTS_GBR
 10
89.631008
 20
-191.173332
 30
0.00
  0
SEQEND
  0
POLYLINE
  8
IMP_EC_PLATE_ISO-EDGE_CUTS_GBR
 66
1
 10
0.00
 20
0.00
 30
0.00
 40
0.20
 41
0.20
  0
VERTEX
  8
IMP_EC_PLATE_ISO-EDGE_CUTS_GBR
 10
90.631008
 20
-178.173332
 30
0.00
  0
VERTEX
  8
IMP_EC_PLATE_ISO-EDGE_CUTS_GBR
 10
90.631008
 20
-190.173332
 30
0.00
  0
SEQEND
  0
POLYLINE
  8
IMP_EC_PLATE_ISO-EDGE_CUTS_GBR
 66
1
 10
0.00
 20
0.00
 30
0.00
 40
0.20
 41
0.20
  0
VERTEX
  8
IMP_EC_PLATE_ISO-EDGE_CUTS_GBR
 10
89.631008
 20
-177.173332
 30
0.00
  0
VERTEX
  8
IMP_EC_PLATE_ISO-EDGE_CUTS_GBR
 10
90.631008
 20
-178.173332
 30
0.00
  0
SEQEND
  0
POLYLINE
  8
IMP_EC_PLATE_ISO-EDGE_CUTS_GBR
 66
1
 10
0.00
 20
0.00
 30
0.00
 40
0.20
 41
0.20
  0
VERTEX
  8
IMP_EC_PLATE_ISO-EDGE_CUTS_GBR
 10
77.031008
 20
-177.173332
 30
0.00
  0
VERTEX
  8
IMP_EC_PLATE_ISO-EDGE_CUTS_GBR
 10
89.631008
 20
-177.173332
 30
0.00
  0
SEQEND
  0
POLYLINE
  8
IMP_EC_PLATE_ISO-EDGE_CUTS_GBR
 66
1
 10
0.00
 20
0.00
 30
0.00
 40
0.20
 41
0.20
  0
VERTEX
  8
IMP_EC_PLATE_ISO-EDGE_CUTS_GBR
 10
52.286592
 20
-177.873332
 30
0.00
  0
VERTEX
  8
IMP_EC_PLATE_ISO-EDGE_CUTS_GBR
 10
53.286592
 20
-176.873332
 30
0.00
  0
SEQEND
  0
POLYLINE
  8
IMP_EC_PLATE_ISO-EDGE_CUTS_GBR
 66
1
 10
0.00
 20
0.00
 30
0.00
 40
0.20
 41
0.20
  0
VERTEX
  8
IMP_EC_PLATE_ISO-EDGE_CUTS_GBR
 10
53.286592
 20
-191.473332
 30
0.00
  0
VERTEX
  8
IMP_EC_PLATE_ISO-EDGE_CUTS_GBR
 10
52.286592
 20
-190.473332
 30
0.00
  0
SEQEND
  0
POLYLINE
  8
IMP_EC_PLATE_ISO-EDGE_CUTS_GBR
 66
1
 10
0.00
 20
0.00
 30
0.00
 40
0.20
 41
0.20
  0
VERTEX
  8
IMP_EC_PLATE_ISO-EDGE_CUTS_GBR
 10
65.886592
 20
-191.473332
 30
0.00
  0
VERTEX
  8
IMP_EC_PLATE_ISO-EDGE_CUTS_GBR
 10
53.286592
 20
-191.473332
 30
0.00
  0
SEQEND
  0
POLYLINE
  8
IMP_EC_PLATE_ISO-EDGE_CUTS_GBR
 66
1
 10
0.00
 20
0.00
 30
0.00
 40
0.20
 41
0.20
  0
VERTEX
  8
IMP_EC_PLATE_ISO-EDGE_CUTS_GBR
 10
66.886592
 20
-190.473332
 30
0.00
  0
VERTEX
  8
IMP_EC_PLATE_ISO-EDGE_CUTS_GBR
 10
65.886592
 20
-191.473332
 30
0.00
  0
SEQEND
  0
POLYLINE
  8
IMP_EC_PLATE_ISO-EDGE_CUTS_GBR
 66
1
 10
0.00
 20
0.00
 30
0.00
 40
0.20
 41
0.20
  0
VERTEX
  8
IMP_EC_PLATE_ISO-EDGE_CUTS_GBR
 10
65.886592
 20
-176.873332
 30
0.00
  0
VERTEX
  8
IMP_EC_PLATE_ISO-EDGE_CUTS_GBR
 10
66.886592
 20
-177.873332
 30
0.00
  0
SEQEND
  0
POLYLINE
  8
IMP_EC_PLATE_ISO-EDGE_CUTS_GBR
 66
1
 10
0.00
 20
0.00
 30
0.00
 40
0.20
 41
0.20
  0
VERTEX
  8
IMP_EC_PLATE_ISO-EDGE_CUTS_GBR
 10
53.286592
 20
-176.873332
 30
0.00
  0
VERTEX
  8
IMP_EC_PLATE_ISO-EDGE_CUTS_GBR
 10
65.886592
 20
-176.873332
 30
0.00
  0
SEQEND
  0
POLYLINE
  8
IMP_EC_PLATE_ISO-EDGE_CUTS_GBR
 66
1
 10
0.00
 20
0.00
 30
0.00
 40
0.20
 41
0.20
  0
VERTEX
  8
IMP_EC_PLATE_ISO-EDGE_CUTS_GBR
 10
204.39506
 20
-159.163332
 30
0.00
  0
VERTEX
  8
IMP_EC_PLATE_ISO-EDGE_CUTS_GBR
 10
205.39506
 20
-158.163332
 30
0.00
  0
SEQEND
  0
POLYLINE
  8
IMP_EC_PLATE_ISO-EDGE_CUTS_GBR
 66
1
 10
0.00
 20
0.00
 30
0.00
 40
0.20
 41
0.20
  0
VERTEX
  8
IMP_EC_PLATE_ISO-EDGE_CUTS_GBR
 10
204.39506
 20
-171.163332
 30
0.00
  0
VERTEX
  8
IMP_EC_PLATE_ISO-EDGE_CUTS_GBR
 10
204.39506
 20
-159.163332
 30
0.00
  0
SEQEND
  0
POLYLINE
  8
IMP_EC_PLATE_ISO-EDGE_CUTS_GBR
 66
1
 10
0.00
 20
0.00
 30
0.00
 40
0.20
 41
0.20
  0
VERTEX
  8
IMP_EC_PLATE_ISO-EDGE_CUTS_GBR
 10
205.39506
 20
-172.163332
 30
0.00
  0
VERTEX
  8
IMP_EC_PLATE_ISO-EDGE_CUTS_GBR
 10
204.39506
 20
-171.163332
 30
0.00
  0
SEQEND
  0
POLYLINE
  8
IMP_EC_PLATE_ISO-EDGE_CUTS_GBR
 66
1
 10
0.00
 20
0.00
 30
0.00
 40
0.20
 41
0.20
  0
VERTEX
  8
IMP_EC_PLATE_ISO-EDGE_CUTS_GBR
 10
217.99506
 20
-172.163332
 30
0.00
  0
VERTEX
  8
IMP_EC_PLATE_ISO-EDGE_CUTS_GBR
 10
205.39506
 20
-172.163332
 30
0.00
  0
SEQEND
  0
POLYLINE
  8
IMP_EC_PLATE_ISO-EDGE_CUTS_GBR
 66
1
 10
0.00
 20
0.00
 30
0.00
 40
0.20
 41
0.20
  0
VERTEX
  8
IMP_EC_PLATE_ISO-EDGE_CUTS_GBR
 10
218.99506
 20
-171.163332
 30
0.00
  0
VERTEX
  8
IMP_EC_PLATE_ISO-EDGE_CUTS_GBR
 10
217.99506
 20
-172.163332
 30
0.00
  0
SEQEND
  0
POLYLINE
  8
IMP_EC_PLATE_ISO-EDGE_CUTS_GBR
 66
1
 10
0.00
 20
0.00
 30
0.00
 40
0.20
 41
0.20
  0
VERTEX
  8
IMP_EC_PLATE_ISO-EDGE_CUTS_GBR
 10
218.99506
 20
-159.163332
 30
0.00
  0
VERTEX
  8
IMP_EC_PLATE_ISO-EDGE_CUTS_GBR
 10
218.99506
 20
-171.163332
 30
0.00
  0
SEQEND
  0
POLYLINE
  8
IMP_EC_PLATE_ISO-EDGE_CUTS_GBR
 66
1
 10
0.00
 20
0.00
 30
0.00
 40
0.20
 41
0.20
  0
VERTEX
  8
IMP_EC_PLATE_ISO-EDGE_CUTS_GBR
 10
217.99506
 20
-158.163332
 30
0.00
  0
VERTEX
  8
IMP_EC_PLATE_ISO-EDGE_CUTS_GBR
 10
218.99506
 20
-159.163332
 30
0.00
  0
SEQEND
  0
POLYLINE
  8
IMP_EC_PLATE_ISO-EDGE_CUTS_GBR
 66
1
 10
0.00
 20
0.00
 30
0.00
 40
0.20
 41
0.20
  0
VERTEX
  8
IMP_EC_PLATE_ISO-EDGE_CUTS_GBR
 10
205.39506
 20
-158.163332
 30
0.00
  0
VERTEX
  8
IMP_EC_PLATE_ISO-EDGE_CUTS_GBR
 10
217.99506
 20
-158.163332
 30
0.00
  0
SEQEND
  0
POLYLINE
  8
IMP_EC_PLATE_ISO-EDGE_CUTS_GBR
 66
1
 10
0.00
 20
0.00
 30
0.00
 40
0.20
 41
0.20
  0
VERTEX
  8
IMP_EC_PLATE_ISO-EDGE_CUTS_GBR
 10
185.39506
 20
-159.163332
 30
0.00
  0
VERTEX
  8
IMP_EC_PLATE_ISO-EDGE_CUTS_GBR
 10
186.39506
 20
-158.163332
 30
0.00
  0
SEQEND
  0
POLYLINE
  8
IMP_EC_PLATE_ISO-EDGE_CUTS_GBR
 66
1
 10
0.00
 20
0.00
 30
0.00
 40
0.20
 41
0.20
  0
VERTEX
  8
IMP_EC_PLATE_ISO-EDGE_CUTS_GBR
 10
185.39506
 20
-171.163332
 30
0.00
  0
VERTEX
  8
IMP_EC_PLATE_ISO-EDGE_CUTS_GBR
 10
185.39506
 20
-159.163332
 30
0.00
  0
SEQEND
  0
POLYLINE
  8
IMP_EC_PLATE_ISO-EDGE_CUTS_GBR
 66
1
 10
0.00
 20
0.00
 30
0.00
 40
0.20
 41
0.20
  0
VERTEX
  8
IMP_EC_PLATE_ISO-EDGE_CUTS_GBR
 10
186.39506
 20
-172.163332
 30
0.00
  0
VERTEX
  8
IMP_EC_PLATE_ISO-EDGE_CUTS_GBR
 10
185.39506
 20
-171.163332
 30
0.00
  0
SEQEND
  0
POLYLINE
  8
IMP_EC_PLATE_ISO-EDGE_CUTS_GBR
 66
1
 10
0.00
 20
0.00
 30
0.00
 40
0.20
 41
0.20
  0
VERTEX
  8
IMP_EC_PLATE_ISO-EDGE_CUTS_GBR
 10
198.99506
 20
-172.163332
 30
0.00
  0
VERTEX
  8
IMP_EC_PLATE_ISO-EDGE_CUTS_GBR
 10
186.39506
 20
-172.163332
 30
0.00
  0
SEQEND
  0
POLYLINE
  8
IMP_EC_PLATE_ISO-EDGE_CUTS_GBR
 66
1
 10
0.00
 20
0.00
 30
0.00
 40
0.20
 41
0.20
  0
VERTEX
  8
IMP_EC_PLATE_ISO-EDGE_CUTS_GBR
 10
199.99506
 20
-171.163332
 30
0.00
  0
VERTEX
  8
IMP_EC_PLATE_ISO-EDGE_CUTS_GBR
 10
198.99506
 20
-172.163332
 30
0.00
  0
SEQEND
  0
POLYLINE
  8
IMP_EC_PLATE_ISO-EDGE_CUTS_GBR
 66
1
 10
0.00
 20
0.00
 30
0.00
 40
0.20
 41
0.20
  0
VERTEX
  8
IMP_EC_PLATE_ISO-EDGE_CUTS_GBR
 10
199.99506
 20
-159.163332
 30
0.00
  0
VERTEX
  8
IMP_EC_PLATE_ISO-EDGE_CUTS_GBR
 10
199.99506
 20
-171.163332
 30
0.00
  0
SEQEND
  0
POLYLINE
  8
IMP_EC_PLATE_ISO-EDGE_CUTS_GBR
 66
1
 10
0.00
 20
0.00
 30
0.00
 40
0.20
 41
0.20
  0
VERTEX
  8
IMP_EC_PLATE_ISO-EDGE_CUTS_GBR
 10
198.99506
 20
-158.163332
 30
0.00
  0
VERTEX
  8
IMP_EC_PLATE_ISO-EDGE_CUTS_GBR
 10
199.99506
 20
-159.163332
 30
0.00
  0
SEQEND
  0
POLYLINE
  8
IMP_EC_PLATE_ISO-EDGE_CUTS_GBR
 66
1
 10
0.00
 20
0.00
 30
0.00
 40
0.20
 41
0.20
  0
VERTEX
  8
IMP_EC_PLATE_ISO-EDGE_CUTS_GBR
 10
186.39506
 20
-158.163332
 30
0.00
  0
VERTEX
  8
IMP_EC_PLATE_ISO-EDGE_CUTS_GBR
 10
198.99506
 20
-158.163332
 30
0.00
  0
SEQEND
  0
POLYLINE
  8
IMP_EC_PLATE_ISO-EDGE_CUTS_GBR
 66
1
 10
0.00
 20
0.00
 30
0.00
 40
0.20
 41
0.20
  0
VERTEX
  8
IMP_EC_PLATE_ISO-EDGE_CUTS_GBR
 10
166.39506
 20
-159.163332
 30
0.00
  0
VERTEX
  8
IMP_EC_PLATE_ISO-EDGE_CUTS_GBR
 10
167.39506
 20
-158.163332
 30
0.00
  0
SEQEND
  0
POLYLINE
  8
IMP_EC_PLATE_ISO-EDGE_CUTS_GBR
 66
1
 10
0.00
 20
0.00
 30
0.00
 40
0.20
 41
0.20
  0
VERTEX
  8
IMP_EC_PLATE_ISO-EDGE_CUTS_GBR
 10
166.39506
 20
-171.163332
 30
0.00
  0
VERTEX
  8
IMP_EC_PLATE_ISO-EDGE_CUTS_GBR
 10
166.39506
 20
-159.163332
 30
0.00
  0
SEQEND
  0
POLYLINE
  8
IMP_EC_PLATE_ISO-EDGE_CUTS_GBR
 66
1
 10
0.00
 20
0.00
 30
0.00
 40
0.20
 41
0.20
  0
VERTEX
  8
IMP_EC_PLATE_ISO-EDGE_CUTS_GBR
 10
167.39506
 20
-172.163332
 30
0.00
  0
VERTEX
  8
IMP_EC_PLATE_ISO-EDGE_CUTS_GBR
 10
166.39506
 20
-171.163332
 30
0.00
  0
SEQEND
  0
POLYLINE
  8
IMP_EC_PLATE_ISO-EDGE_CUTS_GBR
 66
1
 10
0.00
 20
0.00
 30
0.00
 40
0.20
 41
0.20
  0
VERTEX
  8
IMP_EC_PLATE_ISO-EDGE_CUTS_GBR
 10
179.99506
 20
-172.163332
 30
0.00
  0
VERTEX
  8
IMP_EC_PLATE_ISO-EDGE_CUTS_GBR
 10
167.39506
 20
-172.163332
 30
0.00
  0
SEQEND
  0
POLYLINE
  8
IMP_EC_PLATE_ISO-EDGE_CUTS_GBR
 66
1
 10
0.00
 20
0.00
 30
0.00
 40
0.20
 41
0.20
  0
VERTEX
  8
IMP_EC_PLATE_ISO-EDGE_CUTS_GBR
 10
180.99506
 20
-171.163332
 30
0.00
  0
VERTEX
  8
IMP_EC_PLATE_ISO-EDGE_CUTS_GBR
 10
179.99506
 20
-172.163332
 30
0.00
  0
SEQEND
  0
POLYLINE
  8
IMP_EC_PLATE_ISO-EDGE_CUTS_GBR
 66
1
 10
0.00
 20
0.00
 30
0.00
 40
0.20
 41
0.20
  0
VERTEX
  8
IMP_EC_PLATE_ISO-EDGE_CUTS_GBR
 10
180.99506
 20
-159.163332
 30
0.00
  0
VERTEX
  8
IMP_EC_PLATE_ISO-EDGE_CUTS_GBR
 10
180.99506
 20
-171.163332
 30
0.00
  0
SEQEND
  0
POLYLINE
  8
IMP_EC_PLATE_ISO-EDGE_CUTS_GBR
 66
1
 10
0.00
 20
0.00
 30
0.00
 40
0.20
 41
0.20
  0
VERTEX
  8
IMP_EC_PLATE_ISO-EDGE_CUTS_GBR
 10
179.99506
 20
-158.163332
 30
0.00
  0
VERTEX
  8
IMP_EC_PLATE_ISO-EDGE_CUTS_GBR
 10
180.99506
 20
-159.163332
 30
0.00
  0
SEQEND
  0
POLYLINE
  8
IMP_EC_PLATE_ISO-EDGE_CUTS_GBR
 66
1
 10
0.00
 20
0.00
 30
0.00
 40
0.20
 41
0.20
  0
VERTEX
  8
IMP_EC_PLATE_ISO-EDGE_CUTS_GBR
 10
167.39506
 20
-158.163332
 30
0.00
  0
VERTEX
  8
IMP_EC_PLATE_ISO-EDGE_CUTS_GBR
 10
179.99506
 20
-158.163332
 30
0.00
  0
SEQEND
  0
POLYLINE
  8
IMP_EC_PLATE_ISO-EDGE_CUTS_GBR
 66
1
 10
0.00
 20
0.00
 30
0.00
 40
0.20
 41
0.20
  0
VERTEX
  8
IMP_EC_PLATE_ISO-EDGE_CUTS_GBR
 10
147.39506
 20
-159.163332
 30
0.00
  0
VERTEX
  8
IMP_EC_PLATE_ISO-EDGE_CUTS_GBR
 10
148.39506
 20
-158.163332
 30
0.00
  0
SEQEND
  0
POLYLINE
  8
IMP_EC_PLATE_ISO-EDGE_CUTS_GBR
 66
1
 10
0.00
 20
0.00
 30
0.00
 40
0.20
 41
0.20
  0
VERTEX
  8
IMP_EC_PLATE_ISO-EDGE_CUTS_GBR
 10
147.39506
 20
-171.163332
 30
0.00
  0
VERTEX
  8
IMP_EC_PLATE_ISO-EDGE_CUTS_GBR
 10
147.39506
 20
-159.163332
 30
0.00
  0
SEQEND
  0
POLYLINE
  8
IMP_EC_PLATE_ISO-EDGE_CUTS_GBR
 66
1
 10
0.00
 20
0.00
 30
0.00
 40
0.20
 41
0.20
  0
VERTEX
  8
IMP_EC_PLATE_ISO-EDGE_CUTS_GBR
 10
148.39506
 20
-172.163332
 30
0.00
  0
VERTEX
  8
IMP_EC_PLATE_ISO-EDGE_CUTS_GBR
 10
147.39506
 20
-171.163332
 30
0.00
  0
SEQEND
  0
POLYLINE
  8
IMP_EC_PLATE_ISO-EDGE_CUTS_GBR
 66
1
 10
0.00
 20
0.00
 30
0.00
 40
0.20
 41
0.20
  0
VERTEX
  8
IMP_EC_PLATE_ISO-EDGE_CUTS_GBR
 10
160.99506
 20
-172.163332
 30
0.00
  0
VERTEX
  8
IMP_EC_PLATE_ISO-EDGE_CUTS_GBR
 10
148.39506
 20
-172.163332
 30
0.00
  0
SEQEND
  0
POLYLINE
  8
IMP_EC_PLATE_ISO-EDGE_CUTS_GBR
 66
1
 10
0.00
 20
0.00
 30
0.00
 40
0.20
 41
0.20
  0
VERTEX
  8
IMP_EC_PLATE_ISO-EDGE_CUTS_GBR
 10
161.99506
 20
-171.163332
 30
0.00
  0
VERTEX
  8
IMP_EC_PLATE_ISO-EDGE_CUTS_GBR
 10
160.99506
 20
-172.163332
 30
0.00
  0
SEQEND
  0
POLYLINE
  8
IMP_EC_PLATE_ISO-EDGE_CUTS_GBR
 66
1
 10
0.00
 20
0.00
 30
0.00
 40
0.20
 41
0.20
  0
VERTEX
  8
IMP_EC_PLATE_ISO-EDGE_CUTS_GBR
 10
161.99506
 20
-159.163332
 30
0.00
  0
VERTEX
  8
IMP_EC_PLATE_ISO-EDGE_CUTS_GBR
 10
161.99506
 20
-171.163332
 30
0.00
  0
SEQEND
  0
POLYLINE
  8
IMP_EC_PLATE_ISO-EDGE_CUTS_GBR
 66
1
 10
0.00
 20
0.00
 30
0.00
 40
0.20
 41
0.20
  0
VERTEX
  8
IMP_EC_PLATE_ISO-EDGE_CUTS_GBR
 10
160.99506
 20
-158.163332
 30
0.00
  0
VERTEX
  8
IMP_EC_PLATE_ISO-EDGE_CUTS_GBR
 10
161.99506
 20
-159.163332
 30
0.00
  0
SEQEND
  0
POLYLINE
  8
IMP_EC_PLATE_ISO-EDGE_CUTS_GBR
 66
1
 10
0.00
 20
0.00
 30
0.00
 40
0.20
 41
0.20
  0
VERTEX
  8
IMP_EC_PLATE_ISO-EDGE_CUTS_GBR
 10
148.39506
 20
-158.163332
 30
0.00
  0
VERTEX
  8
IMP_EC_PLATE_ISO-EDGE_CUTS_GBR
 10
160.99506
 20
-158.163332
 30
0.00
  0
SEQEND
  0
POLYLINE
  8
IMP_EC_PLATE_ISO-EDGE_CUTS_GBR
 66
1
 10
0.00
 20
0.00
 30
0.00
 40
0.20
 41
0.20
  0
VERTEX
  8
IMP_EC_PLATE_ISO-EDGE_CUTS_GBR
 10
128.39506
 20
-159.163332
 30
0.00
  0
VERTEX
  8
IMP_EC_PLATE_ISO-EDGE_CUTS_GBR
 10
129.39506
 20
-158.163332
 30
0.00
  0
SEQEND
  0
POLYLINE
  8
IMP_EC_PLATE_ISO-EDGE_CUTS_GBR
 66
1
 10
0.00
 20
0.00
 30
0.00
 40
0.20
 41
0.20
  0
VERTEX
  8
IMP_EC_PLATE_ISO-EDGE_CUTS_GBR
 10
128.39506
 20
-171.163332
 30
0.00
  0
VERTEX
  8
IMP_EC_PLATE_ISO-EDGE_CUTS_GBR
 10
128.39506
 20
-159.163332
 30
0.00
  0
SEQEND
  0
POLYLINE
  8
IMP_EC_PLATE_ISO-EDGE_CUTS_GBR
 66
1
 10
0.00
 20
0.00
 30
0.00
 40
0.20
 41
0.20
  0
VERTEX
  8
IMP_EC_PLATE_ISO-EDGE_CUTS_GBR
 10
129.39506
 20
-172.163332
 30
0.00
  0
VERTEX
  8
IMP_EC_PLATE_ISO-EDGE_CUTS_GBR
 10
128.39506
 20
-171.163332
 30
0.00
  0
SEQEND
  0
POLYLINE
  8
IMP_EC_PLATE_ISO-EDGE_CUTS_GBR
 66
1
 10
0.00
 20
0.00
 30
0.00
 40
0.20
 41
0.20
  0
VERTEX
  8
IMP_EC_PLATE_ISO-EDGE_CUTS_GBR
 10
141.99506
 20
-172.163332
 30
0.00
  0
VERTEX
  8
IMP_EC_PLATE_ISO-EDGE_CUTS_GBR
 10
129.39506
 20
-172.163332
 30
0.00
  0
SEQEND
  0
POLYLINE
  8
IMP_EC_PLATE_ISO-EDGE_CUTS_GBR
 66
1
 10
0.00
 20
0.00
 30
0.00
 40
0.20
 41
0.20
  0
VERTEX
  8
IMP_EC_PLATE_ISO-EDGE_CUTS_GBR
 10
142.99506
 20
-171.163332
 30
0.00
  0
VERTEX
  8
IMP_EC_PLATE_ISO-EDGE_CUTS_GBR
 10
141.99506
 20
-172.163332
 30
0.00
  0
SEQEND
  0
POLYLINE
  8
IMP_EC_PLATE_ISO-EDGE_CUTS_GBR
 66
1
 10
0.00
 20
0.00
 30
0.00
 40
0.20
 41
0.20
  0
VERTEX
  8
IMP_EC_PLATE_ISO-EDGE_CUTS_GBR
 10
142.99506
 20
-159.163332
 30
0.00
  0
VERTEX
  8
IMP_EC_PLATE_ISO-EDGE_CUTS_GBR
 10
142.99506
 20
-171.163332
 30
0.00
  0
SEQEND
  0
POLYLINE
  8
IMP_EC_PLATE_ISO-EDGE_CUTS_GBR
 66
1
 10
0.00
 20
0.00
 30
0.00
 40
0.20
 41
0.20
  0
VERTEX
  8
IMP_EC_PLATE_ISO-EDGE_CUTS_GBR
 10
141.99506
 20
-158.163332
 30
0.00
  0
VERTEX
  8
IMP_EC_PLATE_ISO-EDGE_CUTS_GBR
 10
142.99506
 20
-159.163332
 30
0.00
  0
SEQEND
  0
POLYLINE
  8
IMP_EC_PLATE_ISO-EDGE_CUTS_GBR
 66
1
 10
0.00
 20
0.00
 30
0.00
 40
0.20
 41
0.20
  0
VERTEX
  8
IMP_EC_PLATE_ISO-EDGE_CUTS_GBR
 10
129.39506
 20
-158.163332
 30
0.00
  0
VERTEX
  8
IMP_EC_PLATE_ISO-EDGE_CUTS_GBR
 10
141.99506
 20
-158.163332
 30
0.00
  0
SEQEND
  0
POLYLINE
  8
IMP_EC_PLATE_ISO-EDGE_CUTS_GBR
 66
1
 10
0.00
 20
0.00
 30
0.00
 40
0.20
 41
0.20
  0
VERTEX
  8
IMP_EC_PLATE_ISO-EDGE_CUTS_GBR
 10
109.39506
 20
-159.163332
 30
0.00
  0
VERTEX
  8
IMP_EC_PLATE_ISO-EDGE_CUTS_GBR
 10
110.39506
 20
-158.163332
 30
0.00
  0
SEQEND
  0
POLYLINE
  8
IMP_EC_PLATE_ISO-EDGE_CUTS_GBR
 66
1
 10
0.00
 20
0.00
 30
0.00
 40
0.20
 41
0.20
  0
VERTEX
  8
IMP_EC_PLATE_ISO-EDGE_CUTS_GBR
 10
109.39506
 20
-171.163332
 30
0.00
  0
VERTEX
  8
IMP_EC_PLATE_ISO-EDGE_CUTS_GBR
 10
109.39506
 20
-159.163332
 30
0.00
  0
SEQEND
  0
POLYLINE
  8
IMP_EC_PLATE_ISO-EDGE_CUTS_GBR
 66
1
 10
0.00
 20
0.00
 30
0.00
 40
0.20
 41
0.20
  0
VERTEX
  8
IMP_EC_PLATE_ISO-EDGE_CUTS_GBR
 10
110.39506
 20
-172.163332
 30
0.00
  0
VERTEX
  8
IMP_EC_PLATE_ISO-EDGE_CUTS_GBR
 10
109.39506
 20
-171.163332
 30
0.00
  0
SEQEND
  0
POLYLINE
  8
IMP_EC_PLATE_ISO-EDGE_CUTS_GBR
 66
1
 10
0.00
 20
0.00
 30
0.00
 40
0.20
 41
0.20
  0
VERTEX
  8
IMP_EC_PLATE_ISO-EDGE_CUTS_GBR
 10
122.99506
 20
-172.163332
 30
0.00
  0
VERTEX
  8
IMP_EC_PLATE_ISO-EDGE_CUTS_GBR
 10
110.39506
 20
-172.163332
 30
0.00
  0
SEQEND
  0
POLYLINE
  8
IMP_EC_PLATE_ISO-EDGE_CUTS_GBR
 66
1
 10
0.00
 20
0.00
 30
0.00
 40
0.20
 41
0.20
  0
VERTEX
  8
IMP_EC_PLATE_ISO-EDGE_CUTS_GBR
 10
123.99506
 20
-171.163332
 30
0.00
  0
VERTEX
  8
IMP_EC_PLATE_ISO-EDGE_CUTS_GBR
 10
122.99506
 20
-172.163332
 30
0.00
  0
SEQEND
  0
POLYLINE
  8
IMP_EC_PLATE_ISO-EDGE_CUTS_GBR
 66
1
 10
0.00
 20
0.00
 30
0.00
 40
0.20
 41
0.20
  0
VERTEX
  8
IMP_EC_PLATE_ISO-EDGE_CUTS_GBR
 10
123.99506
 20
-159.163332
 30
0.00
  0
VERTEX
  8
IMP_EC_PLATE_ISO-EDGE_CUTS_GBR
 10
123.99506
 20
-171.163332
 30
0.00
  0
SEQEND
  0
POLYLINE
  8
IMP_EC_PLATE_ISO-EDGE_CUTS_GBR
 66
1
 10
0.00
 20
0.00
 30
0.00
 40
0.20
 41
0.20
  0
VERTEX
  8
IMP_EC_PLATE_ISO-EDGE_CUTS_GBR
 10
122.99506
 20
-158.163332
 30
0.00
  0
VERTEX
  8
IMP_EC_PLATE_ISO-EDGE_CUTS_GBR
 10
123.99506
 20
-159.163332
 30
0.00
  0
SEQEND
  0
POLYLINE
  8
IMP_EC_PLATE_ISO-EDGE_CUTS_GBR
 66
1
 10
0.00
 20
0.00
 30
0.00
 40
0.20
 41
0.20
  0
VERTEX
  8
IMP_EC_PLATE_ISO-EDGE_CUTS_GBR
 10
110.39506
 20
-158.163332
 30
0.00
  0
VERTEX
  8
IMP_EC_PLATE_ISO-EDGE_CUTS_GBR
 10
122.99506
 20
-158.163332
 30
0.00
  0
SEQEND
  0
POLYLINE
  8
IMP_EC_PLATE_ISO-EDGE_CUTS_GBR
 66
1
 10
0.00
 20
0.00
 30
0.00
 40
0.20
 41
0.20
  0
VERTEX
  8
IMP_EC_PLATE_ISO-EDGE_CUTS_GBR
 10
90.39506
 20
-159.163332
 30
0.00
  0
VERTEX
  8
IMP_EC_PLATE_ISO-EDGE_CUTS_GBR
 10
91.39506
 20
-158.163332
 30
0.00
  0
SEQEND
  0
POLYLINE
  8
IMP_EC_PLATE_ISO-EDGE_CUTS_GBR
 66
1
 10
0.00
 20
0.00
 30
0.00
 40
0.20
 41
0.20
  0
VERTEX
  8
IMP_EC_PLATE_ISO-EDGE_CUTS_GBR
 10
90.39506
 20
-171.163332
 30
0.00
  0
VERTEX
  8
IMP_EC_PLATE_ISO-EDGE_CUTS_GBR
 10
90.39506
 20
-159.163332
 30
0.00
  0
SEQEND
  0
POLYLINE
  8
IMP_EC_PLATE_ISO-EDGE_CUTS_GBR
 66
1
 10
0.00
 20
0.00
 30
0.00
 40
0.20
 41
0.20
  0
VERTEX
  8
IMP_EC_PLATE_ISO-EDGE_CUTS_GBR
 10
91.39506
 20
-172.163332
 30
0.00
  0
VERTEX
  8
IMP_EC_PLATE_ISO-EDGE_CUTS_GBR
 10
90.39506
 20
-171.163332
 30
0.00
  0
SEQEND
  0
POLYLINE
  8
IMP_EC_PLATE_ISO-EDGE_CUTS_GBR
 66
1
 10
0.00
 20
0.00
 30
0.00
 40
0.20
 41
0.20
  0
VERTEX
  8
IMP_EC_PLATE_ISO-EDGE_CUTS_GBR
 10
103.99506
 20
-172.163332
 30
0.00
  0
VERTEX
  8
IMP_EC_PLATE_ISO-EDGE_CUTS_GBR
 10
91.39506
 20
-172.163332
 30
0.00
  0
SEQEND
  0
POLYLINE
  8
IMP_EC_PLATE_ISO-EDGE_CUTS_GBR
 66
1
 10
0.00
 20
0.00
 30
0.00
 40
0.20
 41
0.20
  0
VERTEX
  8
IMP_EC_PLATE_ISO-EDGE_CUTS_GBR
 10
104.99506
 20
-171.163332
 30
0.00
  0
VERTEX
  8
IMP_EC_PLATE_ISO-EDGE_CUTS_GBR
 10
103.99506
 20
-172.163332
 30
0.00
  0
SEQEND
  0
POLYLINE
  8
IMP_EC_PLATE_ISO-EDGE_CUTS_GBR
 66
1
 10
0.00
 20
0.00
 30
0.00
 40
0.20
 41
0.20
  0
VERTEX
  8
IMP_EC_PLATE_ISO-EDGE_CUTS_GBR
 10
104.99506
 20
-159.163332
 30
0.00
  0
VERTEX
  8
IMP_EC_PLATE_ISO-EDGE_CUTS_GBR
 10
104.99506
 20
-171.163332
 30
0.00
  0
SEQEND
  0
POLYLINE
  8
IMP_EC_PLATE_ISO-EDGE_CUTS_GBR
 66
1
 10
0.00
 20
0.00
 30
0.00
 40
0.20
 41
0.20
  0
VERTEX
  8
IMP_EC_PLATE_ISO-EDGE_CUTS_GBR
 10
103.99506
 20
-158.163332
 30
0.00
  0
VERTEX
  8
IMP_EC_PLATE_ISO-EDGE_CUTS_GBR
 10
104.99506
 20
-159.163332
 30
0.00
  0
SEQEND
  0
POLYLINE
  8
IMP_EC_PLATE_ISO-EDGE_CUTS_GBR
 66
1
 10
0.00
 20
0.00
 30
0.00
 40
0.20
 41
0.20
  0
VERTEX
  8
IMP_EC_PLATE_ISO-EDGE_CUTS_GBR
 10
91.39506
 20
-158.163332
 30
0.00
  0
VERTEX
  8
IMP_EC_PLATE_ISO-EDGE_CUTS_GBR
 10
103.99506
 20
-158.163332
 30
0.00
  0
SEQEND
  0
POLYLINE
  8
IMP_EC_PLATE_ISO-EDGE_CUTS_GBR
 66
1
 10
0.00
 20
0.00
 30
0.00
 40
0.20
 41
0.20
  0
VERTEX
  8
IMP_EC_PLATE_ISO-EDGE_CUTS_GBR
 10
213.98506
 20
-140.143332
 30
0.00
  0
VERTEX
  8
IMP_EC_PLATE_ISO-EDGE_CUTS_GBR
 10
214.98506
 20
-139.143332
 30
0.00
  0
SEQEND
  0
POLYLINE
  8
IMP_EC_PLATE_ISO-EDGE_CUTS_GBR
 66
1
 10
0.00
 20
0.00
 30
0.00
 40
0.20
 41
0.20
  0
VERTEX
  8
IMP_EC_PLATE_ISO-EDGE_CUTS_GBR
 10
213.98506
 20
-152.143332
 30
0.00
  0
VERTEX
  8
IMP_EC_PLATE_ISO-EDGE_CUTS_GBR
 10
213.98506
 20
-140.143332
 30
0.00
  0
SEQEND
  0
POLYLINE
  8
IMP_EC_PLATE_ISO-EDGE_CUTS_GBR
 66
1
 10
0.00
 20
0.00
 30
0.00
 40
0.20
 41
0.20
  0
VERTEX
  8
IMP_EC_PLATE_ISO-EDGE_CUTS_GBR
 10
214.98506
 20
-153.143332
 30
0.00
  0
VERTEX
  8
IMP_EC_PLATE_ISO-EDGE_CUTS_GBR
 10
213.98506
 20
-152.143332
 30
0.00
  0
SEQEND
  0
POLYLINE
  8
IMP_EC_PLATE_ISO-EDGE_CUTS_GBR
 66
1
 10
0.00
 20
0.00
 30
0.00
 40
0.20
 41
0.20
  0
VERTEX
  8
IMP_EC_PLATE_ISO-EDGE_CUTS_GBR
 10
227.58506
 20
-153.143332
 30
0.00
  0
VERTEX
  8
IMP_EC_PLATE_ISO-EDGE_CUTS_GBR
 10
214.98506
 20
-153.143332
 30
0.00
  0
SEQEND
  0
POLYLINE
  8
IMP_EC_PLATE_ISO-EDGE_CUTS_GBR
 66
1
 10
0.00
 20
0.00
 30
0.00
 40
0.20
 41
0.20
  0
VERTEX
  8
IMP_EC_PLATE_ISO-EDGE_CUTS_GBR
 10
228.58506
 20
-152.143332
 30
0.00
  0
VERTEX
  8
IMP_EC_PLATE_ISO-EDGE_CUTS_GBR
 10
227.58506
 20
-153.143332
 30
0.00
  0
SEQEND
  0
POLYLINE
  8
IMP_EC_PLATE_ISO-EDGE_CUTS_GBR
 66
1
 10
0.00
 20
0.00
 30
0.00
 40
0.20
 41
0.20
  0
VERTEX
  8
IMP_EC_PLATE_ISO-EDGE_CUTS_GBR
 10
228.58506
 20
-140.143332
 30
0.00
  0
VERTEX
  8
IMP_EC_PLATE_ISO-EDGE_CUTS_GBR
 10
228.58506
 20
-152.143332
 30
0.00
  0
SEQEND
  0
POLYLINE
  8
IMP_EC_PLATE_ISO-EDGE_CUTS_GBR
 66
1
 10
0.00
 20
0.00
 30
0.00
 40
0.20
 41
0.20
  0
VERTEX
  8
IMP_EC_PLATE_ISO-EDGE_CUTS_GBR
 10
227.58506
 20
-139.143332
 30
0.00
  0
VERTEX
  8
IMP_EC_PLATE_ISO-EDGE_CUTS_GBR
 10
228.58506
 20
-140.143332
 30
0.00
  0
SEQEND
  0
POLYLINE
  8
IMP_EC_PLATE_ISO-EDGE_CUTS_GBR
 66
1
 10
0.00
 20
0.00
 30
0.00
 40
0.20
 41
0.20
  0
VERTEX
  8
IMP_EC_PLATE_ISO-EDGE_CUTS_GBR
 10
214.98506
 20
-139.143332
 30
0.00
  0
VERTEX
  8
IMP_EC_PLATE_ISO-EDGE_CUTS_GBR
 10
227.58506
 20
-139.143332
 30
0.00
  0
SEQEND
  0
POLYLINE
  8
IMP_EC_PLATE_ISO-EDGE_CUTS_GBR
 66
1
 10
0.00
 20
0.00
 30
0.00
 40
0.20
 41
0.20
  0
VERTEX
  8
IMP_EC_PLATE_ISO-EDGE_CUTS_GBR
 10
194.96506
 20
-140.143332
 30
0.00
  0
VERTEX
  8
IMP_EC_PLATE_ISO-EDGE_CUTS_GBR
 10
195.96506
 20
-139.143332
 30
0.00
  0
SEQEND
  0
POLYLINE
  8
IMP_EC_PLATE_ISO-EDGE_CUTS_GBR
 66
1
 10
0.00
 20
0.00
 30
0.00
 40
0.20
 41
0.20
  0
VERTEX
  8
IMP_EC_PLATE_ISO-EDGE_CUTS_GBR
 10
194.96506
 20
-152.143332
 30
0.00
  0
VERTEX
  8
IMP_EC_PLATE_ISO-EDGE_CUTS_GBR
 10
194.96506
 20
-140.143332
 30
0.00
  0
SEQEND
  0
POLYLINE
  8
IMP_EC_PLATE_ISO-EDGE_CUTS_GBR
 66
1
 10
0.00
 20
0.00
 30
0.00
 40
0.20
 41
0.20
  0
VERTEX
  8
IMP_EC_PLATE_ISO-EDGE_CUTS_GBR
 10
195.96506
 20
-153.143332
 30
0.00
  0
VERTEX
  8
IMP_EC_PLATE_ISO-EDGE_CUTS_GBR
 10
194.96506
 20
-152.143332
 30
0.00
  0
SEQEND
  0
POLYLINE
  8
IMP_EC_PLATE_ISO-EDGE_CUTS_GBR
 66
1
 10
0.00
 20
0.00
 30
0.00
 40
0.20
 41
0.20
  0
VERTEX
  8
IMP_EC_PLATE_ISO-EDGE_CUTS_GBR
 10
208.56506
 20
-153.143332
 30
0.00
  0
VERTEX
  8
IMP_EC_PLATE_ISO-EDGE_CUTS_GBR
 10
195.96506
 20
-153.143332
 30
0.00
  0
SEQEND
  0
POLYLINE
  8
IMP_EC_PLATE_ISO-EDGE_CUTS_GBR
 66
1
 10
0.00
 20
0.00
 30
0.00
 40
0.20
 41
0.20
  0
VERTEX
  8
IMP_EC_PLATE_ISO-EDGE_CUTS_GBR
 10
209.56506
 20
-152.143332
 30
0.00
  0
VERTEX
  8
IMP_EC_PLATE_ISO-EDGE_CUTS_GBR
 10
208.56506
 20
-153.143332
 30
0.00
  0
SEQEND
  0
POLYLINE
  8
IMP_EC_PLATE_ISO-EDGE_CUTS_GBR
 66
1
 10
0.00
 20
0.00
 30
0.00
 40
0.20
 41
0.20
  0
VERTEX
  8
IMP_EC_PLATE_ISO-EDGE_CUTS_GBR
 10
209.56506
 20
-140.143332
 30
0.00
  0
VERTEX
  8
IMP_EC_PLATE_ISO-EDGE_CUTS_GBR
 10
209.56506
 20
-152.143332
 30
0.00
  0
SEQEND
  0
POLYLINE
  8
IMP_EC_PLATE_ISO-EDGE_CUTS_GBR
 66
1
 10
0.00
 20
0.00
 30
0.00
 40
0.20
 41
0.20
  0
VERTEX
  8
IMP_EC_PLATE_ISO-EDGE_CUTS_GBR
 10
208.56506
 20
-139.143332
 30
0.00
  0
VERTEX
  8
IMP_EC_PLATE_ISO-EDGE_CUTS_GBR
 10
209.56506
 20
-140.143332
 30
0.00
  0
SEQEND
  0
POLYLINE
  8
IMP_EC_PLATE_ISO-EDGE_CUTS_GBR
 66
1
 10
0.00
 20
0.00
 30
0.00
 40
0.20
 41
0.20
  0
VERTEX
  8
IMP_EC_PLATE_ISO-EDGE_CUTS_GBR
 10
195.96506
 20
-139.143332
 30
0.00
  0
VERTEX
  8
IMP_EC_PLATE_ISO-EDGE_CUTS_GBR
 10
208.56506
 20
-139.143332
 30
0.00
  0
SEQEND
  0
POLYLINE
  8
IMP_EC_PLATE_ISO-EDGE_CUTS_GBR
 66
1
 10
0.00
 20
0.00
 30
0.00
 40
0.20
 41
0.20
  0
VERTEX
  8
IMP_EC_PLATE_ISO-EDGE_CUTS_GBR
 10
175.94506
 20
-140.143332
 30
0.00
  0
VERTEX
  8
IMP_EC_PLATE_ISO-EDGE_CUTS_GBR
 10
176.94506
 20
-139.143332
 30
0.00
  0
SEQEND
  0
POLYLINE
  8
IMP_EC_PLATE_ISO-EDGE_CUTS_GBR
 66
1
 10
0.00
 20
0.00
 30
0.00
 40
0.20
 41
0.20
  0
VERTEX
  8
IMP_EC_PLATE_ISO-EDGE_CUTS_GBR
 10
175.94506
 20
-152.143332
 30
0.00
  0
VERTEX
  8
IMP_EC_PLATE_ISO-EDGE_CUTS_GBR
 10
175.94506
 20
-140.143332
 30
0.00
  0
SEQEND
  0
POLYLINE
  8
IMP_EC_PLATE_ISO-EDGE_CUTS_GBR
 66
1
 10
0.00
 20
0.00
 30
0.00
 40
0.20
 41
0.20
  0
VERTEX
  8
IMP_EC_PLATE_ISO-EDGE_CUTS_GBR
 10
176.94506
 20
-153.143332
 30
0.00
  0
VERTEX
  8
IMP_EC_PLATE_ISO-EDGE_CUTS_GBR
 10
175.94506
 20
-152.143332
 30
0.00
  0
SEQEND
  0
POLYLINE
  8
IMP_EC_PLATE_ISO-EDGE_CUTS_GBR
 66
1
 10
0.00
 20
0.00
 30
0.00
 40
0.20
 41
0.20
  0
VERTEX
  8
IMP_EC_PLATE_ISO-EDGE_CUTS_GBR
 10
189.54506
 20
-153.143332
 30
0.00
  0
VERTEX
  8
IMP_EC_PLATE_ISO-EDGE_CUTS_GBR
 10
176.94506
 20
-153.143332
 30
0.00
  0
SEQEND
  0
POLYLINE
  8
IMP_EC_PLATE_ISO-EDGE_CUTS_GBR
 66
1
 10
0.00
 20
0.00
 30
0.00
 40
0.20
 41
0.20
  0
VERTEX
  8
IMP_EC_PLATE_ISO-EDGE_CUTS_GBR
 10
190.54506
 20
-152.143332
 30
0.00
  0
VERTEX
  8
IMP_EC_PLATE_ISO-EDGE_CUTS_GBR
 10
189.54506
 20
-153.143332
 30
0.00
  0
SEQEND
  0
POLYLINE
  8
IMP_EC_PLATE_ISO-EDGE_CUTS_GBR
 66
1
 10
0.00
 20
0.00
 30
0.00
 40
0.20
 41
0.20
  0
VERTEX
  8
IMP_EC_PLATE_ISO-EDGE_CUTS_GBR
 10
190.54506
 20
-140.143332
 30
0.00
  0
VERTEX
  8
IMP_EC_PLATE_ISO-EDGE_CUTS_GBR
 10
190.54506
 20
-152.143332
 30
0.00
  0
SEQEND
  0
POLYLINE
  8
IMP_EC_PLATE_ISO-EDGE_CUTS_GBR
 66
1
 10
0.00
 20
0.00
 30
0.00
 40
0.20
 41
0.20
  0
VERTEX
  8
IMP_EC_PLATE_ISO-EDGE_CUTS_GBR
 10
189.54506
 20
-139.143332
 30
0.00
  0
VERTEX
  8
IMP_EC_PLATE_ISO-EDGE_CUTS_GBR
 10
190.54506
 20
-140.143332
 30
0.00
  0
SEQEND
  0
POLYLINE
  8
IMP_EC_PLATE_ISO-EDGE_CUTS_GBR
 66
1
 10
0.00
 20
0.00
 30
0.00
 40
0.20
 41
0.20
  0
VERTEX
  8
IMP_EC_PLATE_ISO-EDGE_CUTS_GBR
 10
176.94506
 20
-139.143332
 30
0.00
  0
VERTEX
  8
IMP_EC_PLATE_ISO-EDGE_CUTS_GBR
 10
189.54506
 20
-139.143332
 30
0.00
  0
SEQEND
  0
POLYLINE
  8
IMP_EC_PLATE_ISO-EDGE_CUTS_GBR
 66
1
 10
0.00
 20
0.00
 30
0.00
 40
0.20
 41
0.20
  0
VERTEX
  8
IMP_EC_PLATE_ISO-EDGE_CUTS_GBR
 10
156.94506
 20
-140.143332
 30
0.00
  0
VERTEX
  8
IMP_EC_PLATE_ISO-EDGE_CUTS_GBR
 10
157.94506
 20
-139.143332
 30
0.00
  0
SEQEND
  0
POLYLINE
  8
IMP_EC_PLATE_ISO-EDGE_CUTS_GBR
 66
1
 10
0.00
 20
0.00
 30
0.00
 40
0.20
 41
0.20
  0
VERTEX
  8
IMP_EC_PLATE_ISO-EDGE_CUTS_GBR
 10
156.94506
 20
-152.143332
 30
0.00
  0
VERTEX
  8
IMP_EC_PLATE_ISO-EDGE_CUTS_GBR
 10
156.94506
 20
-140.143332
 30
0.00
  0
SEQEND
  0
POLYLINE
  8
IMP_EC_PLATE_ISO-EDGE_CUTS_GBR
 66
1
 10
0.00
 20
0.00
 30
0.00
 40
0.20
 41
0.20
  0
VERTEX
  8
IMP_EC_PLATE_ISO-EDGE_CUTS_GBR
 10
157.94506
 20
-153.143332
 30
0.00
  0
VERTEX
  8
IMP_EC_PLATE_ISO-EDGE_CUTS_GBR
 10
156.94506
 20
-152.143332
 30
0.00
  0
SEQEND
  0
POLYLINE
  8
IMP_EC_PLATE_ISO-EDGE_CUTS_GBR
 66
1
 10
0.00
 20
0.00
 30
0.00
 40
0.20
 41
0.20
  0
VERTEX
  8
IMP_EC_PLATE_ISO-EDGE_CUTS_GBR
 10
170.54506
 20
-153.143332
 30
0.00
  0
VERTEX
  8
IMP_EC_PLATE_ISO-EDGE_CUTS_GBR
 10
157.94506
 20
-153.143332
 30
0.00
  0
SEQEND
  0
POLYLINE
  8
IMP_EC_PLATE_ISO-EDGE_CUTS_GBR
 66
1
 10
0.00
 20
0.00
 30
0.00
 40
0.20
 41
0.20
  0
VERTEX
  8
IMP_EC_PLATE_ISO-EDGE_CUTS_GBR
 10
171.54506
 20
-152.143332
 30
0.00
  0
VERTEX
  8
IMP_EC_PLATE_ISO-EDGE_CUTS_GBR
 10
170.54506
 20
-153.143332
 30
0.00
  0
SEQEND
  0
POLYLINE
  8
IMP_EC_PLATE_ISO-EDGE_CUTS_GBR
 66
1
 10
0.00
 20
0.00
 30
0.00
 40
0.20
 41
0.20
  0
VERTEX
  8
IMP_EC_PLATE_ISO-EDGE_CUTS_GBR
 10
171.54506
 20
-140.143332
 30
0.00
  0
VERTEX
  8
IMP_EC_PLATE_ISO-EDGE_CUTS_GBR
 10
171.54506
 20
-152.143332
 30
0.00
  0
SEQEND
  0
POLYLINE
  8
IMP_EC_PLATE_ISO-EDGE_CUTS_GBR
 66
1
 10
0.00
 20
0.00
 30
0.00
 40
0.20
 41
0.20
  0
VERTEX
  8
IMP_EC_PLATE_ISO-EDGE_CUTS_GBR
 10
170.54506
 20
-139.143332
 30
0.00
  0
VERTEX
  8
IMP_EC_PLATE_ISO-EDGE_CUTS_GBR
 10
171.54506
 20
-140.143332
 30
0.00
  0
SEQEND
  0
POLYLINE
  8
IMP_EC_PLATE_ISO-EDGE_CUTS_GBR
 66
1
 10
0.00
 20
0.00
 30
0.00
 40
0.20
 41
0.20
  0
VERTEX
  8
IMP_EC_PLATE_ISO-EDGE_CUTS_GBR
 10
157.94506
 20
-139.143332
 30
0.00
  0
VERTEX
  8
IMP_EC_PLATE_ISO-EDGE_CUTS_GBR
 10
170.54506
 20
-139.143332
 30
0.00
  0
SEQEND
  0
POLYLINE
  8
IMP_EC_PLATE_ISO-EDGE_CUTS_GBR
 66
1
 10
0.00
 20
0.00
 30
0.00
 40
0.20
 41
0.20
  0
VERTEX
  8
IMP_EC_PLATE_ISO-EDGE_CUTS_GBR
 10
137.94506
 20
-140.143332
 30
0.00
  0
VERTEX
  8
IMP_EC_PLATE_ISO-EDGE_CUTS_GBR
 10
138.94506
 20
-139.143332
 30
0.00
  0
SEQEND
  0
POLYLINE
  8
IMP_EC_PLATE_ISO-EDGE_CUTS_GBR
 66
1
 10
0.00
 20
0.00
 30
0.00
 40
0.20
 41
0.20
  0
VERTEX
  8
IMP_EC_PLATE_ISO-EDGE_CUTS_GBR
 10
137.94506
 20
-152.143332
 30
0.00
  0
VERTEX
  8
IMP_EC_PLATE_ISO-EDGE_CUTS_GBR
 10
137.94506
 20
-140.143332
 30
0.00
  0
SEQEND
  0
POLYLINE
  8
IMP_EC_PLATE_ISO-EDGE_CUTS_GBR
 66
1
 10
0.00
 20
0.00
 30
0.00
 40
0.20
 41
0.20
  0
VERTEX
  8
IMP_EC_PLATE_ISO-EDGE_CUTS_GBR
 10
138.94506
 20
-153.143332
 30
0.00
  0
VERTEX
  8
IMP_EC_PLATE_ISO-EDGE_CUTS_GBR
 10
137.94506
 20
-152.143332
 30
0.00
  0
SEQEND
  0
POLYLINE
  8
IMP_EC_PLATE_ISO-EDGE_CUTS_GBR
 66
1
 10
0.00
 20
0.00
 30
0.00
 40
0.20
 41
0.20
  0
VERTEX
  8
IMP_EC_PLATE_ISO-EDGE_CUTS_GBR
 10
151.54506
 20
-153.143332
 30
0.00
  0
VERTEX
  8
IMP_EC_PLATE_ISO-EDGE_CUTS_GBR
 10
138.94506
 20
-153.143332
 30
0.00
  0
SEQEND
  0
POLYLINE
  8
IMP_EC_PLATE_ISO-EDGE_CUTS_GBR
 66
1
 10
0.00
 20
0.00
 30
0.00
 40
0.20
 41
0.20
  0
VERTEX
  8
IMP_EC_PLATE_ISO-EDGE_CUTS_GBR
 10
152.54506
 20
-152.143332
 30
0.00
  0
VERTEX
  8
IMP_EC_PLATE_ISO-EDGE_CUTS_GBR
 10
151.54506
 20
-153.143332
 30
0.00
  0
SEQEND
  0
POLYLINE
  8
IMP_EC_PLATE_ISO-EDGE_CUTS_GBR
 66
1
 10
0.00
 20
0.00
 30
0.00
 40
0.20
 41
0.20
  0
VERTEX
  8
IMP_EC_PLATE_ISO-EDGE_CUTS_GBR
 10
152.54506
 20
-140.143332
 30
0.00
  0
VERTEX
  8
IMP_EC_PLATE_ISO-EDGE_CUTS_GBR
 10
152.54506
 20
-152.143332
 30
0.00
  0
SEQEND
  0
POLYLINE
  8
IMP_EC_PLATE_ISO-EDGE_CUTS_GBR
 66
1
 10
0.00
 20
0.00
 30
0.00
 40
0.20
 41
0.20
  0
VERTEX
  8
IMP_EC_PLATE_ISO-EDGE_CUTS_GBR
 10
151.54506
 20
-139.143332
 30
0.00
  0
VERTEX
  8
IMP_EC_PLATE_ISO-EDGE_CUTS_GBR
 10
152.54506
 20
-140.143332
 30
0.00
  0
SEQEND
  0
POLYLINE
  8
IMP_EC_PLATE_ISO-EDGE_CUTS_GBR
 66
1
 10
0.00
 20
0.00
 30
0.00
 40
0.20
 41
0.20
  0
VERTEX
  8
IMP_EC_PLATE_ISO-EDGE_CUTS_GBR
 10
138.94506
 20
-139.143332
 30
0.00
  0
VERTEX
  8
IMP_EC_PLATE_ISO-EDGE_CUTS_GBR
 10
151.54506
 20
-139.143332
 30
0.00
  0
SEQEND
  0
POLYLINE
  8
IMP_EC_PLATE_ISO-EDGE_CUTS_GBR
 66
1
 10
0.00
 20
0.00
 30
0.00
 40
0.20
 41
0.20
  0
VERTEX
  8
IMP_EC_PLATE_ISO-EDGE_CUTS_GBR
 10
118.94506
 20
-140.143332
 30
0.00
  0
VERTEX
  8
IMP_EC_PLATE_ISO-EDGE_CUTS_GBR
 10
119.94506
 20
-139.143332
 30
0.00
  0
SEQEND
  0
POLYLINE
  8
IMP_EC_PLATE_ISO-EDGE_CUTS_GBR
 66
1
 10
0.00
 20
0.00
 30
0.00
 40
0.20
 41
0.20
  0
VERTEX
  8
IMP_EC_PLATE_ISO-EDGE_CUTS_GBR
 10
118.94506
 20
-152.143332
 30
0.00
  0
VERTEX
  8
IMP_EC_PLATE_ISO-EDGE_CUTS_GBR
 10
118.94506
 20
-140.143332
 30
0.00
  0
SEQEND
  0
POLYLINE
  8
IMP_EC_PLATE_ISO-EDGE_CUTS_GBR
 66
1
 10
0.00
 20
0.00
 30
0.00
 40
0.20
 41
0.20
  0
VERTEX
  8
IMP_EC_PLATE_ISO-EDGE_CUTS_GBR
 10
119.94506
 20
-153.143332
 30
0.00
  0
VERTEX
  8
IMP_EC_PLATE_ISO-EDGE_CUTS_GBR
 10
118.94506
 20
-152.143332
 30
0.00
  0
SEQEND
  0
POLYLINE
  8
IMP_EC_PLATE_ISO-EDGE_CUTS_GBR
 66
1
 10
0.00
 20
0.00
 30
0.00
 40
0.20
 41
0.20
  0
VERTEX
  8
IMP_EC_PLATE_ISO-EDGE_CUTS_GBR
 10
132.54506
 20
-153.143332
 30
0.00
  0
VERTEX
  8
IMP_EC_PLATE_ISO-EDGE_CUTS_GBR
 10
119.94506
 20
-153.143332
 30
0.00
  0
SEQEND
  0
POLYLINE
  8
IMP_EC_PLATE_ISO-EDGE_CUTS_GBR
 66
1
 10
0.00
 20
0.00
 30
0.00
 40
0.20
 41
0.20
  0
VERTEX
  8
IMP_EC_PLATE_ISO-EDGE_CUTS_GBR
 10
133.54506
 20
-152.143332
 30
0.00
  0
VERTEX
  8
IMP_EC_PLATE_ISO-EDGE_CUTS_GBR
 10
132.54506
 20
-153.143332
 30
0.00
  0
SEQEND
  0
POLYLINE
  8
IMP_EC_PLATE_ISO-EDGE_CUTS_GBR
 66
1
 10
0.00
 20
0.00
 30
0.00
 40
0.20
 41
0.20
  0
VERTEX
  8
IMP_EC_PLATE_ISO-EDGE_CUTS_GBR
 10
133.54506
 20
-140.143332
 30
0.00
  0
VERTEX
  8
IMP_EC_PLATE_ISO-EDGE_CUTS_GBR
 10
133.54506
 20
-152.143332
 30
0.00
  0
SEQEND
  0
POLYLINE
  8
IMP_EC_PLATE_ISO-EDGE_CUTS_GBR
 66
1
 10
0.00
 20
0.00
 30
0.00
 40
0.20
 41
0.20
  0
VERTEX
  8
IMP_EC_PLATE_ISO-EDGE_CUTS_GBR
 10
132.54506
 20
-139.143332
 30
0.00
  0
VERTEX
  8
IMP_EC_PLATE_ISO-EDGE_CUTS_GBR
 10
133.54506
 20
-140.143332
 30
0.00
  0
SEQEND
  0
POLYLINE
  8
IMP_EC_PLATE_ISO-EDGE_CUTS_GBR
 66
1
 10
0.00
 20
0.00
 30
0.00
 40
0.20
 41
0.20
  0
VERTEX
  8
IMP_EC_PLATE_ISO-EDGE_CUTS_GBR
 10
119.94506
 20
-139.143332
 30
0.00
  0
VERTEX
  8
IMP_EC_PLATE_ISO-EDGE_CUTS_GBR
 10
132.54506
 20
-139.143332
 30
0.00
  0
SEQEND
  0
POLYLINE
  8
IMP_EC_PLATE_ISO-EDGE_CUTS_GBR
 66
1
 10
0.00
 20
0.00
 30
0.00
 40
0.20
 41
0.20
  0
VERTEX
  8
IMP_EC_PLATE_ISO-EDGE_CUTS_GBR
 10
99.94506
 20
-140.143332
 30
0.00
  0
VERTEX
  8
IMP_EC_PLATE_ISO-EDGE_CUTS_GBR
 10
100.94506
 20
-139.143332
 30
0.00
  0
SEQEND
  0
POLYLINE
  8
IMP_EC_PLATE_ISO-EDGE_CUTS_GBR
 66
1
 10
0.00
 20
0.00
 30
0.00
 40
0.20
 41
0.20
  0
VERTEX
  8
IMP_EC_PLATE_ISO-EDGE_CUTS_GBR
 10
99.94506
 20
-152.143332
 30
0.00
  0
VERTEX
  8
IMP_EC_PLATE_ISO-EDGE_CUTS_GBR
 10
99.94506
 20
-140.143332
 30
0.00
  0
SEQEND
  0
POLYLINE
  8
IMP_EC_PLATE_ISO-EDGE_CUTS_GBR
 66
1
 10
0.00
 20
0.00
 30
0.00
 40
0.20
 41
0.20
  0
VERTEX
  8
IMP_EC_PLATE_ISO-EDGE_CUTS_GBR
 10
100.94506
 20
-153.143332
 30
0.00
  0
VERTEX
  8
IMP_EC_PLATE_ISO-EDGE_CUTS_GBR
 10
99.94506
 20
-152.143332
 30
0.00
  0
SEQEND
  0
POLYLINE
  8
IMP_EC_PLATE_ISO-EDGE_CUTS_GBR
 66
1
 10
0.00
 20
0.00
 30
0.00
 40
0.20
 41
0.20
  0
VERTEX
  8
IMP_EC_PLATE_ISO-EDGE_CUTS_GBR
 10
113.54506
 20
-153.143332
 30
0.00
  0
VERTEX
  8
IMP_EC_PLATE_ISO-EDGE_CUTS_GBR
 10
100.94506
 20
-153.143332
 30
0.00
  0
SEQEND
  0
POLYLINE
  8
IMP_EC_PLATE_ISO-EDGE_CUTS_GBR
 66
1
 10
0.00
 20
0.00
 30
0.00
 40
0.20
 41
0.20
  0
VERTEX
  8
IMP_EC_PLATE_ISO-EDGE_CUTS_GBR
 10
114.54506
 20
-152.143332
 30
0.00
  0
VERTEX
  8
IMP_EC_PLATE_ISO-EDGE_CUTS_GBR
 10
113.54506
 20
-153.143332
 30
0.00
  0
SEQEND
  0
POLYLINE
  8
IMP_EC_PLATE_ISO-EDGE_CUTS_GBR
 66
1
 10
0.00
 20
0.00
 30
0.00
 40
0.20
 41
0.20
  0
VERTEX
  8
IMP_EC_PLATE_ISO-EDGE_CUTS_GBR
 10
114.54506
 20
-140.143332
 30
0.00
  0
VERTEX
  8
IMP_EC_PLATE_ISO-EDGE_CUTS_GBR
 10
114.54506
 20
-152.143332
 30
0.00
  0
SEQEND
  0
POLYLINE
  8
IMP_EC_PLATE_ISO-EDGE_CUTS_GBR
 66
1
 10
0.00
 20
0.00
 30
0.00
 40
0.20
 41
0.20
  0
VERTEX
  8
IMP_EC_PLATE_ISO-EDGE_CUTS_GBR
 10
113.54506
 20
-139.143332
 30
0.00
  0
VERTEX
  8
IMP_EC_PLATE_ISO-EDGE_CUTS_GBR
 10
114.54506
 20
-140.143332
 30
0.00
  0
SEQEND
  0
POLYLINE
  8
IMP_EC_PLATE_ISO-EDGE_CUTS_GBR
 66
1
 10
0.00
 20
0.00
 30
0.00
 40
0.20
 41
0.20
  0
VERTEX
  8
IMP_EC_PLATE_ISO-EDGE_CUTS_GBR
 10
100.94506
 20
-139.143332
 30
0.00
  0
VERTEX
  8
IMP_EC_PLATE_ISO-EDGE_CUTS_GBR
 10
113.54506
 20
-139.143332
 30
0.00
  0
SEQEND
  0
POLYLINE
  8
IMP_EC_PLATE_ISO-EDGE_CUTS_GBR
 66
1
 10
0.00
 20
0.00
 30
0.00
 40
0.20
 41
0.20
  0
VERTEX
  8
IMP_EC_PLATE_ISO-EDGE_CUTS_GBR
 10
80.94506
 20
-140.143332
 30
0.00
  0
VERTEX
  8
IMP_EC_PLATE_ISO-EDGE_CUTS_GBR
 10
81.94506
 20
-139.143332
 30
0.00
  0
SEQEND
  0
POLYLINE
  8
IMP_EC_PLATE_ISO-EDGE_CUTS_GBR
 66
1
 10
0.00
 20
0.00
 30
0.00
 40
0.20
 41
0.20
  0
VERTEX
  8
IMP_EC_PLATE_ISO-EDGE_CUTS_GBR
 10
80.94506
 20
-152.143332
 30
0.00
  0
VERTEX
  8
IMP_EC_PLATE_ISO-EDGE_CUTS_GBR
 10
80.94506
 20
-140.143332
 30
0.00
  0
SEQEND
  0
POLYLINE
  8
IMP_EC_PLATE_ISO-EDGE_CUTS_GBR
 66
1
 10
0.00
 20
0.00
 30
0.00
 40
0.20
 41
0.20
  0
VERTEX
  8
IMP_EC_PLATE_ISO-EDGE_CUTS_GBR
 10
81.94506
 20
-153.143332
 30
0.00
  0
VERTEX
  8
IMP_EC_PLATE_ISO-EDGE_CUTS_GBR
 10
80.94506
 20
-152.143332
 30
0.00
  0
SEQEND
  0
POLYLINE
  8
IMP_EC_PLATE_ISO-EDGE_CUTS_GBR
 66
1
 10
0.00
 20
0.00
 30
0.00
 40
0.20
 41
0.20
  0
VERTEX
  8
IMP_EC_PLATE_ISO-EDGE_CUTS_GBR
 10
94.54506
 20
-153.143332
 30
0.00
  0
VERTEX
  8
IMP_EC_PLATE_ISO-EDGE_CUTS_GBR
 10
81.94506
 20
-153.143332
 30
0.00
  0
SEQEND
  0
POLYLINE
  8
IMP_EC_PLATE_ISO-EDGE_CUTS_GBR
 66
1
 10
0.00
 20
0.00
 30
0.00
 40
0.20
 41
0.20
  0
VERTEX
  8
IMP_EC_PLATE_ISO-EDGE_CUTS_GBR
 10
95.54506
 20
-152.143332
 30
0.00
  0
VERTEX
  8
IMP_EC_PLATE_ISO-EDGE_CUTS_GBR
 10
94.54506
 20
-153.143332
 30
0.00
  0
SEQEND
  0
POLYLINE
  8
IMP_EC_PLATE_ISO-EDGE_CUTS_GBR
 66
1
 10
0.00
 20
0.00
 30
0.00
 40
0.20
 41
0.20
  0
VERTEX
  8
IMP_EC_PLATE_ISO-EDGE_CUTS_GBR
 10
95.54506
 20
-140.143332
 30
0.00
  0
VERTEX
  8
IMP_EC_PLATE_ISO-EDGE_CUTS_GBR
 10
95.54506
 20
-152.143332
 30
0.00
  0
SEQEND
  0
POLYLINE
  8
IMP_EC_PLATE_ISO-EDGE_CUTS_GBR
 66
1
 10
0.00
 20
0.00
 30
0.00
 40
0.20
 41
0.20
  0
VERTEX
  8
IMP_EC_PLATE_ISO-EDGE_CUTS_GBR
 10
94.54506
 20
-139.143332
 30
0.00
  0
VERTEX
  8
IMP_EC_PLATE_ISO-EDGE_CUTS_GBR
 10
95.54506
 20
-140.143332
 30
0.00
  0
SEQEND
  0
POLYLINE
  8
IMP_EC_PLATE_ISO-EDGE_CUTS_GBR
 66
1
 10
0.00
 20
0.00
 30
0.00
 40
0.20
 41
0.20
  0
VERTEX
  8
IMP_EC_PLATE_ISO-EDGE_CUTS_GBR
 10
81.94506
 20
-139.143332
 30
0.00
  0
VERTEX
  8
IMP_EC_PLATE_ISO-EDGE_CUTS_GBR
 10
94.54506
 20
-139.143332
 30
0.00
  0
SEQEND
  0
POLYLINE
  8
IMP_EC_PLATE_ISO-EDGE_CUTS_GBR
 66
1
 10
0.00
 20
0.00
 30
0.00
 40
0.20
 41
0.20
  0
VERTEX
  8
IMP_EC_PLATE_ISO-EDGE_CUTS_GBR
 10
209.19506
 20
-121.123332
 30
0.00
  0
VERTEX
  8
IMP_EC_PLATE_ISO-EDGE_CUTS_GBR
 10
210.19506
 20
-120.123332
 30
0.00
  0
SEQEND
  0
POLYLINE
  8
IMP_EC_PLATE_ISO-EDGE_CUTS_GBR
 66
1
 10
0.00
 20
0.00
 30
0.00
 40
0.20
 41
0.20
  0
VERTEX
  8
IMP_EC_PLATE_ISO-EDGE_CUTS_GBR
 10
209.19506
 20
-133.123332
 30
0.00
  0
VERTEX
  8
IMP_EC_PLATE_ISO-EDGE_CUTS_GBR
 10
209.19506
 20
-121.123332
 30
0.00
  0
SEQEND
  0
POLYLINE
  8
IMP_EC_PLATE_ISO-EDGE_CUTS_GBR
 66
1
 10
0.00
 20
0.00
 30
0.00
 40
0.20
 41
0.20
  0
VERTEX
  8
IMP_EC_PLATE_ISO-EDGE_CUTS_GBR
 10
210.19506
 20
-134.123332
 30
0.00
  0
VERTEX
  8
IMP_EC_PLATE_ISO-EDGE_CUTS_GBR
 10
209.19506
 20
-133.123332
 30
0.00
  0
SEQEND
  0
POLYLINE
  8
IMP_EC_PLATE_ISO-EDGE_CUTS_GBR
 66
1
 10
0.00
 20
0.00
 30
0.00
 40
0.20
 41
0.20
  0
VERTEX
  8
IMP_EC_PLATE_ISO-EDGE_CUTS_GBR
 10
222.79506
 20
-134.123332
 30
0.00
  0
VERTEX
  8
IMP_EC_PLATE_ISO-EDGE_CUTS_GBR
 10
210.19506
 20
-134.123332
 30
0.00
  0
SEQEND
  0
POLYLINE
  8
IMP_EC_PLATE_ISO-EDGE_CUTS_GBR
 66
1
 10
0.00
 20
0.00
 30
0.00
 40
0.20
 41
0.20
  0
VERTEX
  8
IMP_EC_PLATE_ISO-EDGE_CUTS_GBR
 10
223.79506
 20
-133.123332
 30
0.00
  0
VERTEX
  8
IMP_EC_PLATE_ISO-EDGE_CUTS_GBR
 10
222.79506
 20
-134.123332
 30
0.00
  0
SEQEND
  0
POLYLINE
  8
IMP_EC_PLATE_ISO-EDGE_CUTS_GBR
 66
1
 10
0.00
 20
0.00
 30
0.00
 40
0.20
 41
0.20
  0
VERTEX
  8
IMP_EC_PLATE_ISO-EDGE_CUTS_GBR
 10
223.79506
 20
-121.123332
 30
0.00
  0
VERTEX
  8
IMP_EC_PLATE_ISO-EDGE_CUTS_GBR
 10
223.79506
 20
-133.123332
 30
0.00
  0
SEQEND
  0
POLYLINE
  8
IMP_EC_PLATE_ISO-EDGE_CUTS_GBR
 66
1
 10
0.00
 20
0.00
 30
0.00
 40
0.20
 41
0.20
  0
VERTEX
  8
IMP_EC_PLATE_ISO-EDGE_CUTS_GBR
 10
222.79506
 20
-120.123332
 30
0.00
  0
VERTEX
  8
IMP_EC_PLATE_ISO-EDGE_CUTS_GBR
 10
223.79506
 20
-121.123332
 30
0.00
  0
SEQEND
  0
POLYLINE
  8
IMP_EC_PLATE_ISO-EDGE_CUTS_GBR
 66
1
 10
0.00
 20
0.00
 30
0.00
 40
0.20
 41
0.20
  0
VERTEX
  8
IMP_EC_PLATE_ISO-EDGE_CUTS_GBR
 10
210.19506
 20
-120.123332
 30
0.00
  0
VERTEX
  8
IMP_EC_PLATE_ISO-EDGE_CUTS_GBR
 10
222.79506
 20
-120.123332
 30
0.00
  0
SEQEND
  0
POLYLINE
  8
IMP_EC_PLATE_ISO-EDGE_CUTS_GBR
 66
1
 10
0.00
 20
0.00
 30
0.00
 40
0.20
 41
0.20
  0
VERTEX
  8
IMP_EC_PLATE_ISO-EDGE_CUTS_GBR
 10
190.17506
 20
-121.123332
 30
0.00
  0
VERTEX
  8
IMP_EC_PLATE_ISO-EDGE_CUTS_GBR
 10
191.17506
 20
-120.123332
 30
0.00
  0
SEQEND
  0
POLYLINE
  8
IMP_EC_PLATE_ISO-EDGE_CUTS_GBR
 66
1
 10
0.00
 20
0.00
 30
0.00
 40
0.20
 41
0.20
  0
VERTEX
  8
IMP_EC_PLATE_ISO-EDGE_CUTS_GBR
 10
190.17506
 20
-133.123332
 30
0.00
  0
VERTEX
  8
IMP_EC_PLATE_ISO-EDGE_CUTS_GBR
 10
190.17506
 20
-121.123332
 30
0.00
  0
SEQEND
  0
POLYLINE
  8
IMP_EC_PLATE_ISO-EDGE_CUTS_GBR
 66
1
 10
0.00
 20
0.00
 30
0.00
 40
0.20
 41
0.20
  0
VERTEX
  8
IMP_EC_PLATE_ISO-EDGE_CUTS_GBR
 10
191.17506
 20
-134.123332
 30
0.00
  0
VERTEX
  8
IMP_EC_PLATE_ISO-EDGE_CUTS_GBR
 10
190.17506
 20
-133.123332
 30
0.00
  0
SEQEND
  0
POLYLINE
  8
IMP_EC_PLATE_ISO-EDGE_CUTS_GBR
 66
1
 10
0.00
 20
0.00
 30
0.00
 40
0.20
 41
0.20
  0
VERTEX
  8
IMP_EC_PLATE_ISO-EDGE_CUTS_GBR
 10
203.77506
 20
-134.123332
 30
0.00
  0
VERTEX
  8
IMP_EC_PLATE_ISO-EDGE_CUTS_GBR
 10
191.17506
 20
-134.123332
 30
0.00
  0
SEQEND
  0
POLYLINE
  8
IMP_EC_PLATE_ISO-EDGE_CUTS_GBR
 66
1
 10
0.00
 20
0.00
 30
0.00
 40
0.20
 41
0.20
  0
VERTEX
  8
IMP_EC_PLATE_ISO-EDGE_CUTS_GBR
 10
204.77506
 20
-133.123332
 30
0.00
  0
VERTEX
  8
IMP_EC_PLATE_ISO-EDGE_CUTS_GBR
 10
203.77506
 20
-134.123332
 30
0.00
  0
SEQEND
  0
POLYLINE
  8
IMP_EC_PLATE_ISO-EDGE_CUTS_GBR
 66
1
 10
0.00
 20
0.00
 30
0.00
 40
0.20
 41
0.20
  0
VERTEX
  8
IMP_EC_PLATE_ISO-EDGE_CUTS_GBR
 10
204.77506
 20
-121.123332
 30
0.00
  0
VERTEX
  8
IMP_EC_PLATE_ISO-EDGE_CUTS_GBR
 10
204.77506
 20
-133.123332
 30
0.00
  0
SEQEND
  0
POLYLINE
  8
IMP_EC_PLATE_ISO-EDGE_CUTS_GBR
 66
1
 10
0.00
 20
0.00
 30
0.00
 40
0.20
 41
0.20
  0
VERTEX
  8
IMP_EC_PLATE_ISO-EDGE_CUTS_GBR
 10
203.77506
 20
-120.123332
 30
0.00
  0
VERTEX
  8
IMP_EC_PLATE_ISO-EDGE_CUTS_GBR
 10
204.77506
 20
-121.123332
 30
0.00
  0
SEQEND
  0
POLYLINE
  8
IMP_EC_PLATE_ISO-EDGE_CUTS_GBR
 66
1
 10
0.00
 20
0.00
 30
0.00
 40
0.20
 41
0.20
  0
VERTEX
  8
IMP_EC_PLATE_ISO-EDGE_CUTS_GBR
 10
191.17506
 20
-120.123332
 30
0.00
  0
VERTEX
  8
IMP_EC_PLATE_ISO-EDGE_CUTS_GBR
 10
203.77506
 20
-120.123332
 30
0.00
  0
SEQEND
  0
POLYLINE
  8
IMP_EC_PLATE_ISO-EDGE_CUTS_GBR
 66
1
 10
0.00
 20
0.00
 30
0.00
 40
0.20
 41
0.20
  0
VERTEX
  8
IMP_EC_PLATE_ISO-EDGE_CUTS_GBR
 10
171.15506
 20
-121.123332
 30
0.00
  0
VERTEX
  8
IMP_EC_PLATE_ISO-EDGE_CUTS_GBR
 10
172.15506
 20
-120.123332
 30
0.00
  0
SEQEND
  0
POLYLINE
  8
IMP_EC_PLATE_ISO-EDGE_CUTS_GBR
 66
1
 10
0.00
 20
0.00
 30
0.00
 40
0.20
 41
0.20
  0
VERTEX
  8
IMP_EC_PLATE_ISO-EDGE_CUTS_GBR
 10
171.15506
 20
-133.123332
 30
0.00
  0
VERTEX
  8
IMP_EC_PLATE_ISO-EDGE_CUTS_GBR
 10
171.15506
 20
-121.123332
 30
0.00
  0
SEQEND
  0
POLYLINE
  8
IMP_EC_PLATE_ISO-EDGE_CUTS_GBR
 66
1
 10
0.00
 20
0.00
 30
0.00
 40
0.20
 41
0.20
  0
VERTEX
  8
IMP_EC_PLATE_ISO-EDGE_CUTS_GBR
 10
172.15506
 20
-134.123332
 30
0.00
  0
VERTEX
  8
IMP_EC_PLATE_ISO-EDGE_CUTS_GBR
 10
171.15506
 20
-133.123332
 30
0.00
  0
SEQEND
  0
POLYLINE
  8
IMP_EC_PLATE_ISO-EDGE_CUTS_GBR
 66
1
 10
0.00
 20
0.00
 30
0.00
 40
0.20
 41
0.20
  0
VERTEX
  8
IMP_EC_PLATE_ISO-EDGE_CUTS_GBR
 10
184.75506
 20
-134.123332
 30
0.00
  0
VERTEX
  8
IMP_EC_PLATE_ISO-EDGE_CUTS_GBR
 10
172.15506
 20
-134.123332
 30
0.00
  0
SEQEND
  0
POLYLINE
  8
IMP_EC_PLATE_ISO-EDGE_CUTS_GBR
 66
1
 10
0.00
 20
0.00
 30
0.00
 40
0.20
 41
0.20
  0
VERTEX
  8
IMP_EC_PLATE_ISO-EDGE_CUTS_GBR
 10
185.75506
 20
-133.123332
 30
0.00
  0
VERTEX
  8
IMP_EC_PLATE_ISO-EDGE_CUTS_GBR
 10
184.75506
 20
-134.123332
 30
0.00
  0
SEQEND
  0
POLYLINE
  8
IMP_EC_PLATE_ISO-EDGE_CUTS_GBR
 66
1
 10
0.00
 20
0.00
 30
0.00
 40
0.20
 41
0.20
  0
VERTEX
  8
IMP_EC_PLATE_ISO-EDGE_CUTS_GBR
 10
185.75506
 20
-121.123332
 30
0.00
  0
VERTEX
  8
IMP_EC_PLATE_ISO-EDGE_CUTS_GBR
 10
185.75506
 20
-133.123332
 30
0.00
  0
SEQEND
  0
POLYLINE
  8
IMP_EC_PLATE_ISO-EDGE_CUTS_GBR
 66
1
 10
0.00
 20
0.00
 30
0.00
 40
0.20
 41
0.20
  0
VERTEX
  8
IMP_EC_PLATE_ISO-EDGE_CUTS_GBR
 10
184.75506
 20
-120.123332
 30
0.00
  0
VERTEX
  8
IMP_EC_PLATE_ISO-EDGE_CUTS_GBR
 10
185.75506
 20
-121.123332
 30
0.00
  0
SEQEND
  0
POLYLINE
  8
IMP_EC_PLATE_ISO-EDGE_CUTS_GBR
 66
1
 10
0.00
 20
0.00
 30
0.00
 40
0.20
 41
0.20
  0
VERTEX
  8
IMP_EC_PLATE_ISO-EDGE_CUTS_GBR
 10
172.15506
 20
-120.123332
 30
0.00
  0
VERTEX
  8
IMP_EC_PLATE_ISO-EDGE_CUTS_GBR
 10
184.75506
 20
-120.123332
 30
0.00
  0
SEQEND
  0
POLYLINE
  8
IMP_EC_PLATE_ISO-EDGE_CUTS_GBR
 66
1
 10
0.00
 20
0.00
 30
0.00
 40
0.20
 41
0.20
  0
VERTEX
  8
IMP_EC_PLATE_ISO-EDGE_CUTS_GBR
 10
152.13506
 20
-121.123332
 30
0.00
  0
VERTEX
  8
IMP_EC_PLATE_ISO-EDGE_CUTS_GBR
 10
153.13506
 20
-120.123332
 30
0.00
  0
SEQEND
  0
POLYLINE
  8
IMP_EC_PLATE_ISO-EDGE_CUTS_GBR
 66
1
 10
0.00
 20
0.00
 30
0.00
 40
0.20
 41
0.20
  0
VERTEX
  8
IMP_EC_PLATE_ISO-EDGE_CUTS_GBR
 10
152.13506
 20
-133.123332
 30
0.00
  0
VERTEX
  8
IMP_EC_PLATE_ISO-EDGE_CUTS_GBR
 10
152.13506
 20
-121.123332
 30
0.00
  0
SEQEND
  0
POLYLINE
  8
IMP_EC_PLATE_ISO-EDGE_CUTS_GBR
 66
1
 10
0.00
 20
0.00
 30
0.00
 40
0.20
 41
0.20
  0
VERTEX
  8
IMP_EC_PLATE_ISO-EDGE_CUTS_GBR
 10
153.13506
 20
-134.123332
 30
0.00
  0
VERTEX
  8
IMP_EC_PLATE_ISO-EDGE_CUTS_GBR
 10
152.13506
 20
-133.123332
 30
0.00
  0
SEQEND
  0
POLYLINE
  8
IMP_EC_PLATE_ISO-EDGE_CUTS_GBR
 66
1
 10
0.00
 20
0.00
 30
0.00
 40
0.20
 41
0.20
  0
VERTEX
  8
IMP_EC_PLATE_ISO-EDGE_CUTS_GBR
 10
165.73506
 20
-134.123332
 30
0.00
  0
VERTEX
  8
IMP_EC_PLATE_ISO-EDGE_CUTS_GBR
 10
153.13506
 20
-134.123332
 30
0.00
  0
SEQEND
  0
POLYLINE
  8
IMP_EC_PLATE_ISO-EDGE_CUTS_GBR
 66
1
 10
0.00
 20
0.00
 30
0.00
 40
0.20
 41
0.20
  0
VERTEX
  8
IMP_EC_PLATE_ISO-EDGE_CUTS_GBR
 10
166.73506
 20
-133.123332
 30
0.00
  0
VERTEX
  8
IMP_EC_PLATE_ISO-EDGE_CUTS_GBR
 10
165.73506
 20
-134.123332
 30
0.00
  0
SEQEND
  0
POLYLINE
  8
IMP_EC_PLATE_ISO-EDGE_CUTS_GBR
 66
1
 10
0.00
 20
0.00
 30
0.00
 40
0.20
 41
0.20
  0
VERTEX
  8
IMP_EC_PLATE_ISO-EDGE_CUTS_GBR
 10
166.73506
 20
-121.123332
 30
0.00
  0
VERTEX
  8
IMP_EC_PLATE_ISO-EDGE_CUTS_GBR
 10
166.73506
 20
-133.123332
 30
0.00
  0
SEQEND
  0
POLYLINE
  8
IMP_EC_PLATE_ISO-EDGE_CUTS_GBR
 66
1
 10
0.00
 20
0.00
 30
0.00
 40
0.20
 41
0.20
  0
VERTEX
  8
IMP_EC_PLATE_ISO-EDGE_CUTS_GBR
 10
165.73506
 20
-120.123332
 30
0.00
  0
VERTEX
  8
IMP_EC_PLATE_ISO-EDGE_CUTS_GBR
 10
166.73506
 20
-121.123332
 30
0.00
  0
SEQEND
  0
POLYLINE
  8
IMP_EC_PLATE_ISO-EDGE_CUTS_GBR
 66
1
 10
0.00
 20
0.00
 30
0.00
 40
0.20
 41
0.20
  0
VERTEX
  8
IMP_EC_PLATE_ISO-EDGE_CUTS_GBR
 10
153.13506
 20
-120.123332
 30
0.00
  0
VERTEX
  8
IMP_EC_PLATE_ISO-EDGE_CUTS_GBR
 10
165.73506
 20
-120.123332
 30
0.00
  0
SEQEND
  0
POLYLINE
  8
IMP_EC_PLATE_ISO-EDGE_CUTS_GBR
 66
1
 10
0.00
 20
0.00
 30
0.00
 40
0.20
 41
0.20
  0
VERTEX
  8
IMP_EC_PLATE_ISO-EDGE_CUTS_GBR
 10
133.11506
 20
-121.123332
 30
0.00
  0
VERTEX
  8
IMP_EC_PLATE_ISO-EDGE_CUTS_GBR
 10
134.11506
 20
-120.123332
 30
0.00
  0
SEQEND
  0
POLYLINE
  8
IMP_EC_PLATE_ISO-EDGE_CUTS_GBR
 66
1
 10
0.00
 20
0.00
 30
0.00
 40
0.20
 41
0.20
  0
VERTEX
  8
IMP_EC_PLATE_ISO-EDGE_CUTS_GBR
 10
133.11506
 20
-133.123332
 30
0.00
  0
VERTEX
  8
IMP_EC_PLATE_ISO-EDGE_CUTS_GBR
 10
133.11506
 20
-121.123332
 30
0.00
  0
SEQEND
  0
POLYLINE
  8
IMP_EC_PLATE_ISO-EDGE_CUTS_GBR
 66
1
 10
0.00
 20
0.00
 30
0.00
 40
0.20
 41
0.20
  0
VERTEX
  8
IMP_EC_PLATE_ISO-EDGE_CUTS_GBR
 10
134.11506
 20
-134.123332
 30
0.00
  0
VERTEX
  8
IMP_EC_PLATE_ISO-EDGE_CUTS_GBR
 10
133.11506
 20
-133.123332
 30
0.00
  0
SEQEND
  0
POLYLINE
  8
IMP_EC_PLATE_ISO-EDGE_CUTS_GBR
 66
1
 10
0.00
 20
0.00
 30
0.00
 40
0.20
 41
0.20
  0
VERTEX
  8
IMP_EC_PLATE_ISO-EDGE_CUTS_GBR
 10
146.71506
 20
-134.123332
 30
0.00
  0
VERTEX
  8
IMP_EC_PLATE_ISO-EDGE_CUTS_GBR
 10
134.11506
 20
-134.123332
 30
0.00
  0
SEQEND
  0
POLYLINE
  8
IMP_EC_PLATE_ISO-EDGE_CUTS_GBR
 66
1
 10
0.00
 20
0.00
 30
0.00
 40
0.20
 41
0.20
  0
VERTEX
  8
IMP_EC_PLATE_ISO-EDGE_CUTS_GBR
 10
147.71506
 20
-133.123332
 30
0.00
  0
VERTEX
  8
IMP_EC_PLATE_ISO-EDGE_CUTS_GBR
 10
146.71506
 20
-134.123332
 30
0.00
  0
SEQEND
  0
POLYLINE
  8
IMP_EC_PLATE_ISO-EDGE_CUTS_GBR
 66
1
 10
0.00
 20
0.00
 30
0.00
 40
0.20
 41
0.20
  0
VERTEX
  8
IMP_EC_PLATE_ISO-EDGE_CUTS_GBR
 10
147.71506
 20
-121.123332
 30
0.00
  0
VERTEX
  8
IMP_EC_PLATE_ISO-EDGE_CUTS_GBR
 10
147.71506
 20
-133.123332
 30
0.00
  0
SEQEND
  0
POLYLINE
  8
IMP_EC_PLATE_ISO-EDGE_CUTS_GBR
 66
1
 10
0.00
 20
0.00
 30
0.00
 40
0.20
 41
0.20
  0
VERTEX
  8
IMP_EC_PLATE_ISO-EDGE_CUTS_GBR
 10
146.71506
 20
-120.123332
 30
0.00
  0
VERTEX
  8
IMP_EC_PLATE_ISO-EDGE_CUTS_GBR
 10
147.71506
 20
-121.123332
 30
0.00
  0
SEQEND
  0
POLYLINE
  8
IMP_EC_PLATE_ISO-EDGE_CUTS_GBR
 66
1
 10
0.00
 20
0.00
 30
0.00
 40
0.20
 41
0.20
  0
VERTEX
  8
IMP_EC_PLATE_ISO-EDGE_CUTS_GBR
 10
134.11506
 20
-120.123332
 30
0.00
  0
VERTEX
  8
IMP_EC_PLATE_ISO-EDGE_CUTS_GBR
 10
146.71506
 20
-120.123332
 30
0.00
  0
SEQEND
  0
POLYLINE
  8
IMP_EC_PLATE_ISO-EDGE_CUTS_GBR
 66
1
 10
0.00
 20
0.00
 30
0.00
 40
0.20
 41
0.20
  0
VERTEX
  8
IMP_EC_PLATE_ISO-EDGE_CUTS_GBR
 10
114.09506
 20
-121.123332
 30
0.00
  0
VERTEX
  8
IMP_EC_PLATE_ISO-EDGE_CUTS_GBR
 10
115.09506
 20
-120.123332
 30
0.00
  0
SEQEND
  0
POLYLINE
  8
IMP_EC_PLATE_ISO-EDGE_CUTS_GBR
 66
1
 10
0.00
 20
0.00
 30
0.00
 40
0.20
 41
0.20
  0
VERTEX
  8
IMP_EC_PLATE_ISO-EDGE_CUTS_GBR
 10
114.09506
 20
-133.123332
 30
0.00
  0
VERTEX
  8
IMP_EC_PLATE_ISO-EDGE_CUTS_GBR
 10
114.09506
 20
-121.123332
 30
0.00
  0
SEQEND
  0
POLYLINE
  8
IMP_EC_PLATE_ISO-EDGE_CUTS_GBR
 66
1
 10
0.00
 20
0.00
 30
0.00
 40
0.20
 41
0.20
  0
VERTEX
  8
IMP_EC_PLATE_ISO-EDGE_CUTS_GBR
 10
115.09506
 20
-134.123332
 30
0.00
  0
VERTEX
  8
IMP_EC_PLATE_ISO-EDGE_CUTS_GBR
 10
114.09506
 20
-133.123332
 30
0.00
  0
SEQEND
  0
POLYLINE
  8
IMP_EC_PLATE_ISO-EDGE_CUTS_GBR
 66
1
 10
0.00
 20
0.00
 30
0.00
 40
0.20
 41
0.20
  0
VERTEX
  8
IMP_EC_PLATE_ISO-EDGE_CUTS_GBR
 10
127.69506
 20
-134.123332
 30
0.00
  0
VERTEX
  8
IMP_EC_PLATE_ISO-EDGE_CUTS_GBR
 10
115.09506
 20
-134.123332
 30
0.00
  0
SEQEND
  0
POLYLINE
  8
IMP_EC_PLATE_ISO-EDGE_CUTS_GBR
 66
1
 10
0.00
 20
0.00
 30
0.00
 40
0.20
 41
0.20
  0
VERTEX
  8
IMP_EC_PLATE_ISO-EDGE_CUTS_GBR
 10
128.69506
 20
-133.123332
 30
0.00
  0
VERTEX
  8
IMP_EC_PLATE_ISO-EDGE_CUTS_GBR
 10
127.69506
 20
-134.123332
 30
0.00
  0
SEQEND
  0
POLYLINE
  8
IMP_EC_PLATE_ISO-EDGE_CUTS_GBR
 66
1
 10
0.00
 20
0.00
 30
0.00
 40
0.20
 41
0.20
  0
VERTEX
  8
IMP_EC_PLATE_ISO-EDGE_CUTS_GBR
 10
128.69506
 20
-121.123332
 30
0.00
  0
VERTEX
  8
IMP_EC_PLATE_ISO-EDGE_CUTS_GBR
 10
128.69506
 20
-133.123332
 30
0.00
  0
SEQEND
  0
POLYLINE
  8
IMP_EC_PLATE_ISO-EDGE_CUTS_GBR
 66
1
 10
0.00
 20
0.00
 30
0.00
 40
0.20
 41
0.20
  0
VERTEX
  8
IMP_EC_PLATE_ISO-EDGE_CUTS_GBR
 10
127.69506
 20
-120.123332
 30
0.00
  0
VERTEX
  8
IMP_EC_PLATE_ISO-EDGE_CUTS_GBR
 10
128.69506
 20
-121.123332
 30
0.00
  0
SEQEND
  0
POLYLINE
  8
IMP_EC_PLATE_ISO-EDGE_CUTS_GBR
 66
1
 10
0.00
 20
0.00
 30
0.00
 40
0.20
 41
0.20
  0
VERTEX
  8
IMP_EC_PLATE_ISO-EDGE_CUTS_GBR
 10
115.09506
 20
-120.123332
 30
0.00
  0
VERTEX
  8
IMP_EC_PLATE_ISO-EDGE_CUTS_GBR
 10
127.69506
 20
-120.123332
 30
0.00
  0
SEQEND
  0
POLYLINE
  8
IMP_EC_PLATE_ISO-EDGE_CUTS_GBR
 66
1
 10
0.00
 20
0.00
 30
0.00
 40
0.20
 41
0.20
  0
VERTEX
  8
IMP_EC_PLATE_ISO-EDGE_CUTS_GBR
 10
95.07506
 20
-121.123332
 30
0.00
  0
VERTEX
  8
IMP_EC_PLATE_ISO-EDGE_CUTS_GBR
 10
96.07506
 20
-120.123332
 30
0.00
  0
SEQEND
  0
POLYLINE
  8
IMP_EC_PLATE_ISO-EDGE_CUTS_GBR
 66
1
 10
0.00
 20
0.00
 30
0.00
 40
0.20
 41
0.20
  0
VERTEX
  8
IMP_EC_PLATE_ISO-EDGE_CUTS_GBR
 10
95.07506
 20
-133.123332
 30
0.00
  0
VERTEX
  8
IMP_EC_PLATE_ISO-EDGE_CUTS_GBR
 10
95.07506
 20
-121.123332
 30
0.00
  0
SEQEND
  0
POLYLINE
  8
IMP_EC_PLATE_ISO-EDGE_CUTS_GBR
 66
1
 10
0.00
 20
0.00
 30
0.00
 40
0.20
 41
0.20
  0
VERTEX
  8
IMP_EC_PLATE_ISO-EDGE_CUTS_GBR
 10
96.07506
 20
-134.123332
 30
0.00
  0
VERTEX
  8
IMP_EC_PLATE_ISO-EDGE_CUTS_GBR
 10
95.07506
 20
-133.123332
 30
0.00
  0
SEQEND
  0
POLYLINE
  8
IMP_EC_PLATE_ISO-EDGE_CUTS_GBR
 66
1
 10
0.00
 20
0.00
 30
0.00
 40
0.20
 41
0.20
  0
VERTEX
  8
IMP_EC_PLATE_ISO-EDGE_CUTS_GBR
 10
108.67506
 20
-134.123332
 30
0.00
  0
VERTEX
  8
IMP_EC_PLATE_ISO-EDGE_CUTS_GBR
 10
96.07506
 20
-134.123332
 30
0.00
  0
SEQEND
  0
POLYLINE
  8
IMP_EC_PLATE_ISO-EDGE_CUTS_GBR
 66
1
 10
0.00
 20
0.00
 30
0.00
 40
0.20
 41
0.20
  0
VERTEX
  8
IMP_EC_PLATE_ISO-EDGE_CUTS_GBR
 10
109.67506
 20
-133.123332
 30
0.00
  0
VERTEX
  8
IMP_EC_PLATE_ISO-EDGE_CUTS_GBR
 10
108.67506
 20
-134.123332
 30
0.00
  0
SEQEND
  0
POLYLINE
  8
IMP_EC_PLATE_ISO-EDGE_CUTS_GBR
 66
1
 10
0.00
 20
0.00
 30
0.00
 40
0.20
 41
0.20
  0
VERTEX
  8
IMP_EC_PLATE_ISO-EDGE_CUTS_GBR
 10
109.67506
 20
-121.123332
 30
0.00
  0
VERTEX
  8
IMP_EC_PLATE_ISO-EDGE_CUTS_GBR
 10
109.67506
 20
-133.123332
 30
0.00
  0
SEQEND
  0
POLYLINE
  8
IMP_EC_PLATE_ISO-EDGE_CUTS_GBR
 66
1
 10
0.00
 20
0.00
 30
0.00
 40
0.20
 41
0.20
  0
VERTEX
  8
IMP_EC_PLATE_ISO-EDGE_CUTS_GBR
 10
108.67506
 20
-120.123332
 30
0.00
  0
VERTEX
  8
IMP_EC_PLATE_ISO-EDGE_CUTS_GBR
 10
109.67506
 20
-121.123332
 30
0.00
  0
SEQEND
  0
POLYLINE
  8
IMP_EC_PLATE_ISO-EDGE_CUTS_GBR
 66
1
 10
0.00
 20
0.00
 30
0.00
 40
0.20
 41
0.20
  0
VERTEX
  8
IMP_EC_PLATE_ISO-EDGE_CUTS_GBR
 10
96.07506
 20
-120.123332
 30
0.00
  0
VERTEX
  8
IMP_EC_PLATE_ISO-EDGE_CUTS_GBR
 10
108.67506
 20
-120.123332
 30
0.00
  0
SEQEND
  0
POLYLINE
  8
IMP_EC_PLATE_ISO-EDGE_CUTS_GBR
 66
1
 10
0.00
 20
0.00
 30
0.00
 40
0.20
 41
0.20
  0
VERTEX
  8
IMP_EC_PLATE_ISO-EDGE_CUTS_GBR
 10
76.05506
 20
-121.123332
 30
0.00
  0
VERTEX
  8
IMP_EC_PLATE_ISO-EDGE_CUTS_GBR
 10
77.05506
 20
-120.123332
 30
0.00
  0
SEQEND
  0
POLYLINE
  8
IMP_EC_PLATE_ISO-EDGE_CUTS_GBR
 66
1
 10
0.00
 20
0.00
 30
0.00
 40
0.20
 41
0.20
  0
VERTEX
  8
IMP_EC_PLATE_ISO-EDGE_CUTS_GBR
 10
76.05506
 20
-133.123332
 30
0.00
  0
VERTEX
  8
IMP_EC_PLATE_ISO-EDGE_CUTS_GBR
 10
76.05506
 20
-121.123332
 30
0.00
  0
SEQEND
  0
POLYLINE
  8
IMP_EC_PLATE_ISO-EDGE_CUTS_GBR
 66
1
 10
0.00
 20
0.00
 30
0.00
 40
0.20
 41
0.20
  0
VERTEX
  8
IMP_EC_PLATE_ISO-EDGE_CUTS_GBR
 10
77.05506
 20
-134.123332
 30
0.00
  0
VERTEX
  8
IMP_EC_PLATE_ISO-EDGE_CUTS_GBR
 10
76.05506
 20
-133.123332
 30
0.00
  0
SEQEND
  0
POLYLINE
  8
IMP_EC_PLATE_ISO-EDGE_CUTS_GBR
 66
1
 10
0.00
 20
0.00
 30
0.00
 40
0.20
 41
0.20
  0
VERTEX
  8
IMP_EC_PLATE_ISO-EDGE_CUTS_GBR
 10
89.65506
 20
-134.123332
 30
0.00
  0
VERTEX
  8
IMP_EC_PLATE_ISO-EDGE_CUTS_GBR
 10
77.05506
 20
-134.123332
 30
0.00
  0
SEQEND
  0
POLYLINE
  8
IMP_EC_PLATE_ISO-EDGE_CUTS_GBR
 66
1
 10
0.00
 20
0.00
 30
0.00
 40
0.20
 41
0.20
  0
VERTEX
  8
IMP_EC_PLATE_ISO-EDGE_CUTS_GBR
 10
90.65506
 20
-133.123332
 30
0.00
  0
VERTEX
  8
IMP_EC_PLATE_ISO-EDGE_CUTS_GBR
 10
89.65506
 20
-134.123332
 30
0.00
  0
SEQEND
  0
POLYLINE
  8
IMP_EC_PLATE_ISO-EDGE_CUTS_GBR
 66
1
 10
0.00
 20
0.00
 30
0.00
 40
0.20
 41
0.20
  0
VERTEX
  8
IMP_EC_PLATE_ISO-EDGE_CUTS_GBR
 10
90.65506
 20
-121.123332
 30
0.00
  0
VERTEX
  8
IMP_EC_PLATE_ISO-EDGE_CUTS_GBR
 10
90.65506
 20
-133.123332
 30
0.00
  0
SEQEND
  0
POLYLINE
  8
IMP_EC_PLATE_ISO-EDGE_CUTS_GBR
 66
1
 10
0.00
 20
0.00
 30
0.00
 40
0.20
 41
0.20
  0
VERTEX
  8
IMP_EC_PLATE_ISO-EDGE_CUTS_GBR
 10
89.65506
 20
-120.123332
 30
0.00
  0
VERTEX
  8
IMP_EC_PLATE_ISO-EDGE_CUTS_GBR
 10
90.65506
 20
-121.123332
 30
0.00
  0
SEQEND
  0
POLYLINE
  8
IMP_EC_PLATE_ISO-EDGE_CUTS_GBR
 66
1
 10
0.00
 20
0.00
 30
0.00
 40
0.20
 41
0.20
  0
VERTEX
  8
IMP_EC_PLATE_ISO-EDGE_CUTS_GBR
 10
77.05506
 20
-120.123332
 30
0.00
  0
VERTEX
  8
IMP_EC_PLATE_ISO-EDGE_CUTS_GBR
 10
89.65506
 20
-120.123332
 30
0.00
  0
SEQEND
  0
POLYLINE
  8
IMP_EC_PLATE_ISO-EDGE_CUTS_GBR
 66
1
 10
0.00
 20
0.00
 30
0.00
 40
0.20
 41
0.20
  0
VERTEX
  8
IMP_EC_PLATE_ISO-EDGE_CUTS_GBR
 10
52.30506
 20
-121.123332
 30
0.00
  0
VERTEX
  8
IMP_EC_PLATE_ISO-EDGE_CUTS_GBR
 10
53.30506
 20
-120.123332
 30
0.00
  0
SEQEND
  0
POLYLINE
  8
IMP_EC_PLATE_ISO-EDGE_CUTS_GBR
 66
1
 10
0.00
 20
0.00
 30
0.00
 40
0.20
 41
0.20
  0
VERTEX
  8
IMP_EC_PLATE_ISO-EDGE_CUTS_GBR
 10
52.30506
 20
-133.123332
 30
0.00
  0
VERTEX
  8
IMP_EC_PLATE_ISO-EDGE_CUTS_GBR
 10
52.30506
 20
-121.123332
 30
0.00
  0
SEQEND
  0
POLYLINE
  8
IMP_EC_PLATE_ISO-EDGE_CUTS_GBR
 66
1
 10
0.00
 20
0.00
 30
0.00
 40
0.20
 41
0.20
  0
VERTEX
  8
IMP_EC_PLATE_ISO-EDGE_CUTS_GBR
 10
53.30506
 20
-134.123332
 30
0.00
  0
VERTEX
  8
IMP_EC_PLATE_ISO-EDGE_CUTS_GBR
 10
52.30506
 20
-133.123332
 30
0.00
  0
SEQEND
  0
POLYLINE
  8
IMP_EC_PLATE_ISO-EDGE_CUTS_GBR
 66
1
 10
0.00
 20
0.00
 30
0.00
 40
0.20
 41
0.20
  0
VERTEX
  8
IMP_EC_PLATE_ISO-EDGE_CUTS_GBR
 10
65.90506
 20
-134.123332
 30
0.00
  0
VERTEX
  8
IMP_EC_PLATE_ISO-EDGE_CUTS_GBR
 10
53.30506
 20
-134.123332
 30
0.00
  0
SEQEND
  0
POLYLINE
  8
IMP_EC_PLATE_ISO-EDGE_CUTS_GBR
 66
1
 10
0.00
 20
0.00
 30
0.00
 40
0.20
 41
0.20
  0
VERTEX
  8
IMP_EC_PLATE_ISO-EDGE_CUTS_GBR
 10
66.90506
 20
-133.123332
 30
0.00
  0
VERTEX
  8
IMP_EC_PLATE_ISO-EDGE_CUTS_GBR
 10
65.90506
 20
-134.123332
 30
0.00
  0
SEQEND
  0
POLYLINE
  8
IMP_EC_PLATE_ISO-EDGE_CUTS_GBR
 66
1
 10
0.00
 20
0.00
 30
0.00
 40
0.20
 41
0.20
  0
VERTEX
  8
IMP_EC_PLATE_ISO-EDGE_CUTS_GBR
 10
66.90506
 20
-121.123332
 30
0.00
  0
VERTEX
  8
IMP_EC_PLATE_ISO-EDGE_CUTS_GBR
 10
66.90506
 20
-133.123332
 30
0.00
  0
SEQEND
  0
POLYLINE
  8
IMP_EC_PLATE_ISO-EDGE_CUTS_GBR
 66
1
 10
0.00
 20
0.00
 30
0.00
 40
0.20
 41
0.20
  0
VERTEX
  8
IMP_EC_PLATE_ISO-EDGE_CUTS_GBR
 10
65.90506
 20
-120.123332
 30
0.00
  0
VERTEX
  8
IMP_EC_PLATE_ISO-EDGE_CUTS_GBR
 10
66.90506
 20
-121.123332
 30
0.00
  0
SEQEND
  0
POLYLINE
  8
IMP_EC_PLATE_ISO-EDGE_CUTS_GBR
 66
1
 10
0.00
 20
0.00
 30
0.00
 40
0.20
 41
0.20
  0
VERTEX
  8
IMP_EC_PLATE_ISO-EDGE_CUTS_GBR
 10
53.30506
 20
-120.123332
 30
0.00
  0
VERTEX
  8
IMP_EC_PLATE_ISO-EDGE_CUTS_GBR
 10
65.90506
 20
-120.123332
 30
0.00
  0
SEQEND
  0
POLYLINE
  8
IMP_EC_PLATE_ISO-EDGE_CUTS_GBR
 66
1
 10
0.00
 20
0.00
 30
0.00
 40
0.20
 41
0.20
  0
VERTEX
  8
IMP_EC_PLATE_ISO-EDGE_CUTS_GBR
 10
199.73506
 20
-102.103332
 30
0.00
  0
VERTEX
  8
IMP_EC_PLATE_ISO-EDGE_CUTS_GBR
 10
200.73506
 20
-101.103332
 30
0.00
  0
SEQEND
  0
POLYLINE
  8
IMP_EC_PLATE_ISO-EDGE_CUTS_GBR
 66
1
 10
0.00
 20
0.00
 30
0.00
 40
0.20
 41
0.20
  0
VERTEX
  8
IMP_EC_PLATE_ISO-EDGE_CUTS_GBR
 10
199.73506
 20
-114.103332
 30
0.00
  0
VERTEX
  8
IMP_EC_PLATE_ISO-EDGE_CUTS_GBR
 10
199.73506
 20
-102.103332
 30
0.00
  0
SEQEND
  0
POLYLINE
  8
IMP_EC_PLATE_ISO-EDGE_CUTS_GBR
 66
1
 10
0.00
 20
0.00
 30
0.00
 40
0.20
 41
0.20
  0
VERTEX
  8
IMP_EC_PLATE_ISO-EDGE_CUTS_GBR
 10
200.73506
 20
-115.103332
 30
0.00
  0
VERTEX
  8
IMP_EC_PLATE_ISO-EDGE_CUTS_GBR
 10
199.73506
 20
-114.103332
 30
0.00
  0
SEQEND
  0
POLYLINE
  8
IMP_EC_PLATE_ISO-EDGE_CUTS_GBR
 66
1
 10
0.00
 20
0.00
 30
0.00
 40
0.20
 41
0.20
  0
VERTEX
  8
IMP_EC_PLATE_ISO-EDGE_CUTS_GBR
 10
213.33506
 20
-115.103332
 30
0.00
  0
VERTEX
  8
IMP_EC_PLATE_ISO-EDGE_CUTS_GBR
 10
200.73506
 20
-115.103332
 30
0.00
  0
SEQEND
  0
POLYLINE
  8
IMP_EC_PLATE_ISO-EDGE_CUTS_GBR
 66
1
 10
0.00
 20
0.00
 30
0.00
 40
0.20
 41
0.20
  0
VERTEX
  8
IMP_EC_PLATE_ISO-EDGE_CUTS_GBR
 10
214.33506
 20
-114.103332
 30
0.00
  0
VERTEX
  8
IMP_EC_PLATE_ISO-EDGE_CUTS_GBR
 10
213.33506
 20
-115.103332
 30
0.00
  0
SEQEND
  0
POLYLINE
  8
IMP_EC_PLATE_ISO-EDGE_CUTS_GBR
 66
1
 10
0.00
 20
0.00
 30
0.00
 40
0.20
 41
0.20
  0
VERTEX
  8
IMP_EC_PLATE_ISO-EDGE_CUTS_GBR
 10
214.33506
 20
-102.103332
 30
0.00
  0
VERTEX
  8
IMP_EC_PLATE_ISO-EDGE_CUTS_GBR
 10
214.33506
 20
-114.103332
 30
0.00
  0
SEQEND
  0
POLYLINE
  8
IMP_EC_PLATE_ISO-EDGE_CUTS_GBR
 66
1
 10
0.00
 20
0.00
 30
0.00
 40
0.20
 41
0.20
  0
VERTEX
  8
IMP_EC_PLATE_ISO-EDGE_CUTS_GBR
 10
213.33506
 20
-101.103332
 30
0.00
  0
VERTEX
  8
IMP_EC_PLATE_ISO-EDGE_CUTS_GBR
 10
214.33506
 20
-102.103332
 30
0.00
  0
SEQEND
  0
POLYLINE
  8
IMP_EC_PLATE_ISO-EDGE_CUTS_GBR
 66
1
 10
0.00
 20
0.00
 30
0.00
 40
0.20
 41
0.20
  0
VERTEX
  8
IMP_EC_PLATE_ISO-EDGE_CUTS_GBR
 10
200.73506
 20
-101.103332
 30
0.00
  0
VERTEX
  8
IMP_EC_PLATE_ISO-EDGE_CUTS_GBR
 10
213.33506
 20
-101.103332
 30
0.00
  0
SEQEND
  0
POLYLINE
  8
IMP_EC_PLATE_ISO-EDGE_CUTS_GBR
 66
1
 10
0.00
 20
0.00
 30
0.00
 40
0.20
 41
0.20
  0
VERTEX
  8
IMP_EC_PLATE_ISO-EDGE_CUTS_GBR
 10
180.71506
 20
-102.103332
 30
0.00
  0
VERTEX
  8
IMP_EC_PLATE_ISO-EDGE_CUTS_GBR
 10
181.71506
 20
-101.103332
 30
0.00
  0
SEQEND
  0
POLYLINE
  8
IMP_EC_PLATE_ISO-EDGE_CUTS_GBR
 66
1
 10
0.00
 20
0.00
 30
0.00
 40
0.20
 41
0.20
  0
VERTEX
  8
IMP_EC_PLATE_ISO-EDGE_CUTS_GBR
 10
180.71506
 20
-114.103332
 30
0.00
  0
VERTEX
  8
IMP_EC_PLATE_ISO-EDGE_CUTS_GBR
 10
180.71506
 20
-102.103332
 30
0.00
  0
SEQEND
  0
POLYLINE
  8
IMP_EC_PLATE_ISO-EDGE_CUTS_GBR
 66
1
 10
0.00
 20
0.00
 30
0.00
 40
0.20
 41
0.20
  0
VERTEX
  8
IMP_EC_PLATE_ISO-EDGE_CUTS_GBR
 10
181.71506
 20
-115.103332
 30
0.00
  0
VERTEX
  8
IMP_EC_PLATE_ISO-EDGE_CUTS_GBR
 10
180.71506
 20
-114.103332
 30
0.00
  0
SEQEND
  0
POLYLINE
  8
IMP_EC_PLATE_ISO-EDGE_CUTS_GBR
 66
1
 10
0.00
 20
0.00
 30
0.00
 40
0.20
 41
0.20
  0
VERTEX
  8
IMP_EC_PLATE_ISO-EDGE_CUTS_GBR
 10
194.31506
 20
-115.103332
 30
0.00
  0
VERTEX
  8
IMP_EC_PLATE_ISO-EDGE_CUTS_GBR
 10
181.71506
 20
-115.103332
 30
0.00
  0
SEQEND
  0
POLYLINE
  8
IMP_EC_PLATE_ISO-EDGE_CUTS_GBR
 66
1
 10
0.00
 20
0.00
 30
0.00
 40
0.20
 41
0.20
  0
VERTEX
  8
IMP_EC_PLATE_ISO-EDGE_CUTS_GBR
 10
195.31506
 20
-114.103332
 30
0.00
  0
VERTEX
  8
IMP_EC_PLATE_ISO-EDGE_CUTS_GBR
 10
194.31506
 20
-115.103332
 30
0.00
  0
SEQEND
  0
POLYLINE
  8
IMP_EC_PLATE_ISO-EDGE_CUTS_GBR
 66
1
 10
0.00
 20
0.00
 30
0.00
 40
0.20
 41
0.20
  0
VERTEX
  8
IMP_EC_PLATE_ISO-EDGE_CUTS_GBR
 10
195.31506
 20
-102.103332
 30
0.00
  0
VERTEX
  8
IMP_EC_PLATE_ISO-EDGE_CUTS_GBR
 10
195.31506
 20
-114.103332
 30
0.00
  0
SEQEND
  0
POLYLINE
  8
IMP_EC_PLATE_ISO-EDGE_CUTS_GBR
 66
1
 10
0.00
 20
0.00
 30
0.00
 40
0.20
 41
0.20
  0
VERTEX
  8
IMP_EC_PLATE_ISO-EDGE_CUTS_GBR
 10
194.31506
 20
-101.103332
 30
0.00
  0
VERTEX
  8
IMP_EC_PLATE_ISO-EDGE_CUTS_GBR
 10
195.31506
 20
-102.103332
 30
0.00
  0
SEQEND
  0
POLYLINE
  8
IMP_EC_PLATE_ISO-EDGE_CUTS_GBR
 66
1
 10
0.00
 20
0.00
 30
0.00
 40
0.20
 41
0.20
  0
VERTEX
  8
IMP_EC_PLATE_ISO-EDGE_CUTS_GBR
 10
181.71506
 20
-101.103332
 30
0.00
  0
VERTEX
  8
IMP_EC_PLATE_ISO-EDGE_CUTS_GBR
 10
194.31506
 20
-101.103332
 30
0.00
  0
SEQEND
  0
POLYLINE
  8
IMP_EC_PLATE_ISO-EDGE_CUTS_GBR
 66
1
 10
0.00
 20
0.00
 30
0.00
 40
0.20
 41
0.20
  0
VERTEX
  8
IMP_EC_PLATE_ISO-EDGE_CUTS_GBR
 10
161.69506
 20
-102.103332
 30
0.00
  0
VERTEX
  8
IMP_EC_PLATE_ISO-EDGE_CUTS_GBR
 10
162.69506
 20
-101.103332
 30
0.00
  0
SEQEND
  0
POLYLINE
  8
IMP_EC_PLATE_ISO-EDGE_CUTS_GBR
 66
1
 10
0.00
 20
0.00
 30
0.00
 40
0.20
 41
0.20
  0
VERTEX
  8
IMP_EC_PLATE_ISO-EDGE_CUTS_GBR
 10
161.69506
 20
-114.103332
 30
0.00
  0
VERTEX
  8
IMP_EC_PLATE_ISO-EDGE_CUTS_GBR
 10
161.69506
 20
-102.103332
 30
0.00
  0
SEQEND
  0
POLYLINE
  8
IMP_EC_PLATE_ISO-EDGE_CUTS_GBR
 66
1
 10
0.00
 20
0.00
 30
0.00
 40
0.20
 41
0.20
  0
VERTEX
  8
IMP_EC_PLATE_ISO-EDGE_CUTS_GBR
 10
162.69506
 20
-115.103332
 30
0.00
  0
VERTEX
  8
IMP_EC_PLATE_ISO-EDGE_CUTS_GBR
 10
161.69506
 20
-114.103332
 30
0.00
  0
SEQEND
  0
POLYLINE
  8
IMP_EC_PLATE_ISO-EDGE_CUTS_GBR
 66
1
 10
0.00
 20
0.00
 30
0.00
 40
0.20
 41
0.20
  0
VERTEX
  8
IMP_EC_PLATE_ISO-EDGE_CUTS_GBR
 10
175.29506
 20
-115.103332
 30
0.00
  0
VERTEX
  8
IMP_EC_PLATE_ISO-EDGE_CUTS_GBR
 10
162.69506
 20
-115.103332
 30
0.00
  0
SEQEND
  0
POLYLINE
  8
IMP_EC_PLATE_ISO-EDGE_CUTS_GBR
 66
1
 10
0.00
 20
0.00
 30
0.00
 40
0.20
 41
0.20
  0
VERTEX
  8
IMP_EC_PLATE_ISO-EDGE_CUTS_GBR
 10
176.29506
 20
-114.103332
 30
0.00
  0
VERTEX
  8
IMP_EC_PLATE_ISO-EDGE_CUTS_GBR
 10
175.29506
 20
-115.103332
 30
0.00
  0
SEQEND
  0
POLYLINE
  8
IMP_EC_PLATE_ISO-EDGE_CUTS_GBR
 66
1
 10
0.00
 20
0.00
 30
0.00
 40
0.20
 41
0.20
  0
VERTEX
  8
IMP_EC_PLATE_ISO-EDGE_CUTS_GBR
 10
176.29506
 20
-102.103332
 30
0.00
  0
VERTEX
  8
IMP_EC_PLATE_ISO-EDGE_CUTS_GBR
 10
176.29506
 20
-114.103332
 30
0.00
  0
SEQEND
  0
POLYLINE
  8
IMP_EC_PLATE_ISO-EDGE_CUTS_GBR
 66
1
 10
0.00
 20
0.00
 30
0.00
 40
0.20
 41
0.20
  0
VERTEX
  8
IMP_EC_PLATE_ISO-EDGE_CUTS_GBR
 10
175.29506
 20
-101.103332
 30
0.00
  0
VERTEX
  8
IMP_EC_PLATE_ISO-EDGE_CUTS_GBR
 10
176.29506
 20
-102.103332
 30
0.00
  0
SEQEND
  0
POLYLINE
  8
IMP_EC_PLATE_ISO-EDGE_CUTS_GBR
 66
1
 10
0.00
 20
0.00
 30
0.00
 40
0.20
 41
0.20
  0
VERTEX
  8
IMP_EC_PLATE_ISO-EDGE_CUTS_GBR
 10
162.69506
 20
-101.103332
 30
0.00
  0
VERTEX
  8
IMP_EC_PLATE_ISO-EDGE_CUTS_GBR
 10
175.29506
 20
-101.103332
 30
0.00
  0
SEQEND
  0
POLYLINE
  8
IMP_EC_PLATE_ISO-EDGE_CUTS_GBR
 66
1
 10
0.00
 20
0.00
 30
0.00
 40
0.20
 41
0.20
  0
VERTEX
  8
IMP_EC_PLATE_ISO-EDGE_CUTS_GBR
 10
142.67506
 20
-102.103332
 30
0.00
  0
VERTEX
  8
IMP_EC_PLATE_ISO-EDGE_CUTS_GBR
 10
143.67506
 20
-101.103332
 30
0.00
  0
SEQEND
  0
POLYLINE
  8
IMP_EC_PLATE_ISO-EDGE_CUTS_GBR
 66
1
 10
0.00
 20
0.00
 30
0.00
 40
0.20
 41
0.20
  0
VERTEX
  8
IMP_EC_PLATE_ISO-EDGE_CUTS_GBR
 10
142.67506
 20
-114.103332
 30
0.00
  0
VERTEX
  8
IMP_EC_PLATE_ISO-EDGE_CUTS_GBR
 10
142.67506
 20
-102.103332
 30
0.00
  0
SEQEND
  0
POLYLINE
  8
IMP_EC_PLATE_ISO-EDGE_CUTS_GBR
 66
1
 10
0.00
 20
0.00
 30
0.00
 40
0.20
 41
0.20
  0
VERTEX
  8
IMP_EC_PLATE_ISO-EDGE_CUTS_GBR
 10
143.67506
 20
-115.103332
 30
0.00
  0
VERTEX
  8
IMP_EC_PLATE_ISO-EDGE_CUTS_GBR
 10
142.67506
 20
-114.103332
 30
0.00
  0
SEQEND
  0
POLYLINE
  8
IMP_EC_PLATE_ISO-EDGE_CUTS_GBR
 66
1
 10
0.00
 20
0.00
 30
0.00
 40
0.20
 41
0.20
  0
VERTEX
  8
IMP_EC_PLATE_ISO-EDGE_CUTS_GBR
 10
156.27506
 20
-115.103332
 30
0.00
  0
VERTEX
  8
IMP_EC_PLATE_ISO-EDGE_CUTS_GBR
 10
143.67506
 20
-115.103332
 30
0.00
  0
SEQEND
  0
POLYLINE
  8
IMP_EC_PLATE_ISO-EDGE_CUTS_GBR
 66
1
 10
0.00
 20
0.00
 30
0.00
 40
0.20
 41
0.20
  0
VERTEX
  8
IMP_EC_PLATE_ISO-EDGE_CUTS_GBR
 10
157.27506
 20
-114.103332
 30
0.00
  0
VERTEX
  8
IMP_EC_PLATE_ISO-EDGE_CUTS_GBR
 10
156.27506
 20
-115.103332
 30
0.00
  0
SEQEND
  0
POLYLINE
  8
IMP_EC_PLATE_ISO-EDGE_CUTS_GBR
 66
1
 10
0.00
 20
0.00
 30
0.00
 40
0.20
 41
0.20
  0
VERTEX
  8
IMP_EC_PLATE_ISO-EDGE_CUTS_GBR
 10
157.27506
 20
-102.103332
 30
0.00
  0
VERTEX
  8
IMP_EC_PLATE_ISO-EDGE_CUTS_GBR
 10
157.27506
 20
-114.103332
 30
0.00
  0
SEQEND
  0
POLYLINE
  8
IMP_EC_PLATE_ISO-EDGE_CUTS_GBR
 66
1
 10
0.00
 20
0.00
 30
0.00
 40
0.20
 41
0.20
  0
VERTEX
  8
IMP_EC_PLATE_ISO-EDGE_CUTS_GBR
 10
156.27506
 20
-101.103332
 30
0.00
  0
VERTEX
  8
IMP_EC_PLATE_ISO-EDGE_CUTS_GBR
 10
157.27506
 20
-102.103332
 30
0.00
  0
SEQEND
  0
POLYLINE
  8
IMP_EC_PLATE_ISO-EDGE_CUTS_GBR
 66
1
 10
0.00
 20
0.00
 30
0.00
 40
0.20
 41
0.20
  0
VERTEX
  8
IMP_EC_PLATE_ISO-EDGE_CUTS_GBR
 10
143.67506
 20
-101.103332
 30
0.00
  0
VERTEX
  8
IMP_EC_PLATE_ISO-EDGE_CUTS_GBR
 10
156.27506
 20
-101.103332
 30
0.00
  0
SEQEND
  0
POLYLINE
  8
IMP_EC_PLATE_ISO-EDGE_CUTS_GBR
 66
1
 10
0.00
 20
0.00
 30
0.00
 40
0.20
 41
0.20
  0
VERTEX
  8
IMP_EC_PLATE_ISO-EDGE_CUTS_GBR
 10
123.65506
 20
-102.103332
 30
0.00
  0
VERTEX
  8
IMP_EC_PLATE_ISO-EDGE_CUTS_GBR
 10
124.65506
 20
-101.103332
 30
0.00
  0
SEQEND
  0
POLYLINE
  8
IMP_EC_PLATE_ISO-EDGE_CUTS_GBR
 66
1
 10
0.00
 20
0.00
 30
0.00
 40
0.20
 41
0.20
  0
VERTEX
  8
IMP_EC_PLATE_ISO-EDGE_CUTS_GBR
 10
123.65506
 20
-114.103332
 30
0.00
  0
VERTEX
  8
IMP_EC_PLATE_ISO-EDGE_CUTS_GBR
 10
123.65506
 20
-102.103332
 30
0.00
  0
SEQEND
  0
POLYLINE
  8
IMP_EC_PLATE_ISO-EDGE_CUTS_GBR
 66
1
 10
0.00
 20
0.00
 30
0.00
 40
0.20
 41
0.20
  0
VERTEX
  8
IMP_EC_PLATE_ISO-EDGE_CUTS_GBR
 10
124.65506
 20
-115.103332
 30
0.00
  0
VERTEX
  8
IMP_EC_PLATE_ISO-EDGE_CUTS_GBR
 10
123.65506
 20
-114.103332
 30
0.00
  0
SEQEND
  0
POLYLINE
  8
IMP_EC_PLATE_ISO-EDGE_CUTS_GBR
 66
1
 10
0.00
 20
0.00
 30
0.00
 40
0.20
 41
0.20
  0
VERTEX
  8
IMP_EC_PLATE_ISO-EDGE_CUTS_GBR
 10
137.25506
 20
-115.103332
 30
0.00
  0
VERTEX
  8
IMP_EC_PLATE_ISO-EDGE_CUTS_GBR
 10
124.65506
 20
-115.103332
 30
0.00
  0
SEQEND
  0
POLYLINE
  8
IMP_EC_PLATE_ISO-EDGE_CUTS_GBR
 66
1
 10
0.00
 20
0.00
 30
0.00
 40
0.20
 41
0.20
  0
VERTEX
  8
IMP_EC_PLATE_ISO-EDGE_CUTS_GBR
 10
138.25506
 20
-114.103332
 30
0.00
  0
VERTEX
  8
IMP_EC_PLATE_ISO-EDGE_CUTS_GBR
 10
137.25506
 20
-115.103332
 30
0.00
  0
SEQEND
  0
POLYLINE
  8
IMP_EC_PLATE_ISO-EDGE_CUTS_GBR
 66
1
 10
0.00
 20
0.00
 30
0.00
 40
0.20
 41
0.20
  0
VERTEX
  8
IMP_EC_PLATE_ISO-EDGE_CUTS_GBR
 10
138.25506
 20
-102.103332
 30
0.00
  0
VERTEX
  8
IMP_EC_PLATE_ISO-EDGE_CUTS_GBR
 10
138.25506
 20
-114.103332
 30
0.00
  0
SEQEND
  0
POLYLINE
  8
IMP_EC_PLATE_ISO-EDGE_CUTS_GBR
 66
1
 10
0.00
 20
0.00
 30
0.00
 40
0.20
 41
0.20
  0
VERTEX
  8
IMP_EC_PLATE_ISO-EDGE_CUTS_GBR
 10
137.25506
 20
-101.103332
 30
0.00
  0
VERTEX
  8
IMP_EC_PLATE_ISO-EDGE_CUTS_GBR
 10
138.25506
 20
-102.103332
 30
0.00
  0
SEQEND
  0
POLYLINE
  8
IMP_EC_PLATE_ISO-EDGE_CUTS_GBR
 66
1
 10
0.00
 20
0.00
 30
0.00
 40
0.20
 41
0.20
  0
VERTEX
  8
IMP_EC_PLATE_ISO-EDGE_CUTS_GBR
 10
124.65506
 20
-101.103332
 30
0.00
  0
VERTEX
  8
IMP_EC_PLATE_ISO-EDGE_CUTS_GBR
 10
137.25506
 20
-101.103332
 30
0.00
  0
SEQEND
  0
POLYLINE
  8
IMP_EC_PLATE_ISO-EDGE_CUTS_GBR
 66
1
 10
0.00
 20
0.00
 30
0.00
 40
0.20
 41
0.20
  0
VERTEX
  8
IMP_EC_PLATE_ISO-EDGE_CUTS_GBR
 10
104.63506
 20
-102.103332
 30
0.00
  0
VERTEX
  8
IMP_EC_PLATE_ISO-EDGE_CUTS_GBR
 10
105.63506
 20
-101.103332
 30
0.00
  0
SEQEND
  0
POLYLINE
  8
IMP_EC_PLATE_ISO-EDGE_CUTS_GBR
 66
1
 10
0.00
 20
0.00
 30
0.00
 40
0.20
 41
0.20
  0
VERTEX
  8
IMP_EC_PLATE_ISO-EDGE_CUTS_GBR
 10
104.63506
 20
-114.103332
 30
0.00
  0
VERTEX
  8
IMP_EC_PLATE_ISO-EDGE_CUTS_GBR
 10
104.63506
 20
-102.103332
 30
0.00
  0
SEQEND
  0
POLYLINE
  8
IMP_EC_PLATE_ISO-EDGE_CUTS_GBR
 66
1
 10
0.00
 20
0.00
 30
0.00
 40
0.20
 41
0.20
  0
VERTEX
  8
IMP_EC_PLATE_ISO-EDGE_CUTS_GBR
 10
105.63506
 20
-115.103332
 30
0.00
  0
VERTEX
  8
IMP_EC_PLATE_ISO-EDGE_CUTS_GBR
 10
104.63506
 20
-114.103332
 30
0.00
  0
SEQEND
  0
POLYLINE
  8
IMP_EC_PLATE_ISO-EDGE_CUTS_GBR
 66
1
 10
0.00
 20
0.00
 30
0.00
 40
0.20
 41
0.20
  0
VERTEX
  8
IMP_EC_PLATE_ISO-EDGE_CUTS_GBR
 10
118.23506
 20
-115.103332
 30
0.00
  0
VERTEX
  8
IMP_EC_PLATE_ISO-EDGE_CUTS_GBR
 10
105.63506
 20
-115.103332
 30
0.00
  0
SEQEND
  0
POLYLINE
  8
IMP_EC_PLATE_ISO-EDGE_CUTS_GBR
 66
1
 10
0.00
 20
0.00
 30
0.00
 40
0.20
 41
0.20
  0
VERTEX
  8
IMP_EC_PLATE_ISO-EDGE_CUTS_GBR
 10
119.23506
 20
-114.103332
 30
0.00
  0
VERTEX
  8
IMP_EC_PLATE_ISO-EDGE_CUTS_GBR
 10
118.23506
 20
-115.103332
 30
0.00
  0
SEQEND
  0
POLYLINE
  8
IMP_EC_PLATE_ISO-EDGE_CUTS_GBR
 66
1
 10
0.00
 20
0.00
 30
0.00
 40
0.20
 41
0.20
  0
VERTEX
  8
IMP_EC_PLATE_ISO-EDGE_CUTS_GBR
 10
119.23506
 20
-102.103332
 30
0.00
  0
VERTEX
  8
IMP_EC_PLATE_ISO-EDGE_CUTS_GBR
 10
119.23506
 20
-114.103332
 30
0.00
  0
SEQEND
  0
POLYLINE
  8
IMP_EC_PLATE_ISO-EDGE_CUTS_GBR
 66
1
 10
0.00
 20
0.00
 30
0.00
 40
0.20
 41
0.20
  0
VERTEX
  8
IMP_EC_PLATE_ISO-EDGE_CUTS_GBR
 10
118.23506
 20
-101.103332
 30
0.00
  0
VERTEX
  8
IMP_EC_PLATE_ISO-EDGE_CUTS_GBR
 10
119.23506
 20
-102.103332
 30
0.00
  0
SEQEND
  0
POLYLINE
  8
IMP_EC_PLATE_ISO-EDGE_CUTS_GBR
 66
1
 10
0.00
 20
0.00
 30
0.00
 40
0.20
 41
0.20
  0
VERTEX
  8
IMP_EC_PLATE_ISO-EDGE_CUTS_GBR
 10
105.63506
 20
-101.103332
 30
0.00
  0
VERTEX
  8
IMP_EC_PLATE_ISO-EDGE_CUTS_GBR
 10
118.23506
 20
-101.103332
 30
0.00
  0
SEQEND
  0
POLYLINE
  8
IMP_EC_PLATE_ISO-EDGE_CUTS_GBR
 66
1
 10
0.00
 20
0.00
 30
0.00
 40
0.20
 41
0.20
  0
VERTEX
  8
IMP_EC_PLATE_ISO-EDGE_CUTS_GBR
 10
85.61506
 20
-102.103332
 30
0.00
  0
VERTEX
  8
IMP_EC_PLATE_ISO-EDGE_CUTS_GBR
 10
86.61506
 20
-101.103332
 30
0.00
  0
SEQEND
  0
POLYLINE
  8
IMP_EC_PLATE_ISO-EDGE_CUTS_GBR
 66
1
 10
0.00
 20
0.00
 30
0.00
 40
0.20
 41
0.20
  0
VERTEX
  8
IMP_EC_PLATE_ISO-EDGE_CUTS_GBR
 10
85.61506
 20
-114.103332
 30
0.00
  0
VERTEX
  8
IMP_EC_PLATE_ISO-EDGE_CUTS_GBR
 10
85.61506
 20
-102.103332
 30
0.00
  0
SEQEND
  0
POLYLINE
  8
IMP_EC_PLATE_ISO-EDGE_CUTS_GBR
 66
1
 10
0.00
 20
0.00
 30
0.00
 40
0.20
 41
0.20
  0
VERTEX
  8
IMP_EC_PLATE_ISO-EDGE_CUTS_GBR
 10
86.61506
 20
-115.103332
 30
0.00
  0
VERTEX
  8
IMP_EC_PLATE_ISO-EDGE_CUTS_GBR
 10
85.61506
 20
-114.103332
 30
0.00
  0
SEQEND
  0
POLYLINE
  8
IMP_EC_PLATE_ISO-EDGE_CUTS_GBR
 66
1
 10
0.00
 20
0.00
 30
0.00
 40
0.20
 41
0.20
  0
VERTEX
  8
IMP_EC_PLATE_ISO-EDGE_CUTS_GBR
 10
99.21506
 20
-115.103332
 30
0.00
  0
VERTEX
  8
IMP_EC_PLATE_ISO-EDGE_CUTS_GBR
 10
86.61506
 20
-115.103332
 30
0.00
  0
SEQEND
  0
POLYLINE
  8
IMP_EC_PLATE_ISO-EDGE_CUTS_GBR
 66
1
 10
0.00
 20
0.00
 30
0.00
 40
0.20
 41
0.20
  0
VERTEX
  8
IMP_EC_PLATE_ISO-EDGE_CUTS_GBR
 10
100.21506
 20
-114.103332
 30
0.00
  0
VERTEX
  8
IMP_EC_PLATE_ISO-EDGE_CUTS_GBR
 10
99.21506
 20
-115.103332
 30
0.00
  0
SEQEND
  0
POLYLINE
  8
IMP_EC_PLATE_ISO-EDGE_CUTS_GBR
 66
1
 10
0.00
 20
0.00
 30
0.00
 40
0.20
 41
0.20
  0
VERTEX
  8
IMP_EC_PLATE_ISO-EDGE_CUTS_GBR
 10
100.21506
 20
-102.103332
 30
0.00
  0
VERTEX
  8
IMP_EC_PLATE_ISO-EDGE_CUTS_GBR
 10
100.21506
 20
-114.103332
 30
0.00
  0
SEQEND
  0
POLYLINE
  8
IMP_EC_PLATE_ISO-EDGE_CUTS_GBR
 66
1
 10
0.00
 20
0.00
 30
0.00
 40
0.20
 41
0.20
  0
VERTEX
  8
IMP_EC_PLATE_ISO-EDGE_CUTS_GBR
 10
99.21506
 20
-101.103332
 30
0.00
  0
VERTEX
  8
IMP_EC_PLATE_ISO-EDGE_CUTS_GBR
 10
100.21506
 20
-102.103332
 30
0.00
  0
SEQEND
  0
POLYLINE
  8
IMP_EC_PLATE_ISO-EDGE_CUTS_GBR
 66
1
 10
0.00
 20
0.00
 30
0.00
 40
0.20
 41
0.20
  0
VERTEX
  8
IMP_EC_PLATE_ISO-EDGE_CUTS_GBR
 10
86.61506
 20
-101.103332
 30
0.00
  0
VERTEX
  8
IMP_EC_PLATE_ISO-EDGE_CUTS_GBR
 10
99.21506
 20
-101.103332
 30
0.00
  0
SEQEND
  0
POLYLINE
  8
IMP_EC_PLATE_ISO-EDGE_CUTS_GBR
 66
1
 10
0.00
 20
0.00
 30
0.00
 40
0.20
 41
0.20
  0
VERTEX
  8
IMP_EC_PLATE_ISO-EDGE_CUTS_GBR
 10
66.59506
 20
-102.103332
 30
0.00
  0
VERTEX
  8
IMP_EC_PLATE_ISO-EDGE_CUTS_GBR
 10
67.59506
 20
-101.103332
 30
0.00
  0
SEQEND
  0
POLYLINE
  8
IMP_EC_PLATE_ISO-EDGE_CUTS_GBR
 66
1
 10
0.00
 20
0.00
 30
0.00
 40
0.20
 41
0.20
  0
VERTEX
  8
IMP_EC_PLATE_ISO-EDGE_CUTS_GBR
 10
66.59506
 20
-114.103332
 30
0.00
  0
VERTEX
  8
IMP_EC_PLATE_ISO-EDGE_CUTS_GBR
 10
66.59506
 20
-102.103332
 30
0.00
  0
SEQEND
  0
POLYLINE
  8
IMP_EC_PLATE_ISO-EDGE_CUTS_GBR
 66
1
 10
0.00
 20
0.00
 30
0.00
 40
0.20
 41
0.20
  0
VERTEX
  8
IMP_EC_PLATE_ISO-EDGE_CUTS_GBR
 10
67.59506
 20
-115.103332
 30
0.00
  0
VERTEX
  8
IMP_EC_PLATE_ISO-EDGE_CUTS_GBR
 10
66.59506
 20
-114.103332
 30
0.00
  0
SEQEND
  0
POLYLINE
  8
IMP_EC_PLATE_ISO-EDGE_CUTS_GBR
 66
1
 10
0.00
 20
0.00
 30
0.00
 40
0.20
 41
0.20
  0
VERTEX
  8
IMP_EC_PLATE_ISO-EDGE_CUTS_GBR
 10
80.19506
 20
-115.103332
 30
0.00
  0
VERTEX
  8
IMP_EC_PLATE_ISO-EDGE_CUTS_GBR
 10
67.59506
 20
-115.103332
 30
0.00
  0
SEQEND
  0
POLYLINE
  8
IMP_EC_PLATE_ISO-EDGE_CUTS_GBR
 66
1
 10
0.00
 20
0.00
 30
0.00
 40
0.20
 41
0.20
  0
VERTEX
  8
IMP_EC_PLATE_ISO-EDGE_CUTS_GBR
 10
81.19506
 20
-114.103332
 30
0.00
  0
VERTEX
  8
IMP_EC_PLATE_ISO-EDGE_CUTS_GBR
 10
80.19506
 20
-115.103332
 30
0.00
  0
SEQEND
  0
POLYLINE
  8
IMP_EC_PLATE_ISO-EDGE_CUTS_GBR
 66
1
 10
0.00
 20
0.00
 30
0.00
 40
0.20
 41
0.20
  0
VERTEX
  8
IMP_EC_PLATE_ISO-EDGE_CUTS_GBR
 10
81.19506
 20
-102.103332
 30
0.00
  0
VERTEX
  8
IMP_EC_PLATE_ISO-EDGE_CUTS_GBR
 10
81.19506
 20
-114.103332
 30
0.00
  0
SEQEND
  0
POLYLINE
  8
IMP_EC_PLATE_ISO-EDGE_CUTS_GBR
 66
1
 10
0.00
 20
0.00
 30
0.00
 40
0.20
 41
0.20
  0
VERTEX
  8
IMP_EC_PLATE_ISO-EDGE_CUTS_GBR
 10
80.19506
 20
-101.103332
 30
0.00
  0
VERTEX
  8
IMP_EC_PLATE_ISO-EDGE_CUTS_GBR
 10
81.19506
 20
-102.103332
 30
0.00
  0
SEQEND
  0
POLYLINE
  8
IMP_EC_PLATE_ISO-EDGE_CUTS_GBR
 66
1
 10
0.00
 20
0.00
 30
0.00
 40
0.20
 41
0.20
  0
VERTEX
  8
IMP_EC_PLATE_ISO-EDGE_CUTS_GBR
 10
67.59506
 20
-101.103332
 30
0.00
  0
VERTEX
  8
IMP_EC_PLATE_ISO-EDGE_CUTS_GBR
 10
80.19506
 20
-101.103332
 30
0.00
  0
SEQEND
  0
POLYLINE
  8
IMP_EC_PLATE_ISO-EDGE_CUTS_GBR
 66
1
 10
0.00
 20
0.00
 30
0.00
 40
0.20
 41
0.20
  0
VERTEX
  8
IMP_EC_PLATE_ISO-EDGE_CUTS_GBR
 10
47.57506
 20
-102.103332
 30
0.00
  0
VERTEX
  8
IMP_EC_PLATE_ISO-EDGE_CUTS_GBR
 10
48.57506
 20
-101.103332
 30
0.00
  0
SEQEND
  0
POLYLINE
  8
IMP_EC_PLATE_ISO-EDGE_CUTS_GBR
 66
1
 10
0.00
 20
0.00
 30
0.00
 40
0.20
 41
0.20
  0
VERTEX
  8
IMP_EC_PLATE_ISO-EDGE_CUTS_GBR
 10
47.57506
 20
-114.103332
 30
0.00
  0
VERTEX
  8
IMP_EC_PLATE_ISO-EDGE_CUTS_GBR
 10
47.57506
 20
-102.103332
 30
0.00
  0
SEQEND
  0
POLYLINE
  8
IMP_EC_PLATE_ISO-EDGE_CUTS_GBR
 66
1
 10
0.00
 20
0.00
 30
0.00
 40
0.20
 41
0.20
  0
VERTEX
  8
IMP_EC_PLATE_ISO-EDGE_CUTS_GBR
 10
48.57506
 20
-115.103332
 30
0.00
  0
VERTEX
  8
IMP_EC_PLATE_ISO-EDGE_CUTS_GBR
 10
47.57506
 20
-114.103332
 30
0.00
  0
SEQEND
  0
POLYLINE
  8
IMP_EC_PLATE_ISO-EDGE_CUTS_GBR
 66
1
 10
0.00
 20
0.00
 30
0.00
 40
0.20
 41
0.20
  0
VERTEX
  8
IMP_EC_PLATE_ISO-EDGE_CUTS_GBR
 10
61.17506
 20
-115.103332
 30
0.00
  0
VERTEX
  8
IMP_EC_PLATE_ISO-EDGE_CUTS_GBR
 10
48.57506
 20
-115.103332
 30
0.00
  0
SEQEND
  0
POLYLINE
  8
IMP_EC_PLATE_ISO-EDGE_CUTS_GBR
 66
1
 10
0.00
 20
0.00
 30
0.00
 40
0.20
 41
0.20
  0
VERTEX
  8
IMP_EC_PLATE_ISO-EDGE_CUTS_GBR
 10
62.17506
 20
-114.103332
 30
0.00
  0
VERTEX
  8
IMP_EC_PLATE_ISO-EDGE_CUTS_GBR
 10
61.17506
 20
-115.103332
 30
0.00
  0
SEQEND
  0
POLYLINE
  8
IMP_EC_PLATE_ISO-EDGE_CUTS_GBR
 66
1
 10
0.00
 20
0.00
 30
0.00
 40
0.20
 41
0.20
  0
VERTEX
  8
IMP_EC_PLATE_ISO-EDGE_CUTS_GBR
 10
62.17506
 20
-102.103332
 30
0.00
  0
VERTEX
  8
IMP_EC_PLATE_ISO-EDGE_CUTS_GBR
 10
62.17506
 20
-114.103332
 30
0.00
  0
SEQEND
  0
POLYLINE
  8
IMP_EC_PLATE_ISO-EDGE_CUTS_GBR
 66
1
 10
0.00
 20
0.00
 30
0.00
 40
0.20
 41
0.20
  0
VERTEX
  8
IMP_EC_PLATE_ISO-EDGE_CUTS_GBR
 10
61.17506
 20
-101.103332
 30
0.00
  0
VERTEX
  8
IMP_EC_PLATE_ISO-EDGE_CUTS_GBR
 10
62.17506
 20
-102.103332
 30
0.00
  0
SEQEND
  0
POLYLINE
  8
IMP_EC_PLATE_ISO-EDGE_CUTS_GBR
 66
1
 10
0.00
 20
0.00
 30
0.00
 40
0.20
 41
0.20
  0
VERTEX
  8
IMP_EC_PLATE_ISO-EDGE_CUTS_GBR
 10
48.57506
 20
-101.103332
 30
0.00
  0
VERTEX
  8
IMP_EC_PLATE_ISO-EDGE_CUTS_GBR
 10
61.17506
 20
-101.103332
 30
0.00
  0
SEQEND
  0
POLYLINE
  8
IMP_EC_PLATE_ISO-EDGE_CUTS_GBR
 66
1
 10
0.00
 20
0.00
 30
0.00
 40
0.20
 41
0.20
  0
VERTEX
  8
IMP_EC_PLATE_ISO-EDGE_CUTS_GBR
 10
47.57506
 20
-79.003332
 30
0.00
  0
VERTEX
  8
IMP_EC_PLATE_ISO-EDGE_CUTS_GBR
 10
48.57506
 20
-78.003332
 30
0.00
  0
SEQEND
  0
POLYLINE
  8
IMP_EC_PLATE_ISO-EDGE_CUTS_GBR
 66
1
 10
0.00
 20
0.00
 30
0.00
 40
0.20
 41
0.20
  0
VERTEX
  8
IMP_EC_PLATE_ISO-EDGE_CUTS_GBR
 10
47.57506
 20
-91.003332
 30
0.00
  0
VERTEX
  8
IMP_EC_PLATE_ISO-EDGE_CUTS_GBR
 10
47.57506
 20
-79.003332
 30
0.00
  0
SEQEND
  0
POLYLINE
  8
IMP_EC_PLATE_ISO-EDGE_CUTS_GBR
 66
1
 10
0.00
 20
0.00
 30
0.00
 40
0.20
 41
0.20
  0
VERTEX
  8
IMP_EC_PLATE_ISO-EDGE_CUTS_GBR
 10
48.57506
 20
-92.003332
 30
0.00
  0
VERTEX
  8
IMP_EC_PLATE_ISO-EDGE_CUTS_GBR
 10
47.57506
 20
-91.003332
 30
0.00
  0
SEQEND
  0
POLYLINE
  8
IMP_EC_PLATE_ISO-EDGE_CUTS_GBR
 66
1
 10
0.00
 20
0.00
 30
0.00
 40
0.20
 41
0.20
  0
VERTEX
  8
IMP_EC_PLATE_ISO-EDGE_CUTS_GBR
 10
61.17506
 20
-92.003332
 30
0.00
  0
VERTEX
  8
IMP_EC_PLATE_ISO-EDGE_CUTS_GBR
 10
48.57506
 20
-92.003332
 30
0.00
  0
SEQEND
  0
POLYLINE
  8
IMP_EC_PLATE_ISO-EDGE_CUTS_GBR
 66
1
 10
0.00
 20
0.00
 30
0.00
 40
0.20
 41
0.20
  0
VERTEX
  8
IMP_EC_PLATE_ISO-EDGE_CUTS_GBR
 10
62.17506
 20
-91.003332
 30
0.00
  0
VERTEX
  8
IMP_EC_PLATE_ISO-EDGE_CUTS_GBR
 10
61.17506
 20
-92.003332
 30
0.00
  0
SEQEND
  0
POLYLINE
  8
IMP_EC_PLATE_ISO-EDGE_CUTS_GBR
 66
1
 10
0.00
 20
0.00
 30
0.00
 40
0.20
 41
0.20
  0
VERTEX
  8
IMP_EC_PLATE_ISO-EDGE_CUTS_GBR
 10
62.17506
 20
-79.003332
 30
0.00
  0
VERTEX
  8
IMP_EC_PLATE_ISO-EDGE_CUTS_GBR
 10
62.17506
 20
-91.003332
 30
0.00
  0
SEQEND
  0
POLYLINE
  8
IMP_EC_PLATE_ISO-EDGE_CUTS_GBR
 66
1
 10
0.00
 20
0.00
 30
0.00
 40
0.20
 41
0.20
  0
VERTEX
  8
IMP_EC_PLATE_ISO-EDGE_CUTS_GBR
 10
61.17506
 20
-78.003332
 30
0.00
  0
VERTEX
  8
IMP_EC_PLATE_ISO-EDGE_CUTS_GBR
 10
62.17506
 20
-79.003332
 30
0.00
  0
SEQEND
  0
POLYLINE
  8
IMP_EC_PLATE_ISO-EDGE_CUTS_GBR
 66
1
 10
0.00
 20
0.00
 30
0.00
 40
0.20
 41
0.20
  0
VERTEX
  8
IMP_EC_PLATE_ISO-EDGE_CUTS_GBR
 10
48.57506
 20
-78.003332
 30
0.00
  0
VERTEX
  8
IMP_EC_PLATE_ISO-EDGE_CUTS_GBR
 10
61.17506
 20
-78.003332
 30
0.00
  0
SEQEND
  0
POLYLINE
  8
IMP_EC_PLATE_ISO-EDGE_CUTS_GBR
 66
1
 10
0.00
 20
0.00
 30
0.00
 40
0.20
 41
0.20
  0
VERTEX
  8
IMP_EC_PLATE_ISO-EDGE_CUTS_GBR
 10
159.87506
 20
-197.303332
 30
0.00
 42
1.00
  0
VERTEX
  8
IMP_EC_PLATE_ISO-EDGE_CUTS_GBR
 10
165.87506
 20
-197.303332
 30
0.00
 42
0.00
  0
SEQEND
  0
POLYLINE
  8
IMP_EC_PLATE_ISO-EDGE_CUTS_GBR
 66
1
 10
0.00
 20
0.00
 30
0.00
 40
0.20
 41
0.20
  0
VERTEX
  8
IMP_EC_PLATE_ISO-EDGE_CUTS_GBR
 10
159.87506
 20
-196.303332
 30
0.00
 42
0.4142136
  0
VERTEX
  8
IMP_EC_PLATE_ISO-EDGE_CUTS_GBR
 10
157.87506
 20
-194.303332
 30
0.00
 42
0.00
  0
SEQEND
  0
POLYLINE
  8
IMP_EC_PLATE_ISO-EDGE_CUTS_GBR
 66
1
 10
0.00
 20
0.00
 30
0.00
 70
1
 40
0.20
 41
0.20
  0
VERTEX
  8
IMP_EC_PLATE_ISO-EDGE_CUTS_GBR
 10
161.27506
 20
-197.303332
 30
0.00
 42
1
  0
VERTEX
  8
IMP_EC_PLATE_ISO-EDGE_CUTS_GBR
 10
164.47506
 20
-197.303332
 30
0.00
 42
1
  0
SEQEND
  0
POLYLINE
  8
IMP_EC_PLATE_ISO-EDGE_CUTS_GBR
 66
1
 10
0.00
 20
0.00
 30
0.00
 40
0.20
 41
0.20
  0
VERTEX
  8
IMP_EC_PLATE_ISO-EDGE_CUTS_GBR
 10
167.87506
 20
-194.303332
 30
0.00
 42
0.4142136
  0
VERTEX
  8
IMP_EC_PLATE_ISO-EDGE_CUTS_GBR
 10
165.87506
 20
-196.303332
 30
0.00
 42
0.00
  0
SEQEND
  0
POLYLINE
  8
IMP_EC_PLATE_ISO-EDGE_CUTS_GBR
 66
1
 10
0.00
 20
0.00
 30
0.00
 70
1
 40
0.20
 41
0.20
  0
VERTEX
  8
IMP_EC_PLATE_ISO-EDGE_CUTS_GBR
 10
51.27506
 20
-197.303332
 30
0.00
 42
1
  0
VERTEX
  8
IMP_EC_PLATE_ISO-EDGE_CUTS_GBR
 10
54.47506
 20
-197.303332
 30
0.00
 42
1
  0
SEQEND
  0
POLYLINE
  8
IMP_EC_PLATE_ISO-EDGE_CUTS_GBR
 66
1
 10
0.00
 20
0.00
 30
0.00
 40
0.20
 41
0.20
  0
VERTEX
  8
IMP_EC_PLATE_ISO-EDGE_CUTS_GBR
 10
57.87506
 20
-194.303332
 30
0.00
 42
0.4142136
  0
VERTEX
  8
IMP_EC_PLATE_ISO-EDGE_CUTS_GBR
 10
55.87506
 20
-196.303332
 30
0.00
 42
0.00
  0
SEQEND
  0
POLYLINE
  8
IMP_EC_PLATE_ISO-EDGE_CUTS_GBR
 66
1
 10
0.00
 20
0.00
 30
0.00
 40
0.20
 41
0.20
  0
VERTEX
  8
IMP_EC_PLATE_ISO-EDGE_CUTS_GBR
 10
49.87506
 20
-196.303332
 30
0.00
 42
0.4142136
  0
VERTEX
  8
IMP_EC_PLATE_ISO-EDGE_CUTS_GBR
 10
47.87506
 20
-194.303332
 30
0.00
 42
0.00
  0
SEQEND
  0
POLYLINE
  8
IMP_EC_PLATE_ISO-EDGE_CUTS_GBR
 66
1
 10
0.00
 20
0.00
 30
0.00
 40
0.20
 41
0.20
  0
VERTEX
  8
IMP_EC_PLATE_ISO-EDGE_CUTS_GBR
 10
49.87506
 20
-197.303332
 30
0.00
 42
1.00
  0
VERTEX
  8
IMP_EC_PLATE_ISO-EDGE_CUTS_GBR
 10
55.87506
 20
-197.303332
 30
0.00
 42
0.00
  0
SEQEND
  0
POLYLINE
  8
IMP_EC_PLATE_ISO-EDGE_CUTS_GBR
 66
1
 10
0.00
 20
0.00
 30
0.00
 40
0.20
 41
0.20
  0
VERTEX
  8
IMP_EC_PLATE_ISO-EDGE_CUTS_GBR
 10
326.16251
 20
-197.303332
 30
0.00
  0
VERTEX
  8
IMP_EC_PLATE_ISO-EDGE_CUTS_GBR
 10
326.16251
 20
-196.303332
 30
0.00
  0
SEQEND
  0
POLYLINE
  8
IMP_EC_PLATE_ISO-EDGE_CUTS_GBR
 66
1
 10
0.00
 20
0.00
 30
0.00
 40
0.20
 41
0.20
  0
VERTEX
  8
IMP_EC_PLATE_ISO-EDGE_CUTS_GBR
 10
326.16251
 20
-72.053332
 30
0.00
  0
VERTEX
  8
IMP_EC_PLATE_ISO-EDGE_CUTS_GBR
 10
326.16251
 20
-73.053332
 30
0.00
  0
SEQEND
  0
POLYLINE
  8
IMP_EC_PLATE_ISO-EDGE_CUTS_GBR
 66
1
 10
0.00
 20
0.00
 30
0.00
 40
0.20
 41
0.20
  0
VERTEX
  8
IMP_EC_PLATE_ISO-EDGE_CUTS_GBR
 10
320.16251
 20
-73.053332
 30
0.00
  0
VERTEX
  8
IMP_EC_PLATE_ISO-EDGE_CUTS_GBR
 10
320.16251
 20
-72.053332
 30
0.00
  0
SEQEND
  0
POLYLINE
  8
IMP_EC_PLATE_ISO-EDGE_CUTS_GBR
 66
1
 10
0.00
 20
0.00
 30
0.00
 40
0.20
 41
0.20
  0
VERTEX
  8
IMP_EC_PLATE_ISO-EDGE_CUTS_GBR
 10
320.16251
 20
-196.303332
 30
0.00
  0
VERTEX
  8
IMP_EC_PLATE_ISO-EDGE_CUTS_GBR
 10
320.16251
 20
-197.303332
 30
0.00
  0
SEQEND
  0
POLYLINE
  8
IMP_EC_PLATE_ISO-EDGE_CUTS_GBR
 66
1
 10
0.00
 20
0.00
 30
0.00
 40
0.20
 41
0.20
  0
VERTEX
  8
IMP_EC_PLATE_ISO-EDGE_CUTS_GBR
 10
43.62506
 20
-192.303332
 30
0.00
 42
0.4142136
  0
VERTEX
  8
IMP_EC_PLATE_ISO-EDGE_CUTS_GBR
 10
45.62506
 20
-194.303332
 30
0.00
 42
0.00
  0
SEQEND
  0
POLYLINE
  8
IMP_EC_PLATE_ISO-EDGE_CUTS_GBR
 66
1
 10
0.00
 20
0.00
 30
0.00
 40
0.20
 41
0.20
  0
VERTEX
  8
IMP_EC_PLATE_ISO-EDGE_CUTS_GBR
 10
270.97506
 20
-197.303332
 30
0.00
  0
VERTEX
  8
IMP_EC_PLATE_ISO-EDGE_CUTS_GBR
 10
270.97506
 20
-196.303332
 30
0.00
  0
SEQEND
  0
POLYLINE
  8
IMP_EC_PLATE_ISO-EDGE_CUTS_GBR
 66
1
 10
0.00
 20
0.00
 30
0.00
 40
0.20
 41
0.20
  0
VERTEX
  8
IMP_EC_PLATE_ISO-EDGE_CUTS_GBR
 10
276.97506
 20
-197.303332
 30
0.00
  0
VERTEX
  8
IMP_EC_PLATE_ISO-EDGE_CUTS_GBR
 10
276.97506
 20
-196.303332
 30
0.00
  0
SEQEND
  0
POLYLINE
  8
IMP_EC_PLATE_ISO-EDGE_CUTS_GBR
 66
1
 10
0.00
 20
0.00
 30
0.00
 40
0.20
 41
0.20
  0
VERTEX
  8
IMP_EC_PLATE_ISO-EDGE_CUTS_GBR
 10
230.16251
 20
-73.053332
 30
0.00
  0
VERTEX
  8
IMP_EC_PLATE_ISO-EDGE_CUTS_GBR
 10
230.16251
 20
-72.053332
 30
0.00
  0
SEQEND
  0
POLYLINE
  8
IMP_EC_PLATE_ISO-EDGE_CUTS_GBR
 66
1
 10
0.00
 20
0.00
 30
0.00
 40
0.20
 41
0.20
  0
VERTEX
  8
IMP_EC_PLATE_ISO-EDGE_CUTS_GBR
 10
236.16251
 20
-72.053332
 30
0.00
  0
VERTEX
  8
IMP_EC_PLATE_ISO-EDGE_CUTS_GBR
 10
236.16251
 20
-73.053332
 30
0.00
  0
SEQEND
  0
POLYLINE
  8
IMP_EC_PLATE_ISO-EDGE_CUTS_GBR
 66
1
 10
0.00
 20
0.00
 30
0.00
 40
0.20
 41
0.20
  0
VERTEX
  8
IMP_EC_PLATE_ISO-EDGE_CUTS_GBR
 10
165.87506
 20
-197.303332
 30
0.00
  0
VERTEX
  8
IMP_EC_PLATE_ISO-EDGE_CUTS_GBR
 10
165.87506
 20
-196.303332
 30
0.00
  0
SEQEND
  0
POLYLINE
  8
IMP_EC_PLATE_ISO-EDGE_CUTS_GBR
 66
1
 10
0.00
 20
0.00
 30
0.00
 40
0.20
 41
0.20
  0
VERTEX
  8
IMP_EC_PLATE_ISO-EDGE_CUTS_GBR
 10
159.87506
 20
-197.303332
 30
0.00
  0
VERTEX
  8
IMP_EC_PLATE_ISO-EDGE_CUTS_GBR
 10
159.87506
 20
-196.303332
 30
0.00
  0
SEQEND
  0
POLYLINE
  8
IMP_EC_PLATE_ISO-EDGE_CUTS_GBR
 66
1
 10
0.00
 20
0.00
 30
0.00
 40
0.20
 41
0.20
  0
VERTEX
  8
IMP_EC_PLATE_ISO-EDGE_CUTS_GBR
 10
145.87506
 20
-72.053332
 30
0.00
  0
VERTEX
  8
IMP_EC_PLATE_ISO-EDGE_CUTS_GBR
 10
145.87506
 20
-73.053332
 30
0.00
  0
SEQEND
  0
POLYLINE
  8
IMP_EC_PLATE_ISO-EDGE_CUTS_GBR
 66
1
 10
0.00
 20
0.00
 30
0.00
 40
0.20
 41
0.20
  0
VERTEX
  8
IMP_EC_PLATE_ISO-EDGE_CUTS_GBR
 10
139.87506
 20
-73.053332
 30
0.00
  0
VERTEX
  8
IMP_EC_PLATE_ISO-EDGE_CUTS_GBR
 10
139.87506
 20
-72.053332
 30
0.00
  0
SEQEND
  0
POLYLINE
  8
IMP_EC_PLATE_ISO-EDGE_CUTS_GBR
 66
1
 10
0.00
 20
0.00
 30
0.00
 40
0.20
 41
0.20
  0
VERTEX
  8
IMP_EC_PLATE_ISO-EDGE_CUTS_GBR
 10
137.87506
 20
-75.053332
 30
0.00
  0
VERTEX
  8
IMP_EC_PLATE_ISO-EDGE_CUTS_GBR
 10
57.87506
 20
-75.053332
 30
0.00
  0
SEQEND
  0
POLYLINE
  8
IMP_EC_PLATE_ISO-EDGE_CUTS_GBR
 66
1
 10
0.00
 20
0.00
 30
0.00
 40
0.20
 41
0.20
  0
VERTEX
  8
IMP_EC_PLATE_ISO-EDGE_CUTS_GBR
 10
228.16251
 20
-75.053332
 30
0.00
  0
VERTEX
  8
IMP_EC_PLATE_ISO-EDGE_CUTS_GBR
 10
147.87506
 20
-75.053332
 30
0.00
  0
SEQEND
  0
POLYLINE
  8
IMP_EC_PLATE_ISO-EDGE_CUTS_GBR
 66
1
 10
0.00
 20
0.00
 30
0.00
 40
0.20
 41
0.20
  0
VERTEX
  8
IMP_EC_PLATE_ISO-EDGE_CUTS_GBR
 10
318.16251
 20
-75.053332
 30
0.00
  0
VERTEX
  8
IMP_EC_PLATE_ISO-EDGE_CUTS_GBR
 10
238.16251
 20
-75.053332
 30
0.00
  0
SEQEND
  0
POLYLINE
  8
IMP_EC_PLATE_ISO-EDGE_CUTS_GBR
 66
1
 10
0.00
 20
0.00
 30
0.00
 70
1
 40
0.20
 41
0.20
  0
VERTEX
  8
IMP_EC_PLATE_ISO-EDGE_CUTS_GBR
 10
382.37506
 20
-72.053332
 30
0.00
 42
1
  0
VERTEX
  8
IMP_EC_PLATE_ISO-EDGE_CUTS_GBR
 10
385.57506
 20
-72.053332
 30
0.00
 42
1
  0
SEQEND
  0
POLYLINE
  8
IMP_EC_PLATE_ISO-EDGE_CUTS_GBR
 66
1
 10
0.00
 20
0.00
 30
0.00
 40
0.20
 41
0.20
  0
VERTEX
  8
IMP_EC_PLATE_ISO-EDGE_CUTS_GBR
 10
388.97506
 20
-75.053332
 30
0.00
  0
VERTEX
  8
IMP_EC_PLATE_ISO-EDGE_CUTS_GBR
 10
390.87506
 20
-75.053332
 30
0.00
  0
SEQEND
  0
POLYLINE
  8
IMP_EC_PLATE_ISO-EDGE_CUTS_GBR
 66
1
 10
0.00
 20
0.00
 30
0.00
 40
0.20
 41
0.20
  0
VERTEX
  8
IMP_EC_PLATE_ISO-EDGE_CUTS_GBR
 10
378.97506
 20
-194.303332
 30
0.00
  0
VERTEX
  8
IMP_EC_PLATE_ISO-EDGE_CUTS_GBR
 10
346.953474
 20
-194.303332
 30
0.00
  0
SEQEND
  0
POLYLINE
  8
IMP_EC_PLATE_ISO-EDGE_CUTS_GBR
 66
1
 10
0.00
 20
0.00
 30
0.00
 40
0.20
 41
0.20
  0
VERTEX
  8
IMP_EC_PLATE_ISO-EDGE_CUTS_GBR
 10
378.97506
 20
-75.053332
 30
0.00
 42
0.4142136
  0
VERTEX
  8
IMP_EC_PLATE_ISO-EDGE_CUTS_GBR
 10
380.97506
 20
-73.053332
 30
0.00
 42
0.00
  0
SEQEND
  0
POLYLINE
  8
IMP_EC_PLATE_ISO-EDGE_CUTS_GBR
 66
1
 10
0.00
 20
0.00
 30
0.00
 40
0.20
 41
0.20
  0
VERTEX
  8
IMP_EC_PLATE_ISO-EDGE_CUTS_GBR
 10
386.97506
 20
-72.053332
 30
0.00
 42
1.0000004
  0
VERTEX
  8
IMP_EC_PLATE_ISO-EDGE_CUTS_GBR
 10
380.97506
 20
-72.053334
 30
0.00
 42
0.00
  0
SEQEND
  0
POLYLINE
  8
IMP_EC_PLATE_ISO-EDGE_CUTS_GBR
 66
1
 10
0.00
 20
0.00
 30
0.00
 40
0.20
 41
0.20
  0
VERTEX
  8
IMP_EC_PLATE_ISO-EDGE_CUTS_GBR
 10
392.87506
 20
-77.053332
 30
0.00
 42
0.4142136
  0
VERTEX
  8
IMP_EC_PLATE_ISO-EDGE_CUTS_GBR
 10
390.87506
 20
-75.053332
 30
0.00
 42
0.00
  0
SEQEND
  0
POLYLINE
  8
IMP_EC_PLATE_ISO-EDGE_CUTS_GBR
 66
1
 10
0.00
 20
0.00
 30
0.00
 40
0.20
 41
0.20
  0
VERTEX
  8
IMP_EC_PLATE_ISO-EDGE_CUTS_GBR
 10
47.87506
 20
-75.053332
 30
0.00
  0
VERTEX
  8
IMP_EC_PLATE_ISO-EDGE_CUTS_GBR
 10
45.62506
 20
-75.053332
 30
0.00
  0
SEQEND
  0
POLYLINE
  8
IMP_EC_PLATE_ISO-EDGE_CUTS_GBR
 66
1
 10
0.00
 20
0.00
 30
0.00
 40
0.20
 41
0.20
  0
VERTEX
  8
IMP_EC_PLATE_ISO-EDGE_CUTS_GBR
 10
47.87506
 20
-194.303332
 30
0.00
  0
VERTEX
  8
IMP_EC_PLATE_ISO-EDGE_CUTS_GBR
 10
45.62506
 20
-194.303332
 30
0.00
  0
SEQEND
  0
POLYLINE
  8
IMP_EC_PLATE_ISO-EDGE_CUTS_GBR
 66
1
 10
0.00
 20
0.00
 30
0.00
 40
0.20
 41
0.20
  0
VERTEX
  8
IMP_EC_PLATE_ISO-EDGE_CUTS_GBR
 10
318.16251
 20
-194.303332
 30
0.00
  0
VERTEX
  8
IMP_EC_PLATE_ISO-EDGE_CUTS_GBR
 10
278.97506
 20
-194.303332
 30
0.00
  0
SEQEND
  0
POLYLINE
  8
IMP_EC_PLATE_ISO-EDGE_CUTS_GBR
 66
1
 10
0.00
 20
0.00
 30
0.00
 40
0.20
 41
0.20
  0
VERTEX
  8
IMP_EC_PLATE_ISO-EDGE_CUTS_GBR
 10
346.953474
 20
-75.053332
 30
0.00
  0
VERTEX
  8
IMP_EC_PLATE_ISO-EDGE_CUTS_GBR
 10
378.97506
 20
-75.053332
 30
0.00
  0
SEQEND
  0
POLYLINE
  8
IMP_EC_PLATE_ISO-EDGE_CUTS_GBR
 66
1
 10
0.00
 20
0.00
 30
0.00
 40
0.20
 41
0.20
  0
VERTEX
  8
IMP_EC_PLATE_ISO-EDGE_CUTS_GBR
 10
386.97506
 20
-73.053332
 30
0.00
 42
0.4142136
  0
VERTEX
  8
IMP_EC_PLATE_ISO-EDGE_CUTS_GBR
 10
388.97506
 20
-75.053332
 30
0.00
 42
0.00
  0
SEQEND
  0
POLYLINE
  8
IMP_EC_PLATE_ISO-EDGE_CUTS_GBR
 66
1
 10
0.00
 20
0.00
 30
0.00
 40
0.20
 41
0.20
  0
VERTEX
  8
IMP_EC_PLATE_ISO-EDGE_CUTS_GBR
 10
157.87506
 20
-194.303332
 30
0.00
  0
VERTEX
  8
IMP_EC_PLATE_ISO-EDGE_CUTS_GBR
 10
57.87506
 20
-194.303332
 30
0.00
  0
SEQEND
  0
POLYLINE
  8
IMP_EC_PLATE_ISO-EDGE_CUTS_GBR
 66
1
 10
0.00
 20
0.00
 30
0.00
 40
0.20
 41
0.20
  0
VERTEX
  8
IMP_EC_PLATE_ISO-EDGE_CUTS_GBR
 10
268.97506
 20
-194.303332
 30
0.00
  0
VERTEX
  8
IMP_EC_PLATE_ISO-EDGE_CUTS_GBR
 10
167.87506
 20
-194.303332
 30
0.00
  0
SEQEND
  0
POLYLINE
  8
IMP_EC_PLATE_ISO-EDGE_CUTS_GBR
 66
1
 10
0.00
 20
0.00
 30
0.00
 70
1
 40
0.20
 41
0.20
  0
VERTEX
  8
IMP_EC_PLATE_ISO-EDGE_CUTS_GBR
 10
384.653474
 20
-144.153332
 30
0.00
 42
1
  0
VERTEX
  8
IMP_EC_PLATE_ISO-EDGE_CUTS_GBR
 10
389.753474
 20
-144.153332
 30
0.00
 42
1
  0
SEQEND
  0
POLYLINE
  8
IMP_EC_PLATE_ISO-EDGE_CUTS_GBR
 66
1
 10
0.00
 20
0.00
 30
0.00
 70
1
 40
0.20
 41
0.20
  0
VERTEX
  8
IMP_EC_PLATE_ISO-EDGE_CUTS_GBR
 10
382.37506
 20
-197.303332
 30
0.00
 42
1
  0
VERTEX
  8
IMP_EC_PLATE_ISO-EDGE_CUTS_GBR
 10
385.57506
 20
-197.303332
 30
0.00
 42
1
  0
SEQEND
  0
POLYLINE
  8
IMP_EC_PLATE_ISO-EDGE_CUTS_GBR
 66
1
 10
0.00
 20
0.00
 30
0.00
 40
0.20
 41
0.20
  0
VERTEX
  8
IMP_EC_PLATE_ISO-EDGE_CUTS_GBR
 10
388.97506
 20
-194.303332
 30
0.00
 42
0.4142136
  0
VERTEX
  8
IMP_EC_PLATE_ISO-EDGE_CUTS_GBR
 10
386.97506
 20
-196.303332
 30
0.00
 42
0.00
  0
SEQEND
  0
POLYLINE
  8
IMP_EC_PLATE_ISO-EDGE_CUTS_GBR
 66
1
 10
0.00
 20
0.00
 30
0.00
 40
0.20
 41
0.20
  0
VERTEX
  8
IMP_EC_PLATE_ISO-EDGE_CUTS_GBR
 10
375.297026
 20
-154.370436
 30
0.00
 42
0.4142136
  0
VERTEX
  8
IMP_EC_PLATE_ISO-EDGE_CUTS_GBR
 10
377.297026
 20
-152.370436
 30
0.00
 42
0.00
  0
SEQEND
  0
POLYLINE
  8
IMP_EC_PLATE_ISO-EDGE_CUTS_GBR
 66
1
 10
0.00
 20
0.00
 30
0.00
 40
0.20
 41
0.20
  0
VERTEX
  8
IMP_EC_PLATE_ISO-EDGE_CUTS_GBR
 10
377.297026
 20
-140.153332
 30
0.00
 42
0.4142136
  0
VERTEX
  8
IMP_EC_PLATE_ISO-EDGE_CUTS_GBR
 10
375.297026
 20
-138.153332
 30
0.00
 42
0.00
  0
SEQEND
  0
POLYLINE
  8
IMP_EC_PLATE_ISO-EDGE_CUTS_GBR
 66
1
 10
0.00
 20
0.00
 30
0.00
 40
0.20
 41
0.20
  0
VERTEX
  8
IMP_EC_PLATE_ISO-EDGE_CUTS_GBR
 10
380.97506
 20
-196.303332
 30
0.00
 42
0.4142136
  0
VERTEX
  8
IMP_EC_PLATE_ISO-EDGE_CUTS_GBR
 10
378.97506
 20
-194.303332
 30
0.00
 42
0.00
  0
SEQEND
  0
POLYLINE
  8
IMP_EC_PLATE_ISO-EDGE_CUTS_GBR
 66
1
 10
0.00
 20
0.00
 30
0.00
 40
0.20
 41
0.20
  0
VERTEX
  8
IMP_EC_PLATE_ISO-EDGE_CUTS_GBR
 10
390.87506
 20
-194.303332
 30
0.00
 42
0.4142136
  0
VERTEX
  8
IMP_EC_PLATE_ISO-EDGE_CUTS_GBR
 10
392.87506
 20
-192.303332
 30
0.00
 42
0.00
  0
SEQEND
  0
POLYLINE
  8
IMP_EC_PLATE_ISO-EDGE_CUTS_GBR
 66
1
 10
0.00
 20
0.00
 30
0.00
 40
0.20
 41
0.20
  0
VERTEX
  8
IMP_EC_PLATE_ISO-EDGE_CUTS_GBR
 10
380.97506
 20
-197.303332
 30
0.00
 42
1.00
  0
VERTEX
  8
IMP_EC_PLATE_ISO-EDGE_CUTS_GBR
 10
386.97506
 20
-197.303332
 30
0.00
 42
0.00
  0
SEQEND
  0
POLYLINE
  8
IMP_EC_PLATE_ISO-EDGE_CUTS_GBR
 66
1
 10
0.00
 20
0.00
 30
0.00
 40
0.20
 41
0.20
  0
VERTEX
  8
IMP_EC_PLATE_ISO-EDGE_CUTS_GBR
 10
344.953474
 20
-73.053332
 30
0.00
 42
0.4142136
  0
VERTEX
  8
IMP_EC_PLATE_ISO-EDGE_CUTS_GBR
 10
346.953474
 20
-75.053332
 30
0.00
 42
0.00
  0
SEQEND
  0
POLYLINE
  8
IMP_EC_PLATE_ISO-EDGE_CUTS_GBR
 66
1
 10
0.00
 20
0.00
 30
0.00
 70
1
 40
0.20
 41
0.20
  0
VERTEX
  8
IMP_EC_PLATE_ISO-EDGE_CUTS_GBR
 10
384.653474
 20
-167.303332
 30
0.00
 42
1
  0
VERTEX
  8
IMP_EC_PLATE_ISO-EDGE_CUTS_GBR
 10
389.753474
 20
-167.303332
 30
0.00
 42
1
  0
SEQEND
  0
POLYLINE
  8
IMP_EC_PLATE_ISO-EDGE_CUTS_GBR
 66
1
 10
0.00
 20
0.00
 30
0.00
 70
1
 40
0.20
 41
0.20
  0
VERTEX
  8
IMP_EC_PLATE_ISO-EDGE_CUTS_GBR
 10
384.653474
 20
-155.728332
 30
0.00
 42
1
  0
VERTEX
  8
IMP_EC_PLATE_ISO-EDGE_CUTS_GBR
 10
389.753474
 20
-155.728332
 30
0.00
 42
1
  0
SEQEND
  0
POLYLINE
  8
IMP_EC_PLATE_ISO-EDGE_CUTS_GBR
 66
1
 10
0.00
 20
0.00
 30
0.00
 70
1
 40
0.20
 41
0.20
  0
VERTEX
  8
IMP_EC_PLATE_ISO-EDGE_CUTS_GBR
 10
340.353474
 20
-72.053332
 30
0.00
 42
1
  0
VERTEX
  8
IMP_EC_PLATE_ISO-EDGE_CUTS_GBR
 10
343.553474
 20
-72.053332
 30
0.00
 42
1
  0
SEQEND
  0
POLYLINE
  8
IMP_EC_PLATE_ISO-EDGE_CUTS_GBR
 66
1
 10
0.00
 20
0.00
 30
0.00
 40
0.20
 41
0.20
  0
VERTEX
  8
IMP_EC_PLATE_ISO-EDGE_CUTS_GBR
 10
344.953474
 20
-72.053332
 30
0.00
 42
1.00
  0
VERTEX
  8
IMP_EC_PLATE_ISO-EDGE_CUTS_GBR
 10
338.953474
 20
-72.053332
 30
0.00
 42
0.00
  0
SEQEND
  0
POLYLINE
  8
IMP_EC_PLATE_ISO-EDGE_CUTS_GBR
 66
1
 10
0.00
 20
0.00
 30
0.00
 40
0.20
 41
0.20
  0
VERTEX
  8
IMP_EC_PLATE_ISO-EDGE_CUTS_GBR
 10
350.609922
 20
-138.153332
 30
0.00
 42
0.4142136
  0
VERTEX
  8
IMP_EC_PLATE_ISO-EDGE_CUTS_GBR
 10
348.609922
 20
-140.153332
 30
0.00
 42
0.00
  0
SEQEND
  0
POLYLINE
  8
IMP_EC_PLATE_ISO-EDGE_CUTS_GBR
 66
1
 10
0.00
 20
0.00
 30
0.00
 40
0.20
 41
0.20
  0
VERTEX
  8
IMP_EC_PLATE_ISO-EDGE_CUTS_GBR
 10
346.953474
 20
-194.303332
 30
0.00
 42
0.4142136
  0
VERTEX
  8
IMP_EC_PLATE_ISO-EDGE_CUTS_GBR
 10
344.953474
 20
-196.303332
 30
0.00
 42
0.00
  0
SEQEND
  0
POLYLINE
  8
IMP_EC_PLATE_ISO-EDGE_CUTS_GBR
 66
1
 10
0.00
 20
0.00
 30
0.00
 70
1
 40
0.20
 41
0.20
  0
VERTEX
  8
IMP_EC_PLATE_ISO-EDGE_CUTS_GBR
 10
340.353474
 20
-197.303332
 30
0.00
 42
1
  0
VERTEX
  8
IMP_EC_PLATE_ISO-EDGE_CUTS_GBR
 10
343.553474
 20
-197.303332
 30
0.00
 42
1
  0
SEQEND
  0
POLYLINE
  8
IMP_EC_PLATE_ISO-EDGE_CUTS_GBR
 66
1
 10
0.00
 20
0.00
 30
0.00
 70
1
 40
0.20
 41
0.20
  0
VERTEX
  8
IMP_EC_PLATE_ISO-EDGE_CUTS_GBR
 10
336.153474
 20
-155.728332
 30
0.00
 42
1
  0
VERTEX
  8
IMP_EC_PLATE_ISO-EDGE_CUTS_GBR
 10
341.253474
 20
-155.728332
 30
0.00
 42
1
  0
SEQEND
  0
POLYLINE
  8
IMP_EC_PLATE_ISO-EDGE_CUTS_GBR
 66
1
 10
0.00
 20
0.00
 30
0.00
 70
1
 40
0.20
 41
0.20
  0
VERTEX
  8
IMP_EC_PLATE_ISO-EDGE_CUTS_GBR
 10
336.153474
 20
-167.303332
 30
0.00
 42
1
  0
VERTEX
  8
IMP_EC_PLATE_ISO-EDGE_CUTS_GBR
 10
341.253474
 20
-167.303332
 30
0.00
 42
1
  0
SEQEND
  0
POLYLINE
  8
IMP_EC_PLATE_ISO-EDGE_CUTS_GBR
 66
1
 10
0.00
 20
0.00
 30
0.00
 70
1
 40
0.20
 41
0.20
  0
VERTEX
  8
IMP_EC_PLATE_ISO-EDGE_CUTS_GBR
 10
336.153474
 20
-144.153332
 30
0.00
 42
1
  0
VERTEX
  8
IMP_EC_PLATE_ISO-EDGE_CUTS_GBR
 10
341.253474
 20
-144.153332
 30
0.00
 42
1
  0
SEQEND
  0
POLYLINE
  8
IMP_EC_PLATE_ISO-EDGE_CUTS_GBR
 66
1
 10
0.00
 20
0.00
 30
0.00
 40
0.20
 41
0.20
  0
VERTEX
  8
IMP_EC_PLATE_ISO-EDGE_CUTS_GBR
 10
348.609922
 20
-152.370436
 30
0.00
 42
0.4142136
  0
VERTEX
  8
IMP_EC_PLATE_ISO-EDGE_CUTS_GBR
 10
350.609922
 20
-154.370436
 30
0.00
 42
0.00
  0
SEQEND
  0
POLYLINE
  8
IMP_EC_PLATE_ISO-EDGE_CUTS_GBR
 66
1
 10
0.00
 20
0.00
 30
0.00
 40
0.20
 41
0.20
  0
VERTEX
  8
IMP_EC_PLATE_ISO-EDGE_CUTS_GBR
 10
336.953474
 20
-75.053332
 30
0.00
 42
0.4142136
  0
VERTEX
  8
IMP_EC_PLATE_ISO-EDGE_CUTS_GBR
 10
338.953474
 20
-73.053332
 30
0.00
 42
0.00
  0
SEQEND
  0
POLYLINE
  8
IMP_EC_PLATE_ISO-EDGE_CUTS_GBR
 66
1
 10
0.00
 20
0.00
 30
0.00
 40
0.20
 41
0.20
  0
VERTEX
  8
IMP_EC_PLATE_ISO-EDGE_CUTS_GBR
 10
392.87506
 20
-77.053332
 30
0.00
  0
VERTEX
  8
IMP_EC_PLATE_ISO-EDGE_CUTS_GBR
 10
392.87506
 20
-192.303332
 30
0.00
  0
SEQEND
  0
POLYLINE
  8
IMP_EC_PLATE_ISO-EDGE_CUTS_GBR
 66
1
 10
0.00
 20
0.00
 30
0.00
 40
0.20
 41
0.20
  0
VERTEX
  8
IMP_EC_PLATE_ISO-EDGE_CUTS_GBR
 10
380.97506
 20
-73.053332
 30
0.00
  0
VERTEX
  8
IMP_EC_PLATE_ISO-EDGE_CUTS_GBR
 10
380.97506
 20
-72.053332
 30
0.00
  0
SEQEND
  0
POLYLINE
  8
IMP_EC_PLATE_ISO-EDGE_CUTS_GBR
 66
1
 10
0.00
 20
0.00
 30
0.00
 40
0.20
 41
0.20
  0
VERTEX
  8
IMP_EC_PLATE_ISO-EDGE_CUTS_GBR
 10
377.297026
 20
-140.153332
 30
0.00
  0
VERTEX
  8
IMP_EC_PLATE_ISO-EDGE_CUTS_GBR
 10
377.297026
 20
-152.370436
 30
0.00
  0
SEQEND
  0
POLYLINE
  8
IMP_EC_PLATE_ISO-EDGE_CUTS_GBR
 66
1
 10
0.00
 20
0.00
 30
0.00
 40
0.20
 41
0.20
  0
VERTEX
  8
IMP_EC_PLATE_ISO-EDGE_CUTS_GBR
 10
380.97506
 20
-197.303332
 30
0.00
  0
VERTEX
  8
IMP_EC_PLATE_ISO-EDGE_CUTS_GBR
 10
380.97506
 20
-196.303332
 30
0.00
  0
SEQEND
  0
POLYLINE
  8
IMP_EC_PLATE_ISO-EDGE_CUTS_GBR
 66
1
 10
0.00
 20
0.00
 30
0.00
 40
0.20
 41
0.20
  0
VERTEX
  8
IMP_EC_PLATE_ISO-EDGE_CUTS_GBR
 10
386.97506
 20
-72.053332
 30
0.00
  0
VERTEX
  8
IMP_EC_PLATE_ISO-EDGE_CUTS_GBR
 10
386.97506
 20
-73.053332
 30
0.00
  0
SEQEND
  0
POLYLINE
  8
IMP_EC_PLATE_ISO-EDGE_CUTS_GBR
 66
1
 10
0.00
 20
0.00
 30
0.00
 40
0.20
 41
0.20
  0
VERTEX
  8
IMP_EC_PLATE_ISO-EDGE_CUTS_GBR
 10
386.97506
 20
-196.303332
 30
0.00
  0
VERTEX
  8
IMP_EC_PLATE_ISO-EDGE_CUTS_GBR
 10
386.97506
 20
-197.303332
 30
0.00
  0
SEQEND
  0
POLYLINE
  8
IMP_EC_PLATE_ISO-EDGE_CUTS_GBR
 66
1
 10
0.00
 20
0.00
 30
0.00
 40
0.20
 41
0.20
  0
VERTEX
  8
IMP_EC_PLATE_ISO-EDGE_CUTS_GBR
 10
338.953474
 20
-196.303332
 30
0.00
 42
0.4142136
  0
VERTEX
  8
IMP_EC_PLATE_ISO-EDGE_CUTS_GBR
 10
336.953474
 20
-194.303332
 30
0.00
 42
0.00
  0
SEQEND
  0
POLYLINE
  8
IMP_EC_PLATE_ISO-EDGE_CUTS_GBR
 66
1
 10
0.00
 20
0.00
 30
0.00
 40
0.20
 41
0.20
  0
VERTEX
  8
IMP_EC_PLATE_ISO-EDGE_CUTS_GBR
 10
338.953474
 20
-197.303332
 30
0.00
 42
1.00
  0
VERTEX
  8
IMP_EC_PLATE_ISO-EDGE_CUTS_GBR
 10
344.953474
 20
-197.303332
 30
0.00
 42
0.00
  0
SEQEND
  0
POLYLINE
  8
IMP_EC_PLATE_ISO-EDGE_CUTS_GBR
 66
1
 10
0.00
 20
0.00
 30
0.00
 40
0.20
 41
0.20
  0
VERTEX
  8
IMP_EC_PLATE_ISO-EDGE_CUTS_GBR
 10
350.609922
 20
-138.153332
 30
0.00
  0
VERTEX
  8
IMP_EC_PLATE_ISO-EDGE_CUTS_GBR
 10
375.297026
 20
-138.153332
 30
0.00
  0
SEQEND
  0
POLYLINE
  8
IMP_EC_PLATE_ISO-EDGE_CUTS_GBR
 66
1
 10
0.00
 20
0.00
 30
0.00
 40
0.20
 41
0.20
  0
VERTEX
  8
IMP_EC_PLATE_ISO-EDGE_CUTS_GBR
 10
338.953474
 20
-72.053332
 30
0.00
  0
VERTEX
  8
IMP_EC_PLATE_ISO-EDGE_CUTS_GBR
 10
338.953474
 20
-73.053332
 30
0.00
  0
SEQEND
  0
POLYLINE
  8
IMP_EC_PLATE_ISO-EDGE_CUTS_GBR
 66
1
 10
0.00
 20
0.00
 30
0.00
 40
0.20
 41
0.20
  0
VERTEX
  8
IMP_EC_PLATE_ISO-EDGE_CUTS_GBR
 10
375.297026
 20
-154.370436
 30
0.00
  0
VERTEX
  8
IMP_EC_PLATE_ISO-EDGE_CUTS_GBR
 10
350.609922
 20
-154.370436
 30
0.00
  0
SEQEND
  0
POLYLINE
  8
IMP_EC_PLATE_ISO-EDGE_CUTS_GBR
 66
1
 10
0.00
 20
0.00
 30
0.00
 40
0.20
 41
0.20
  0
VERTEX
  8
IMP_EC_PLATE_ISO-EDGE_CUTS_GBR
 10
338.953474
 20
-196.303332
 30
0.00
  0
VERTEX
  8
IMP_EC_PLATE_ISO-EDGE_CUTS_GBR
 10
338.953474
 20
-197.303332
 30
0.00
  0
SEQEND
  0
POLYLINE
  8
IMP_EC_PLATE_ISO-EDGE_CUTS_GBR
 66
1
 10
0.00
 20
0.00
 30
0.00
 70
1
 40
0.20
 41
0.20
  0
VERTEX
  8
IMP_EC_PLATE_ISO-EDGE_CUTS_GBR
 10
321.56251
 20
-72.053332
 30
0.00
 42
1
  0
VERTEX
  8
IMP_EC_PLATE_ISO-EDGE_CUTS_GBR
 10
324.76251
 20
-72.053332
 30
0.00
 42
1
  0
SEQEND
  0
POLYLINE
  8
IMP_EC_PLATE_ISO-EDGE_CUTS_GBR
 66
1
 10
0.00
 20
0.00
 30
0.00
 40
0.20
 41
0.20
  0
VERTEX
  8
IMP_EC_PLATE_ISO-EDGE_CUTS_GBR
 10
318.162508
 20
-75.053332
 30
0.00
 42
0.4142136
  0
VERTEX
  8
IMP_EC_PLATE_ISO-EDGE_CUTS_GBR
 10
320.16251
 20
-73.053334
 30
0.00
 42
0.00
  0
SEQEND
  0
POLYLINE
  8
IMP_EC_PLATE_ISO-EDGE_CUTS_GBR
 66
1
 10
0.00
 20
0.00
 30
0.00
 40
0.20
 41
0.20
  0
VERTEX
  8
IMP_EC_PLATE_ISO-EDGE_CUTS_GBR
 10
390.87506
 20
-194.303332
 30
0.00
  0
VERTEX
  8
IMP_EC_PLATE_ISO-EDGE_CUTS_GBR
 10
388.97506
 20
-194.303332
 30
0.00
  0
SEQEND
  0
POLYLINE
  8
IMP_EC_PLATE_ISO-EDGE_CUTS_GBR
 66
1
 10
0.00
 20
0.00
 30
0.00
 40
0.20
 41
0.20
  0
VERTEX
  8
IMP_EC_PLATE_ISO-EDGE_CUTS_GBR
 10
326.16251
 20
-73.053332
 30
0.00
 42
0.4142136
  0
VERTEX
  8
IMP_EC_PLATE_ISO-EDGE_CUTS_GBR
 10
328.16251
 20
-75.053332
 30
0.00
 42
0.00
  0
SEQEND
  0
POLYLINE
  8
IMP_EC_PLATE_ISO-EDGE_CUTS_GBR
 66
1
 10
0.00
 20
0.00
 30
0.00
 40
0.20
 41
0.20
  0
VERTEX
  8
IMP_EC_PLATE_ISO-EDGE_CUTS_GBR
 10
348.609922
 20
-152.370436
 30
0.00
  0
VERTEX
  8
IMP_EC_PLATE_ISO-EDGE_CUTS_GBR
 10
348.609922
 20
-140.153332
 30
0.00
  0
SEQEND
  0
POLYLINE
  8
IMP_EC_PLATE_ISO-EDGE_CUTS_GBR
 66
1
 10
0.00
 20
0.00
 30
0.00
 40
0.20
 41
0.20
  0
VERTEX
  8
IMP_EC_PLATE_ISO-EDGE_CUTS_GBR
 10
344.953474
 20
-196.303332
 30
0.00
  0
VERTEX
  8
IMP_EC_PLATE_ISO-EDGE_CUTS_GBR
 10
344.953474
 20
-197.303332
 30
0.00
  0
SEQEND
  0
POLYLINE
  8
IMP_EC_PLATE_ISO-EDGE_CUTS_GBR
 66
1
 10
0.00
 20
0.00
 30
0.00
 40
0.20
 41
0.20
  0
VERTEX
  8
IMP_EC_PLATE_ISO-EDGE_CUTS_GBR
 10
326.16251
 20
-72.053332
 30
0.00
 42
1.00
  0
VERTEX
  8
IMP_EC_PLATE_ISO-EDGE_CUTS_GBR
 10
320.16251
 20
-72.053332
 30
0.00
 42
0.00
  0
SEQEND
  0
POLYLINE
  8
IMP_EC_PLATE_ISO-EDGE_CUTS_GBR
 66
1
 10
0.00
 20
0.00
 30
0.00
 40
0.20
 41
0.20
  0
VERTEX
  8
IMP_EC_PLATE_ISO-EDGE_CUTS_GBR
 10
344.953474
 20
-72.053332
 30
0.00
  0
VERTEX
  8
IMP_EC_PLATE_ISO-EDGE_CUTS_GBR
 10
344.953474
 20
-73.053332
 30
0.00
  0
SEQEND
  0
POLYLINE
  8
IMP_EC_PLATE_ISO-EDGE_CUTS_GBR
 66
1
 10
0.00
 20
0.00
 30
0.00
 40
0.20
 41
0.20
  0
VERTEX
  8
IMP_EC_PLATE_ISO-EDGE_CUTS_GBR
 10
55.87506
 20
-197.303332
 30
0.00
  0
VERTEX
  8
IMP_EC_PLATE_ISO-EDGE_CUTS_GBR
 10
55.87506
 20
-196.303332
 30
0.00
  0
SEQEND
  0
POLYLINE
  8
IMP_EC_PLATE_ISO-EDGE_CUTS_GBR
 66
1
 10
0.00
 20
0.00
 30
0.00
 40
0.20
 41
0.20
  0
VERTEX
  8
IMP_EC_PLATE_ISO-EDGE_CUTS_GBR
 10
49.87506
 20
-197.303332
 30
0.00
  0
VERTEX
  8
IMP_EC_PLATE_ISO-EDGE_CUTS_GBR
 10
49.87506
 20
-196.303332
 30
0.00
  0
SEQEND
  0
POLYLINE
  8
IMP_EC_PLATE_ISO-EDGE_CUTS_GBR
 66
1
 10
0.00
 20
0.00
 30
0.00
 40
0.20
 41
0.20
  0
VERTEX
  8
IMP_EC_PLATE_ISO-EDGE_CUTS_GBR
 10
43.62506
 20
-77.053332
 30
0.00
  0
VERTEX
  8
IMP_EC_PLATE_ISO-EDGE_CUTS_GBR
 10
43.62506
 20
-192.303332
 30
0.00
  0
SEQEND
  0
POLYLINE
  8
IMP_EC_PLATE_ISO-EDGE_CUTS_GBR
 66
1
 10
0.00
 20
0.00
 30
0.00
 40
0.20
 41
0.20
  0
VERTEX
  8
IMP_EC_PLATE_ISO-EDGE_CUTS_GBR
 10
49.87506
 20
-73.053332
 30
0.00
  0
VERTEX
  8
IMP_EC_PLATE_ISO-EDGE_CUTS_GBR
 10
49.87506
 20
-72.053332
 30
0.00
  0
SEQEND
  0
POLYLINE
  8
IMP_EC_PLATE_ISO-EDGE_CUTS_GBR
 66
1
 10
0.00
 20
0.00
 30
0.00
 40
0.20
 41
0.20
  0
VERTEX
  8
IMP_EC_PLATE_ISO-EDGE_CUTS_GBR
 10
55.87506
 20
-73.053332
 30
0.00
  0
VERTEX
  8
IMP_EC_PLATE_ISO-EDGE_CUTS_GBR
 10
55.87506
 20
-72.053332
 30
0.00
  0
SEQEND
  0
POLYLINE
  8
IMP_EC_PLATE_ISO-EDGE_CUTS_GBR
 66
1
 10
0.00
 20
0.00
 30
0.00
 40
0.20
 41
0.20
  0
VERTEX
  8
IMP_EC_PLATE_ISO-EDGE_CUTS_GBR
 10
236.16251
 20
-72.053332
 30
0.00
 42
1.00
  0
VERTEX
  8
IMP_EC_PLATE_ISO-EDGE_CUTS_GBR
 10
230.16251
 20
-72.053332
 30
0.00
 42
0.00
  0
SEQEND
  0
POLYLINE
  8
IMP_EC_PLATE_ISO-EDGE_CUTS_GBR
 66
1
 10
0.00
 20
0.00
 30
0.00
 40
0.20
 41
0.20
  0
VERTEX
  8
IMP_EC_PLATE_ISO-EDGE_CUTS_GBR
 10
236.16251
 20
-73.053332
 30
0.00
 42
0.4142136
  0
VERTEX
  8
IMP_EC_PLATE_ISO-EDGE_CUTS_GBR
 10
238.16251
 20
-75.053332
 30
0.00
 42
0.00
  0
SEQEND
  0
POLYLINE
  8
IMP_EC_PLATE_ISO-EDGE_CUTS_GBR
 66
1
 10
0.00
 20
0.00
 30
0.00
 40
0.20
 41
0.20
  0
VERTEX
  8
IMP_EC_PLATE_ISO-EDGE_CUTS_GBR
 10
228.162508
 20
-75.053332
 30
0.00
 42
0.4142136
  0
VERTEX
  8
IMP_EC_PLATE_ISO-EDGE_CUTS_GBR
 10
230.16251
 20
-73.053334
 30
0.00
 42
0.00
  0
SEQEND
  0
POLYLINE
  8
IMP_EC_PLATE_ISO-EDGE_CUTS_GBR
 66
1
 10
0.00
 20
0.00
 30
0.00
 70
1
 40
0.20
 41
0.20
  0
VERTEX
  8
IMP_EC_PLATE_ISO-EDGE_CUTS_GBR
 10
231.56251
 20
-72.053332
 30
0.00
 42
1
  0
VERTEX
  8
IMP_EC_PLATE_ISO-EDGE_CUTS_GBR
 10
234.76251
 20
-72.053332
 30
0.00
 42
1
  0
SEQEND
  0
POLYLINE
  8
IMP_EC_PLATE_ISO-EDGE_CUTS_GBR
 66
1
 10
0.00
 20
0.00
 30
0.00
 40
0.20
 41
0.20
  0
VERTEX
  8
IMP_EC_PLATE_ISO-EDGE_CUTS_GBR
 10
320.16251
 20
-196.303332
 30
0.00
 42
0.4142136
  0
VERTEX
  8
IMP_EC_PLATE_ISO-EDGE_CUTS_GBR
 10
318.16251
 20
-194.303332
 30
0.00
 42
0.00
  0
SEQEND
  0
POLYLINE
  8
IMP_EC_PLATE_ISO-EDGE_CUTS_GBR
 66
1
 10
0.00
 20
0.00
 30
0.00
 40
0.20
 41
0.20
  0
VERTEX
  8
IMP_EC_PLATE_ISO-EDGE_CUTS_GBR
 10
278.97506
 20
-194.303332
 30
0.00
 42
0.4142136
  0
VERTEX
  8
IMP_EC_PLATE_ISO-EDGE_CUTS_GBR
 10
276.97506
 20
-196.303332
 30
0.00
 42
0.00
  0
SEQEND
  0
POLYLINE
  8
IMP_EC_PLATE_ISO-EDGE_CUTS_GBR
 66
1
 10
0.00
 20
0.00
 30
0.00
 40
0.20
 41
0.20
  0
VERTEX
  8
IMP_EC_PLATE_ISO-EDGE_CUTS_GBR
 10
270.97506
 20
-196.303332
 30
0.00
 42
0.4142136
  0
VERTEX
  8
IMP_EC_PLATE_ISO-EDGE_CUTS_GBR
 10
268.97506
 20
-194.303332
 30
0.00
 42
0.00
  0
SEQEND
  0
POLYLINE
  8
IMP_EC_PLATE_ISO-EDGE_CUTS_GBR
 66
1
 10
0.00
 20
0.00
 30
0.00
 40
0.20
 41
0.20
  0
VERTEX
  8
IMP_EC_PLATE_ISO-EDGE_CUTS_GBR
 10
328.162508
 20
-194.303332
 30
0.00
 42
0.4142136
  0
VERTEX
  8
IMP_EC_PLATE_ISO-EDGE_CUTS_GBR
 10
326.16251
 20
-196.303334
 30
0.00
 42
0.00
  0
SEQEND
  0
POLYLINE
  8
IMP_EC_PLATE_ISO-EDGE_CUTS_GBR
 66
1
 10
0.00
 20
0.00
 30
0.00
 70
1
 40
0.20
 41
0.20
  0
VERTEX
  8
IMP_EC_PLATE_ISO-EDGE_CUTS_GBR
 10
321.56251
 20
-197.303332
 30
0.00
 42
1
  0
VERTEX
  8
IMP_EC_PLATE_ISO-EDGE_CUTS_GBR
 10
324.76251
 20
-197.303332
 30
0.00
 42
1
  0
SEQEND
  0
POLYLINE
  8
IMP_EC_PLATE_ISO-EDGE_CUTS_GBR
 66
1
 10
0.00
 20
0.00
 30
0.00
 40
0.20
 41
0.20
  0
VERTEX
  8
IMP_EC_PLATE_ISO-EDGE_CUTS_GBR
 10
320.16251
 20
-197.303332
 30
0.00
 42
1.00
  0
VERTEX
  8
IMP_EC_PLATE_ISO-EDGE_CUTS_GBR
 10
326.16251
 20
-197.303332
 30
0.00
 42
0.00
  0
SEQEND
  0
POLYLINE
  8
IMP_EC_PLATE_ISO-EDGE_CUTS_GBR
 66
1
 10
0.00
 20
0.00
 30
0.00
 70
1
 40
0.20
 41
0.20
  0
VERTEX
  8
IMP_EC_PLATE_ISO-EDGE_CUTS_GBR
 10
272.37506
 20
-197.303332
 30
0.00
 42
1
  0
VERTEX
  8
IMP_EC_PLATE_ISO-EDGE_CUTS_GBR
 10
275.57506
 20
-197.303332
 30
0.00
 42
1
  0
SEQEND
  0
POLYLINE
  8
IMP_EC_PLATE_ISO-EDGE_CUTS_GBR
 66
1
 10
0.00
 20
0.00
 30
0.00
 40
0.20
 41
0.20
  0
VERTEX
  8
IMP_EC_PLATE_ISO-EDGE_CUTS_GBR
 10
270.97506
 20
-197.303332
 30
0.00
 42
1.00
  0
VERTEX
  8
IMP_EC_PLATE_ISO-EDGE_CUTS_GBR
 10
276.97506
 20
-197.303332
 30
0.00
 42
0.00
  0
SEQEND
  0
POLYLINE
  8
IMP_EC_PLATE_ISO-EDGE_CUTS_GBR
 66
1
 10
0.00
 20
0.00
 30
0.00
 70
1
 40
0.20
 41
0.20
  0
VERTEX
  8
IMP_EC_PLATE_ISO-EDGE_CUTS_GBR
 10
141.27506
 20
-72.053332
 30
0.00
 42
1
  0
VERTEX
  8
IMP_EC_PLATE_ISO-EDGE_CUTS_GBR
 10
144.47506
 20
-72.053332
 30
0.00
 42
1
  0
SEQEND
  0
POLYLINE
  8
IMP_EC_PLATE_ISO-EDGE_CUTS_GBR
 66
1
 10
0.00
 20
0.00
 30
0.00
 40
0.20
 41
0.20
  0
VERTEX
  8
IMP_EC_PLATE_ISO-EDGE_CUTS_GBR
 10
145.87506
 20
-73.053332
 30
0.00
 42
0.4142136
  0
VERTEX
  8
IMP_EC_PLATE_ISO-EDGE_CUTS_GBR
 10
147.87506
 20
-75.053332
 30
0.00
 42
0.00
  0
SEQEND
  0
POLYLINE
  8
IMP_EC_PLATE_ISO-EDGE_CUTS_GBR
 66
1
 10
0.00
 20
0.00
 30
0.00
 40
0.20
 41
0.20
  0
VERTEX
  8
IMP_EC_PLATE_ISO-EDGE_CUTS_GBR
 10
137.87506
 20
-75.053332
 30
0.00
 42
0.4142136
  0
VERTEX
  8
IMP_EC_PLATE_ISO-EDGE_CUTS_GBR
 10
139.87506
 20
-73.053332
 30
0.00
 42
0.00
  0
SEQEND
  0
POLYLINE
  8
IMP_EC_PLATE_ISO-EDGE_CUTS_GBR
 66
1
 10
0.00
 20
0.00
 30
0.00
 40
0.20
 41
0.20
  0
VERTEX
  8
IMP_EC_PLATE_ISO-EDGE_CUTS_GBR
 10
145.87506
 20
-72.053332
 30
0.00
 42
1.00
  0
VERTEX
  8
IMP_EC_PLATE_ISO-EDGE_CUTS_GBR
 10
139.87506
 20
-72.053332
 30
0.00
 42
0.00
  0
SEQEND
  0
POLYLINE
  8
IMP_EC_PLATE_ISO-EDGE_CUTS_GBR
 66
1
 10
0.00
 20
0.00
 30
0.00
 40
0.20
 41
0.20
  0
VERTEX
  8
IMP_EC_PLATE_ISO-EDGE_CUTS_GBR
 10
47.87506
 20
-75.053332
 30
0.00
 42
0.4142136
  0
VERTEX
  8
IMP_EC_PLATE_ISO-EDGE_CUTS_GBR
 10
49.87506
 20
-73.053332
 30
0.00
 42
0.00
  0
SEQEND
  0
POLYLINE
  8
IMP_EC_PLATE_ISO-EDGE_CUTS_GBR
 66
1
 10
0.00
 20
0.00
 30
0.00
 40
0.20
 41
0.20
  0
VERTEX
  8
IMP_EC_PLATE_ISO-EDGE_CUTS_GBR
 10
55.87506
 20
-72.053332
 30
0.00
 42
1.00
  0
VERTEX
  8
IMP_EC_PLATE_ISO-EDGE_CUTS_GBR
 10
49.87506
 20
-72.053332
 30
0.00
 42
0.00
  0
SEQEND
  0
POLYLINE
  8
IMP_EC_PLATE_ISO-EDGE_CUTS_GBR
 66
1
 10
0.00
 20
0.00
 30
0.00
 70
1
 40
0.20
 41
0.20
  0
VERTEX
  8
IMP_EC_PLATE_ISO-EDGE_CUTS_GBR
 10
51.27506
 20
-72.053332
 30
0.00
 42
1
  0
VERTEX
  8
IMP_EC_PLATE_ISO-EDGE_CUTS_GBR
 10
54.47506
 20
-72.053332
 30
0.00
 42
1
  0
SEQEND
  0
POLYLINE
  8
IMP_EC_PLATE_ISO-EDGE_CUTS_GBR
 66
1
 10
0.00
 20
0.00
 30
0.00
 40
0.20
 41
0.20
  0
VERTEX
  8
IMP_EC_PLATE_ISO-EDGE_CUTS_GBR
 10
45.62506
 20
-75.053332
 30
0.00
 42
0.4142136
  0
VERTEX
  8
IMP_EC_PLATE_ISO-EDGE_CUTS_GBR
 10
43.62506
 20
-77.053332
 30
0.00
 42
0.00
  0
SEQEND
  0
POLYLINE
  8
IMP_EC_PLATE_ISO-EDGE_CUTS_GBR
 66
1
 10
0.00
 20
0.00
 30
0.00
 40
0.20
 41
0.20
  0
VERTEX
  8
IMP_EC_PLATE_ISO-EDGE_CUTS_GBR
 10
55.87506
 20
-73.053332
 30
0.00
 42
0.4142136
  0
VERTEX
  8
IMP_EC_PLATE_ISO-EDGE_CUTS_GBR
 10
57.87506
 20
-75.053332
 30
0.00
 42
0.00
  0
SEQEND
  0
POLYLINE
  8
IMP_EC_PLATE_ISO-EDGE_CUTS_GBR
 66
1
 10
0.00
 20
0.00
 30
0.00
 40
0.20
 41
0.20
  0
VERTEX
  8
IMP_EC_PLATE_ISO-EDGE_CUTS_GBR
 10
320.42506
 20
-159.166818
 30
0.00
  0
VERTEX
  8
IMP_EC_PLATE_ISO-EDGE_CUTS_GBR
 10
320.42506
 20
-170.436818
 30
0.00
  0
SEQEND
  0
POLYLINE
  8
IMP_EC_PLATE_ISO-EDGE_CUTS_GBR
 66
1
 10
0.00
 20
0.00
 30
0.00
 40
0.20
 41
0.20
  0
VERTEX
  8
IMP_EC_PLATE_ISO-EDGE_CUTS_GBR
 10
319.42506
 20
-158.166818
 30
0.00
  0
VERTEX
  8
IMP_EC_PLATE_ISO-EDGE_CUTS_GBR
 10
320.42506
 20
-159.166818
 30
0.00
  0
SEQEND
  0
POLYLINE
  8
IMP_EC_PLATE_ISO-EDGE_CUTS_GBR
 66
1
 10
0.00
 20
0.00
 30
0.00
 40
0.20
 41
0.20
  0
VERTEX
  8
IMP_EC_PLATE_ISO-EDGE_CUTS_GBR
 10
288.42506
 20
-159.166818
 30
0.00
  0
VERTEX
  8
IMP_EC_PLATE_ISO-EDGE_CUTS_GBR
 10
289.42506
 20
-158.166818
 30
0.00
  0
SEQEND
  0
POLYLINE
  8
IMP_EC_PLATE_ISO-EDGE_CUTS_GBR
 66
1
 10
0.00
 20
0.00
 30
0.00
 40
0.20
 41
0.20
  0
VERTEX
  8
IMP_EC_PLATE_ISO-EDGE_CUTS_GBR
 10
288.42506
 20
-159.166818
 30
0.00
  0
VERTEX
  8
IMP_EC_PLATE_ISO-EDGE_CUTS_GBR
 10
288.42506
 20
-170.436818
 30
0.00
  0
SEQEND
  0
POLYLINE
  8
IMP_EC_PLATE_ISO-EDGE_CUTS_GBR
 66
1
 10
0.00
 20
0.00
 30
0.00
 40
0.20
 41
0.20
  0
VERTEX
  8
IMP_EC_PLATE_ISO-EDGE_CUTS_GBR
 10
311.724536
 20
-121.66937
 30
0.00
  0
VERTEX
  8
IMP_EC_PLATE_ISO-EDGE_CUTS_GBR
 10
312.724536
 20
-120.66937
 30
0.00
  0
SEQEND
  0
POLYLINE
  8
IMP_EC_PLATE_ISO-EDGE_CUTS_GBR
 66
1
 10
0.00
 20
0.00
 30
0.00
 40
0.20
 41
0.20
  0
VERTEX
  8
IMP_EC_PLATE_ISO-EDGE_CUTS_GBR
 10
312.724536
 20
-120.66937
 30
0.00
  0
VERTEX
  8
IMP_EC_PLATE_ISO-EDGE_CUTS_GBR
 10
323.994536
 20
-120.66937
 30
0.00
  0
SEQEND
  0
POLYLINE
  8
IMP_EC_PLATE_ISO-EDGE_CUTS_GBR
 66
1
 10
0.00
 20
0.00
 30
0.00
 40
0.20
 41
0.20
  0
VERTEX
  8
IMP_EC_PLATE_ISO-EDGE_CUTS_GBR
 10
312.724536
 20
-152.66937
 30
0.00
  0
VERTEX
  8
IMP_EC_PLATE_ISO-EDGE_CUTS_GBR
 10
311.724536
 20
-151.66937
 30
0.00
  0
SEQEND
  0
POLYLINE
  8
IMP_EC_PLATE_ISO-EDGE_CUTS_GBR
 66
1
 10
0.00
 20
0.00
 30
0.00
 40
0.20
 41
0.20
  0
VERTEX
  8
IMP_EC_PLATE_ISO-EDGE_CUTS_GBR
 10
312.724536
 20
-152.66937
 30
0.00
  0
VERTEX
  8
IMP_EC_PLATE_ISO-EDGE_CUTS_GBR
 10
323.994536
 20
-152.66937
 30
0.00
  0
SEQEND
  0
POLYLINE
  8
IMP_EC_PLATE_ISO-EDGE_CUTS_GBR
 66
1
 10
0.00
 20
0.00
 30
0.00
 40
0.20
 41
0.20
  0
VERTEX
  8
IMP_EC_PLATE_ISO-EDGE_CUTS_GBR
 10
295.66006
 20
-102.106818
 30
0.00
  0
VERTEX
  8
IMP_EC_PLATE_ISO-EDGE_CUTS_GBR
 10
295.66006
 20
-113.376818
 30
0.00
  0
SEQEND
  0
POLYLINE
  8
IMP_EC_PLATE_ISO-EDGE_CUTS_GBR
 66
1
 10
0.00
 20
0.00
 30
0.00
 40
0.20
 41
0.20
  0
VERTEX
  8
IMP_EC_PLATE_ISO-EDGE_CUTS_GBR
 10
327.66006
 20
-102.106818
 30
0.00
  0
VERTEX
  8
IMP_EC_PLATE_ISO-EDGE_CUTS_GBR
 10
327.66006
 20
-113.376818
 30
0.00
  0
SEQEND
  0
POLYLINE
  8
IMP_EC_PLATE_ISO-EDGE_CUTS_GBR
 66
1
 10
0.00
 20
0.00
 30
0.00
 40
0.20
 41
0.20
  0
VERTEX
  8
IMP_EC_PLATE_ISO-EDGE_CUTS_GBR
 10
326.66006
 20
-101.106818
 30
0.00
  0
VERTEX
  8
IMP_EC_PLATE_ISO-EDGE_CUTS_GBR
 10
327.66006
 20
-102.106818
 30
0.00
  0
SEQEND
  0
POLYLINE
  8
IMP_EC_PLATE_ISO-EDGE_CUTS_GBR
 66
1
 10
0.00
 20
0.00
 30
0.00
 40
0.20
 41
0.20
  0
VERTEX
  8
IMP_EC_PLATE_ISO-EDGE_CUTS_GBR
 10
295.66006
 20
-102.106818
 30
0.00
  0
VERTEX
  8
IMP_EC_PLATE_ISO-EDGE_CUTS_GBR
 10
296.66006
 20
-101.106818
 30
0.00
  0
SEQEND
  0
POLYLINE
  8
IMP_EC_PLATE_ISO-EDGE_CUTS_GBR
 66
1
 10
0.00
 20
0.00
 30
0.00
 40
0.20
 41
0.20
  0
VERTEX
  8
IMP_EC_PLATE_ISO-EDGE_CUTS_GBR
 10
320.42506
 20
-170.436818
 30
0.00
  0
VERTEX
  8
IMP_EC_PLATE_ISO-EDGE_CUTS_GBR
 10
317.42506
 20
-172.166816
 30
0.00
  0
SEQEND
  0
POLYLINE
  8
IMP_EC_PLATE_ISO-EDGE_CUTS_GBR
 66
1
 10
0.00
 20
0.00
 30
0.00
 40
0.20
 41
0.20
  0
VERTEX
  8
IMP_EC_PLATE_ISO-EDGE_CUTS_GBR
 10
288.42506
 20
-170.436818
 30
0.00
  0
VERTEX
  8
IMP_EC_PLATE_ISO-EDGE_CUTS_GBR
 10
291.42506
 20
-172.166816
 30
0.00
  0
SEQEND
  0
POLYLINE
  8
IMP_EC_PLATE_ISO-EDGE_CUTS_GBR
 66
1
 10
0.00
 20
0.00
 30
0.00
 40
0.20
 41
0.20
  0
VERTEX
  8
IMP_EC_PLATE_ISO-EDGE_CUTS_GBR
 10
323.994536
 20
-120.66937
 30
0.00
  0
VERTEX
  8
IMP_EC_PLATE_ISO-EDGE_CUTS_GBR
 10
325.724534
 20
-123.66937
 30
0.00
  0
SEQEND
  0
POLYLINE
  8
IMP_EC_PLATE_ISO-EDGE_CUTS_GBR
 66
1
 10
0.00
 20
0.00
 30
0.00
 40
0.20
 41
0.20
  0
VERTEX
  8
IMP_EC_PLATE_ISO-EDGE_CUTS_GBR
 10
323.994536
 20
-152.66937
 30
0.00
  0
VERTEX
  8
IMP_EC_PLATE_ISO-EDGE_CUTS_GBR
 10
325.724534
 20
-149.66937
 30
0.00
  0
SEQEND
  0
POLYLINE
  8
IMP_EC_PLATE_ISO-EDGE_CUTS_GBR
 66
1
 10
0.00
 20
0.00
 30
0.00
 40
0.20
 41
0.20
  0
VERTEX
  8
IMP_EC_PLATE_ISO-EDGE_CUTS_GBR
 10
295.66006
 20
-113.376818
 30
0.00
  0
VERTEX
  8
IMP_EC_PLATE_ISO-EDGE_CUTS_GBR
 10
298.66006
 20
-115.106816
 30
0.00
  0
SEQEND
  0
POLYLINE
  8
IMP_EC_PLATE_ISO-EDGE_CUTS_GBR
 66
1
 10
0.00
 20
0.00
 30
0.00
 40
0.20
 41
0.20
  0
VERTEX
  8
IMP_EC_PLATE_ISO-EDGE_CUTS_GBR
 10
327.66006
 20
-113.376818
 30
0.00
  0
VERTEX
  8
IMP_EC_PLATE_ISO-EDGE_CUTS_GBR
 10
324.66006
 20
-115.106816
 30
0.00
  0
SEQEND
  0
POLYLINE
  8
IMP_EC_PLATE_ISO-EDGE_CUTS_GBR
 66
1
 10
0.00
 20
0.00
 30
0.00
 40
0.20
 41
0.20
  0
VERTEX
  8
IMP_EC_PLATE_ISO-EDGE_CUTS_GBR
 10
370.267466
 20
-81.859382
 30
0.00
 42
1.5961238
  0
VERTEX
  8
IMP_EC_PLATE_ISO-EDGE_CUTS_GBR
 10
366.400658
 20
-78.021922
 30
0.00
 42
0.00
  0
SEQEND
  0
POLYLINE
  8
IMP_EC_PLATE_ISO-EDGE_CUTS_GBR
 66
1
 10
0.00
 20
0.00
 30
0.00
 40
0.20
 41
0.20
  0
VERTEX
  8
IMP_EC_PLATE_ISO-EDGE_CUTS_GBR
 10
369.264268
 20
-92.003332
 30
0.00
  0
VERTEX
  8
IMP_EC_PLATE_ISO-EDGE_CUTS_GBR
 10
356.664268
 20
-92.003332
 30
0.00
  0
SEQEND
  0
POLYLINE
  8
IMP_EC_PLATE_ISO-EDGE_CUTS_GBR
 66
1
 10
0.00
 20
0.00
 30
0.00
 40
0.20
 41
0.20
  0
VERTEX
  8
IMP_EC_PLATE_ISO-EDGE_CUTS_GBR
 10
370.264268
 20
-91.003332
 30
0.00
  0
VERTEX
  8
IMP_EC_PLATE_ISO-EDGE_CUTS_GBR
 10
369.264268
 20
-92.003332
 30
0.00
  0
SEQEND
  0
POLYLINE
  8
IMP_EC_PLATE_ISO-EDGE_CUTS_GBR
 66
1
 10
0.00
 20
0.00
 30
0.00
 40
0.20
 41
0.20
  0
VERTEX
  8
IMP_EC_PLATE_ISO-EDGE_CUTS_GBR
 10
356.664268
 20
-92.003332
 30
0.00
  0
VERTEX
  8
IMP_EC_PLATE_ISO-EDGE_CUTS_GBR
 10
355.664268
 20
-91.003332
 30
0.00
  0
SEQEND
  0
POLYLINE
  8
IMP_EC_PLATE_ISO-EDGE_CUTS_GBR
 66
1
 10
0.00
 20
0.00
 30
0.00
 40
0.20
 41
0.20
  0
VERTEX
  8
IMP_EC_PLATE_ISO-EDGE_CUTS_GBR
 10
355.664268
 20
-91.003332
 30
0.00
  0
VERTEX
  8
IMP_EC_PLATE_ISO-EDGE_CUTS_GBR
 10
355.664268
 20
-79.003332
 30
0.00
  0
SEQEND
  0
POLYLINE
  8
IMP_EC_PLATE_ISO-EDGE_CUTS_GBR
 66
1
 10
0.00
 20
0.00
 30
0.00
 40
0.20
 41
0.20
  0
VERTEX
  8
IMP_EC_PLATE_ISO-EDGE_CUTS_GBR
 10
355.664268
 20
-79.003332
 30
0.00
  0
VERTEX
  8
IMP_EC_PLATE_ISO-EDGE_CUTS_GBR
 10
356.664268
 20
-78.003332
 30
0.00
  0
SEQEND
  0
INSERT
  2
ROUND_3
  8
IMP_EC_PLATE_ISO-F_MASK_GBR
 10
273.60506
 20
-108.103332
 30
0.00
 41
1.00
 42
1.00
 50
0.00
  0
INSERT
  2
ROUND_3
  8
IMP_EC_PLATE_ISO-F_MASK_GBR
 10
147.49006
 20
-85.003332
 30
0.00
 41
1.00
 42
1.00
 50
0.00
  0
INSERT
  2
ROUND_3
  8
IMP_EC_PLATE_ISO-F_MASK_GBR
 10
159.300008
 20
-188.673332
 30
0.00
 41
1.00
 42
1.00
 50
0.00
  0
INSERT
  2
ROUND_3
  8
IMP_EC_PLATE_ISO-F_MASK_GBR
 10
309.01506
 20
-85.003332
 30
0.00
 41
1.00
 42
1.00
 50
0.00
  0
INSERT
  2
ROUND_3
  8
IMP_EC_PLATE_ISO-F_MASK_GBR
 10
228.24006
 20
-85.003332
 30
0.00
 41
1.00
 42
1.00
 50
0.00
  0
INSERT
  2
ROUND_3
  8
IMP_EC_PLATE_ISO-F_MASK_GBR
 10
216.53506
 20
-108.103332
 30
0.00
 41
1.00
 42
1.00
 50
0.00
  0
INSERT
  2
ROUND_3
  8
IMP_EC_PLATE_ISO-F_MASK_GBR
 10
283.06506
 20
-127.123332
 30
0.00
 41
1.00
 42
1.00
 50
0.00
  0
INSERT
  2
ROUND_3
  8
IMP_EC_PLATE_ISO-F_MASK_GBR
 10
116.418596
 20
-184.173332
 30
0.00
 41
1.00
 42
1.00
 50
0.00
  0
INSERT
  2
ROUND_3
  8
IMP_EC_PLATE_ISO-F_MASK_GBR
 10
334.444268
 20
-108.126884
 30
0.00
 41
1.00
 42
1.00
 50
0.00
  0
INSERT
  2
ROUND_3
  8
IMP_EC_PLATE_ISO-F_MASK_GBR
 10
353.449268
 20
-184.296884
 30
0.00
 41
1.00
 42
1.00
 50
0.00
  0
INSERT
  2
ROUND_3
  8
IMP_EC_PLATE_ISO-F_MASK_GBR
 10
330.033388
 20
-184.173332
 30
0.00
 41
1.00
 42
1.00
 50
0.00
  0
INSERT
  2
ROUND_3
  8
IMP_EC_PLATE_ISO-F_MASK_GBR
 10
202.19506
 20
-165.163332
 30
0.00
 41
1.00
 42
1.00
 50
0.00
  0
INSERT
  2
ROUND_3
  8
IMP_EC_PLATE_ISO-F_MASK_GBR
 10
47.51006
 20
-146.143332
 30
0.00
 41
1.00
 42
1.00
 50
0.00
  0
INSERT
  2
ROUND_3
  8
IMP_EC_PLATE_ISO-F_MASK_GBR
 10
64.37506
 20
-108.103332
 30
0.00
 41
1.00
 42
1.00
 50
0.00
  0
INSERT
  2
ROUND_3
  8
IMP_EC_PLATE_ISO-F_MASK_GBR
 10
287.78506
 20
-146.143332
 30
0.00
 41
1.00
 42
1.00
 50
0.00
  0
INSERT
  2
ROUND_3
  8
IMP_EC_PLATE_ISO-F_MASK_GBR
 10
259.187508
 20
-184.173332
 30
0.00
 41
1.00
 42
1.00
 50
0.00
  0
INSERT
  2
ROUND_3
  8
IMP_EC_PLATE_ISO-F_MASK_GBR
 10
64.37506
 20
-85.00679
 30
0.00
 41
1.00
 42
1.00
 50
0.00
  0
INSERT
  2
ROUND_3
  8
IMP_EC_PLATE_ISO-F_MASK_GBR
 10
216.450008
 20
-188.673332
 30
0.00
 41
1.00
 42
1.00
 50
0.00
  0
INSERT
  2
ROUND_3
  8
IMP_EC_PLATE_ISO-F_MASK_GBR
 10
278.19506
 20
-165.163332
 30
0.00
 41
1.00
 42
1.00
 50
0.00
  0
INSERT
  2
ROUND_3
  8
IMP_EC_PLATE_ISO-F_MASK_GBR
 10
372.484268
 20
-85.00679
 30
0.00
 41
1.00
 42
1.00
 50
0.00
  0
INSERT
  2
ROUND_3
  8
IMP_EC_PLATE_ISO-F_MASK_GBR
 10
47.086592
 20
-184.173332
 30
0.00
 41
1.00
 42
1.00
 50
0.00
  0
INSERT
  2
ROUND_3
  8
IMP_EC_PLATE_ISO-F_MASK_GBR
 10
211.76506
 20
-146.143332
 30
0.00
 41
1.00
 42
1.00
 50
0.00
  0
INSERT
  2
ROUND_3
  8
IMP_EC_PLATE_ISO-F_MASK_GBR
 10
372.484268
 20
-127.146884
 30
0.00
 41
1.00
 42
1.00
 50
0.00
  0
INSERT
  2
ROUND_3
  8
IMP_EC_PLATE_ISO-F_MASK_GBR
 10
330.033388
 20
-155.653332
 30
0.00
 41
1.00
 42
1.00
 50
0.00
  0
INSERT
  2
ROUND_3
  8
IMP_EC_PLATE_ISO-F_MASK_GBR
 10
140.45506
 20
-108.103332
 30
0.00
 41
1.00
 42
1.00
 50
0.00
  0
INSERT
  2
ROUND_3
  8
IMP_EC_PLATE_ISO-F_MASK_GBR
 10
372.499268
 20
-165.276884
 30
0.00
 41
1.00
 42
1.00
 50
0.00
  0
INSERT
  2
ROUND_3
  8
IMP_EC_PLATE_ISO-F_MASK_GBR
 10
149.91506
 20
-127.123332
 30
0.00
 41
1.00
 42
1.00
 50
0.00
  0
INSERT
  2
ROUND_3
  8
IMP_EC_PLATE_ISO-F_MASK_GBR
 10
126.19506
 20
-165.163332
 30
0.00
 41
1.00
 42
1.00
 50
0.00
  0
INSERT
  2
ROUND_3
  8
IMP_EC_PLATE_ISO-F_MASK_GBR
 10
135.74506
 20
-146.143332
 30
0.00
 41
1.00
 42
1.00
 50
0.00
  0
INSERT
  2
ROUND_3
  8
IMP_EC_PLATE_ISO-F_MASK_GBR
 10
225.99506
 20
-127.123332
 30
0.00
 41
1.00
 42
1.00
 50
0.00
  0
INSERT
  2
ROUND_3
  8
IMP_EC_PLATE_ISO-F_MASK_GBR
 10
330.033388
 20
-127.123332
 30
0.00
 41
1.00
 42
1.00
 50
0.00
  0
INSERT
  2
ROUND_3
  8
IMP_EC_PLATE_ISO-F_MASK_GBR
 10
353.449268
 20
-165.276884
 30
0.00
 41
1.00
 42
1.00
 50
0.00
  0
INSERT
  2
ROUND_3
  8
IMP_EC_PLATE_ISO-F_MASK_GBR
 10
88.19506
 20
-165.163332
 30
0.00
 41
1.00
 42
1.00
 50
0.00
  0
INSERT
  2
ROUND_3
  8
IMP_EC_PLATE_ISO-F_MASK_GBR
 10
69.10506
 20
-127.123332
 30
0.00
 41
1.00
 42
1.00
 50
0.00
  0
INSERT
  2
ROUND_3
  8
IMP_EC_PLATE_ISO-F_MASK_GBR
 10
372.469268
 20
-184.296884
 30
0.00
 41
1.00
 42
1.00
 50
0.00
  0
INSERT
  2
ROUND_5
  8
IMP_EC_PLATE_ISO-NPTH_DRL
 10
47.08652
 20
-184.17286
 30
0.00
 41
1.00
 42
1.00
 50
0.00
  0
INSERT
  2
ROUND_5
  8
IMP_EC_PLATE_ISO-NPTH_DRL
 10
47.5107
 20
-146.14398
 30
0.00
 41
1.00
 42
1.00
 50
0.00
  0
INSERT
  2
ROUND_5
  8
IMP_EC_PLATE_ISO-NPTH_DRL
 10
64.3763
 20
-85.00618
 30
0.00
 41
1.00
 42
1.00
 50
0.00
  0
INSERT
  2
ROUND_5
  8
IMP_EC_PLATE_ISO-NPTH_DRL
 10
64.3763
 20
-108.1024
 30
0.00
 41
1.00
 42
1.00
 50
0.00
  0
INSERT
  2
ROUND_5
  8
IMP_EC_PLATE_ISO-NPTH_DRL
 10
69.10578
 20
-127.12446
 30
0.00
 41
1.00
 42
1.00
 50
0.00
  0
INSERT
  2
ROUND_5
  8
IMP_EC_PLATE_ISO-NPTH_DRL
 10
88.19388
 20
-165.1635
 30
0.00
 41
1.00
 42
1.00
 50
0.00
  0
INSERT
  2
ROUND_5
  8
IMP_EC_PLATE_ISO-NPTH_DRL
 10
116.41836
 20
-184.17286
 30
0.00
 41
1.00
 42
1.00
 50
0.00
  0
INSERT
  2
ROUND_5
  8
IMP_EC_PLATE_ISO-NPTH_DRL
 10
126.19482
 20
-165.1635
 30
0.00
 41
1.00
 42
1.00
 50
0.00
  0
INSERT
  2
ROUND_5
  8
IMP_EC_PLATE_ISO-NPTH_DRL
 10
135.74522
 20
-146.14398
 30
0.00
 41
1.00
 42
1.00
 50
0.00
  0
INSERT
  2
ROUND_5
  8
IMP_EC_PLATE_ISO-NPTH_DRL
 10
140.45438
 20
-108.1024
 30
0.00
 41
1.00
 42
1.00
 50
0.00
  0
INSERT
  2
ROUND_5
  8
IMP_EC_PLATE_ISO-NPTH_DRL
 10
147.49018
 20
-85.00364
 30
0.00
 41
1.00
 42
1.00
 50
0.00
  0
INSERT
  2
ROUND_5
  8
IMP_EC_PLATE_ISO-NPTH_DRL
 10
149.91588
 20
-127.12446
 30
0.00
 41
1.00
 42
1.00
 50
0.00
  0
INSERT
  2
ROUND_5
  8
IMP_EC_PLATE_ISO-NPTH_DRL
 10
159.30118
 20
-188.67374
 30
0.00
 41
1.00
 42
1.00
 50
0.00
  0
INSERT
  2
ROUND_5
  8
IMP_EC_PLATE_ISO-NPTH_DRL
 10
202.19416
 20
-165.1635
 30
0.00
 41
1.00
 42
1.00
 50
0.00
  0
INSERT
  2
ROUND_5
  8
IMP_EC_PLATE_ISO-NPTH_DRL
 10
211.76488
 20
-146.14398
 30
0.00
 41
1.00
 42
1.00
 50
0.00
  0
INSERT
  2
ROUND_5
  8
IMP_EC_PLATE_ISO-NPTH_DRL
 10
216.45118
 20
-188.67374
 30
0.00
 41
1.00
 42
1.00
 50
0.00
  0
INSERT
  2
ROUND_5
  8
IMP_EC_PLATE_ISO-NPTH_DRL
 10
216.535
 20
-108.1024
 30
0.00
 41
1.00
 42
1.00
 50
0.00
  0
INSERT
  2
ROUND_5
  8
IMP_EC_PLATE_ISO-NPTH_DRL
 10
225.99396
 20
-127.12446
 30
0.00
 41
1.00
 42
1.00
 50
0.00
  0
INSERT
  2
ROUND_5
  8
IMP_EC_PLATE_ISO-NPTH_DRL
 10
228.23932
 20
-85.00364
 30
0.00
 41
1.00
 42
1.00
 50
0.00
  0
INSERT
  2
ROUND_5
  8
IMP_EC_PLATE_ISO-NPTH_DRL
 10
259.18668
 20
-184.17286
 30
0.00
 41
1.00
 42
1.00
 50
0.00
  0
INSERT
  2
ROUND_5
  8
IMP_EC_PLATE_ISO-NPTH_DRL
 10
273.60626
 20
-108.1024
 30
0.00
 41
1.00
 42
1.00
 50
0.00
  0
INSERT
  2
ROUND_5
  8
IMP_EC_PLATE_ISO-NPTH_DRL
 10
278.19604
 20
-165.1635
 30
0.00
 41
1.00
 42
1.00
 50
0.00
  0
INSERT
  2
ROUND_5
  8
IMP_EC_PLATE_ISO-NPTH_DRL
 10
283.06522
 20
-127.12446
 30
0.00
 41
1.00
 42
1.00
 50
0.00
  0
INSERT
  2
ROUND_5
  8
IMP_EC_PLATE_ISO-NPTH_DRL
 10
287.78454
 20
-146.14398
 30
0.00
 41
1.00
 42
1.00
 50
0.00
  0
INSERT
  2
ROUND_5
  8
IMP_EC_PLATE_ISO-NPTH_DRL
 10
309.01386
 20
-85.00364
 30
0.00
 41
1.00
 42
1.00
 50
0.00
  0
INSERT
  2
ROUND_5
  8
IMP_EC_PLATE_ISO-NPTH_DRL
 10
330.03236
 20
-127.12446
 30
0.00
 41
1.00
 42
1.00
 50
0.00
  0
INSERT
  2
ROUND_5
  8
IMP_EC_PLATE_ISO-NPTH_DRL
 10
330.03236
 20
-155.65374
 30
0.00
 41
1.00
 42
1.00
 50
0.00
  0
INSERT
  2
ROUND_5
  8
IMP_EC_PLATE_ISO-NPTH_DRL
 10
330.03236
 20
-184.17286
 30
0.00
 41
1.00
 42
1.00
 50
0.00
  0
INSERT
  2
ROUND_5
  8
IMP_EC_PLATE_ISO-NPTH_DRL
 10
334.44434
 20
-108.1278
 30
0.00
 41
1.00
 42
1.00
 50
0.00
  0
INSERT
  2
ROUND_5
  8
IMP_EC_PLATE_ISO-NPTH_DRL
 10
353.44862
 20
-165.2778
 30
0.00
 41
1.00
 42
1.00
 50
0.00
  0
INSERT
  2
ROUND_5
  8
IMP_EC_PLATE_ISO-NPTH_DRL
 10
353.44862
 20
-184.29732
 30
0.00
 41
1.00
 42
1.00
 50
0.00
  0
INSERT
  2
ROUND_5
  8
IMP_EC_PLATE_ISO-NPTH_DRL
 10
372.46814
 20
-184.29732
 30
0.00
 41
1.00
 42
1.00
 50
0.00
  0
INSERT
  2
ROUND_5
  8
IMP_EC_PLATE_ISO-NPTH_DRL
 10
372.48338
 20
-85.00618
 30
0.00
 41
1.00
 42
1.00
 50
0.00
  0
INSERT
  2
ROUND_5
  8
IMP_EC_PLATE_ISO-NPTH_DRL
 10
372.48338
 20
-127.14732
 30
0.00
 41
1.00
 42
1.00
 50
0.00
  0
INSERT
  2
ROUND_5
  8
IMP_EC_PLATE_ISO-NPTH_DRL
 10
372.49862
 20
-165.2778
 30
0.00
 41
1.00
 42
1.00
 50
0.00
  0
ENDSEC
  0
EOF
