  0
SECTION
  2
HEADER
  9
$EXTNAMES
290
1
  9
$EXTMIN
 10
39.77506
 20
-200.853332
 30
0.00
  9
$EXTMAX
 10
397.07506
 20
-68.403332
 30
0.00
  0
ENDSEC
  0
SECTION
  2
TABLES
  0
TABLE
  2
LTYPE
 70
3
  0
LTYPE
  2
BYBLOCK
 70
0
  3

 72
65
 73
0
 40
0.00
  0
LTYPE
  2
BYLAYER
 70
0
  3

 72
65
 73
0
 40
0.00
  0
LTYPE
  2
CONTINUOUS
 70
0
  3
Solid line
 72
65
 73
0
 40
0.00
  0
ENDTAB
  0
TABLE
  2
LAYER
 70
4
  0
LAYER
  2
0
 70
0
 62
7
  6
CONTINUOUS
  0
LAYER
  2
ME_EC_PLATE_V4-B_MASK_GBR
 70
0
 62
7
  6
CONTINUOUS
  0
LAYER
  2
ME_EC_PLATE_V4-EDGE_CUTS_GBR
 70
0
 62
7
  6
CONTINUOUS
  0
LAYER
  2
ME_EC_PLATE_V4-NPTH_DRL
 70
0
 62
2
  6
CONTINUOUS
  0
ENDTAB
  0
TABLE
  2
STYLE
 70
0
  0
ENDTAB
  0
ENDSEC
  0
SECTION
  2
BLOCKS
  0
BLOCK
  2
ROUND_1
  3
ROUND_1
 70
64
 10
0.00
 20
0.00
 30
0.00
  0
CIRCLE
  8
0
 10
0.00
 20
0.00
 30
0.00
 40
0.90
  0
ENDBLK
  0
BLOCK
  2
ROUND_2
  3
ROUND_2
 70
64
 10
0.00
 20
0.00
 30
0.00
  0
CIRCLE
  8
0
 10
0.00
 20
0.00
 30
0.00
 40
0.10
  0
ENDBLK
  0
BLOCK
  2
ROUND_3
  3
ROUND_3
 70
64
 10
0.00
 20
0.00
 30
0.00
  0
CIRCLE
  8
0
 10
0.00
 20
0.00
 30
0.00
 40
0.90043
  0
ENDBLK
  0
ENDSEC
  0
SECTION
  2
ENTITIES
  0
INSERT
  2
ROUND_1
  8
ME_EC_PLATE_V4-B_MASK_GBR
 10
64.37506
 20
-85.00679
 30
0.00
 41
1.00
 42
1.00
 50
0.00
  0
INSERT
  2
ROUND_1
  8
ME_EC_PLATE_V4-B_MASK_GBR
 10
273.60506
 20
-108.103332
 30
0.00
 41
1.00
 42
1.00
 50
0.00
  0
INSERT
  2
ROUND_1
  8
ME_EC_PLATE_V4-B_MASK_GBR
 10
164.12506
 20
-85.00679
 30
0.00
 41
1.00
 42
1.00
 50
0.00
  0
INSERT
  2
ROUND_1
  8
ME_EC_PLATE_V4-B_MASK_GBR
 10
48.29756
 20
-146.143332
 30
0.00
 41
1.00
 42
1.00
 50
0.00
  0
INSERT
  2
ROUND_1
  8
ME_EC_PLATE_V4-B_MASK_GBR
 10
334.444268
 20
-108.126884
 30
0.00
 41
1.00
 42
1.00
 50
0.00
  0
INSERT
  2
ROUND_1
  8
ME_EC_PLATE_V4-B_MASK_GBR
 10
249.62506
 20
-85.00679
 30
0.00
 41
1.00
 42
1.00
 50
0.00
  0
INSERT
  2
ROUND_1
  8
ME_EC_PLATE_V4-B_MASK_GBR
 10
353.474268
 20
-165.276884
 30
0.00
 41
1.00
 42
1.00
 50
0.00
  0
INSERT
  2
ROUND_1
  8
ME_EC_PLATE_V4-B_MASK_GBR
 10
135.74506
 20
-146.143332
 30
0.00
 41
1.00
 42
1.00
 50
0.00
  0
INSERT
  2
ROUND_1
  8
ME_EC_PLATE_V4-B_MASK_GBR
 10
69.10506
 20
-127.123332
 30
0.00
 41
1.00
 42
1.00
 50
0.00
  0
INSERT
  2
ROUND_1
  8
ME_EC_PLATE_V4-B_MASK_GBR
 10
332.424664
 20
-85.00679
 30
0.00
 41
1.00
 42
1.00
 50
0.00
  0
INSERT
  2
ROUND_1
  8
ME_EC_PLATE_V4-B_MASK_GBR
 10
50.086592
 20
-184.173332
 30
0.00
 41
1.00
 42
1.00
 50
0.00
  0
INSERT
  2
ROUND_1
  8
ME_EC_PLATE_V4-B_MASK_GBR
 10
211.76506
 20
-146.143332
 30
0.00
 41
1.00
 42
1.00
 50
0.00
  0
INSERT
  2
ROUND_1
  8
ME_EC_PLATE_V4-B_MASK_GBR
 10
149.91506
 20
-127.123332
 30
0.00
 41
1.00
 42
1.00
 50
0.00
  0
INSERT
  2
ROUND_1
  8
ME_EC_PLATE_V4-B_MASK_GBR
 10
372.484268
 20
-85.00679
 30
0.00
 41
1.00
 42
1.00
 50
0.00
  0
INSERT
  2
ROUND_1
  8
ME_EC_PLATE_V4-B_MASK_GBR
 10
116.418596
 20
-184.173332
 30
0.00
 41
1.00
 42
1.00
 50
0.00
  0
INSERT
  2
ROUND_1
  8
ME_EC_PLATE_V4-B_MASK_GBR
 10
287.78506
 20
-146.143332
 30
0.00
 41
1.00
 42
1.00
 50
0.00
  0
INSERT
  2
ROUND_1
  8
ME_EC_PLATE_V4-B_MASK_GBR
 10
225.99506
 20
-127.123332
 30
0.00
 41
1.00
 42
1.00
 50
0.00
  0
INSERT
  2
ROUND_1
  8
ME_EC_PLATE_V4-B_MASK_GBR
 10
64.37506
 20
-108.103332
 30
0.00
 41
1.00
 42
1.00
 50
0.00
  0
INSERT
  2
ROUND_1
  8
ME_EC_PLATE_V4-B_MASK_GBR
 10
159.300008
 20
-188.673332
 30
0.00
 41
1.00
 42
1.00
 50
0.00
  0
INSERT
  2
ROUND_1
  8
ME_EC_PLATE_V4-B_MASK_GBR
 10
88.19506
 20
-165.163332
 30
0.00
 41
1.00
 42
1.00
 50
0.00
  0
INSERT
  2
ROUND_1
  8
ME_EC_PLATE_V4-B_MASK_GBR
 10
283.06506
 20
-127.123332
 30
0.00
 41
1.00
 42
1.00
 50
0.00
  0
INSERT
  2
ROUND_1
  8
ME_EC_PLATE_V4-B_MASK_GBR
 10
140.45506
 20
-108.103332
 30
0.00
 41
1.00
 42
1.00
 50
0.00
  0
INSERT
  2
ROUND_1
  8
ME_EC_PLATE_V4-B_MASK_GBR
 10
216.450008
 20
-188.673332
 30
0.00
 41
1.00
 42
1.00
 50
0.00
  0
INSERT
  2
ROUND_1
  8
ME_EC_PLATE_V4-B_MASK_GBR
 10
126.19506
 20
-165.163332
 30
0.00
 41
1.00
 42
1.00
 50
0.00
  0
INSERT
  2
ROUND_1
  8
ME_EC_PLATE_V4-B_MASK_GBR
 10
325.89006
 20
-127.123332
 30
0.00
 41
1.00
 42
1.00
 50
0.00
  0
INSERT
  2
ROUND_1
  8
ME_EC_PLATE_V4-B_MASK_GBR
 10
216.53506
 20
-108.103332
 30
0.00
 41
1.00
 42
1.00
 50
0.00
  0
INSERT
  2
ROUND_1
  8
ME_EC_PLATE_V4-B_MASK_GBR
 10
259.187508
 20
-184.173332
 30
0.00
 41
1.00
 42
1.00
 50
0.00
  0
INSERT
  2
ROUND_1
  8
ME_EC_PLATE_V4-B_MASK_GBR
 10
202.19506
 20
-165.163332
 30
0.00
 41
1.00
 42
1.00
 50
0.00
  0
INSERT
  2
ROUND_1
  8
ME_EC_PLATE_V4-B_MASK_GBR
 10
372.484268
 20
-127.146884
 30
0.00
 41
1.00
 42
1.00
 50
0.00
  0
INSERT
  2
ROUND_1
  8
ME_EC_PLATE_V4-B_MASK_GBR
 10
330.033388
 20
-184.173332
 30
0.00
 41
1.00
 42
1.00
 50
0.00
  0
INSERT
  2
ROUND_1
  8
ME_EC_PLATE_V4-B_MASK_GBR
 10
278.19506
 20
-165.163332
 30
0.00
 41
1.00
 42
1.00
 50
0.00
  0
INSERT
  2
ROUND_1
  8
ME_EC_PLATE_V4-B_MASK_GBR
 10
372.494268
 20
-184.296884
 30
0.00
 41
1.00
 42
1.00
 50
0.00
  0
POLYLINE
  8
ME_EC_PLATE_V4-EDGE_CUTS_GBR
 66
1
 10
0.00
 20
0.00
 30
0.00
 40
0.20
 41
0.20
  0
VERTEX
  8
ME_EC_PLATE_V4-EDGE_CUTS_GBR
 10
238.457508
 20
-177.123332
 30
0.00
  0
VERTEX
  8
ME_EC_PLATE_V4-EDGE_CUTS_GBR
 10
251.157508
 20
-177.123332
 30
0.00
  0
SEQEND
  0
POLYLINE
  8
ME_EC_PLATE_V4-EDGE_CUTS_GBR
 66
1
 10
0.00
 20
0.00
 30
0.00
 40
0.20
 41
0.20
  0
VERTEX
  8
ME_EC_PLATE_V4-EDGE_CUTS_GBR
 10
251.157508
 20
-191.223332
 30
0.00
  0
VERTEX
  8
ME_EC_PLATE_V4-EDGE_CUTS_GBR
 10
238.457508
 20
-191.223332
 30
0.00
  0
SEQEND
  0
POLYLINE
  8
ME_EC_PLATE_V4-EDGE_CUTS_GBR
 66
1
 10
0.00
 20
0.00
 30
0.00
 40
0.20
 41
0.20
  0
VERTEX
  8
ME_EC_PLATE_V4-EDGE_CUTS_GBR
 10
237.457508
 20
-178.123332
 30
0.00
  0
VERTEX
  8
ME_EC_PLATE_V4-EDGE_CUTS_GBR
 10
238.457508
 20
-177.123332
 30
0.00
  0
SEQEND
  0
POLYLINE
  8
ME_EC_PLATE_V4-EDGE_CUTS_GBR
 66
1
 10
0.00
 20
0.00
 30
0.00
 40
0.20
 41
0.20
  0
VERTEX
  8
ME_EC_PLATE_V4-EDGE_CUTS_GBR
 10
237.457508
 20
-190.223332
 30
0.00
  0
VERTEX
  8
ME_EC_PLATE_V4-EDGE_CUTS_GBR
 10
237.457508
 20
-178.123332
 30
0.00
  0
SEQEND
  0
POLYLINE
  8
ME_EC_PLATE_V4-EDGE_CUTS_GBR
 66
1
 10
0.00
 20
0.00
 30
0.00
 40
0.20
 41
0.20
  0
VERTEX
  8
ME_EC_PLATE_V4-EDGE_CUTS_GBR
 10
252.157508
 20
-178.123332
 30
0.00
  0
VERTEX
  8
ME_EC_PLATE_V4-EDGE_CUTS_GBR
 10
252.157508
 20
-190.223332
 30
0.00
  0
SEQEND
  0
POLYLINE
  8
ME_EC_PLATE_V4-EDGE_CUTS_GBR
 66
1
 10
0.00
 20
0.00
 30
0.00
 40
0.20
 41
0.20
  0
VERTEX
  8
ME_EC_PLATE_V4-EDGE_CUTS_GBR
 10
251.157508
 20
-177.123332
 30
0.00
  0
VERTEX
  8
ME_EC_PLATE_V4-EDGE_CUTS_GBR
 10
252.157508
 20
-178.123332
 30
0.00
  0
SEQEND
  0
POLYLINE
  8
ME_EC_PLATE_V4-EDGE_CUTS_GBR
 66
1
 10
0.00
 20
0.00
 30
0.00
 40
0.20
 41
0.20
  0
VERTEX
  8
ME_EC_PLATE_V4-EDGE_CUTS_GBR
 10
238.457508
 20
-191.223332
 30
0.00
  0
VERTEX
  8
ME_EC_PLATE_V4-EDGE_CUTS_GBR
 10
237.457508
 20
-190.223332
 30
0.00
  0
SEQEND
  0
POLYLINE
  8
ME_EC_PLATE_V4-EDGE_CUTS_GBR
 66
1
 10
0.00
 20
0.00
 30
0.00
 40
0.20
 41
0.20
  0
VERTEX
  8
ME_EC_PLATE_V4-EDGE_CUTS_GBR
 10
252.157508
 20
-190.223332
 30
0.00
  0
VERTEX
  8
ME_EC_PLATE_V4-EDGE_CUTS_GBR
 10
251.157508
 20
-191.223332
 30
0.00
  0
SEQEND
  0
POLYLINE
  8
ME_EC_PLATE_V4-EDGE_CUTS_GBR
 66
1
 10
0.00
 20
0.00
 30
0.00
 40
0.20
 41
0.20
  0
VERTEX
  8
ME_EC_PLATE_V4-EDGE_CUTS_GBR
 10
138.148596
 20
-178.123332
 30
0.00
  0
VERTEX
  8
ME_EC_PLATE_V4-EDGE_CUTS_GBR
 10
138.148596
 20
-190.223332
 30
0.00
  0
SEQEND
  0
POLYLINE
  8
ME_EC_PLATE_V4-EDGE_CUTS_GBR
 66
1
 10
0.00
 20
0.00
 30
0.00
 40
0.20
 41
0.20
  0
VERTEX
  8
ME_EC_PLATE_V4-EDGE_CUTS_GBR
 10
137.148596
 20
-191.223332
 30
0.00
  0
VERTEX
  8
ME_EC_PLATE_V4-EDGE_CUTS_GBR
 10
124.448596
 20
-191.223332
 30
0.00
  0
SEQEND
  0
POLYLINE
  8
ME_EC_PLATE_V4-EDGE_CUTS_GBR
 66
1
 10
0.00
 20
0.00
 30
0.00
 40
0.20
 41
0.20
  0
VERTEX
  8
ME_EC_PLATE_V4-EDGE_CUTS_GBR
 10
137.148596
 20
-177.123332
 30
0.00
  0
VERTEX
  8
ME_EC_PLATE_V4-EDGE_CUTS_GBR
 10
138.148596
 20
-178.123332
 30
0.00
  0
SEQEND
  0
POLYLINE
  8
ME_EC_PLATE_V4-EDGE_CUTS_GBR
 66
1
 10
0.00
 20
0.00
 30
0.00
 40
0.20
 41
0.20
  0
VERTEX
  8
ME_EC_PLATE_V4-EDGE_CUTS_GBR
 10
124.448596
 20
-177.123332
 30
0.00
  0
VERTEX
  8
ME_EC_PLATE_V4-EDGE_CUTS_GBR
 10
137.148596
 20
-177.123332
 30
0.00
  0
SEQEND
  0
POLYLINE
  8
ME_EC_PLATE_V4-EDGE_CUTS_GBR
 66
1
 10
0.00
 20
0.00
 30
0.00
 40
0.20
 41
0.20
  0
VERTEX
  8
ME_EC_PLATE_V4-EDGE_CUTS_GBR
 10
124.448596
 20
-191.223332
 30
0.00
  0
VERTEX
  8
ME_EC_PLATE_V4-EDGE_CUTS_GBR
 10
123.448596
 20
-190.223332
 30
0.00
  0
SEQEND
  0
POLYLINE
  8
ME_EC_PLATE_V4-EDGE_CUTS_GBR
 66
1
 10
0.00
 20
0.00
 30
0.00
 40
0.20
 41
0.20
  0
VERTEX
  8
ME_EC_PLATE_V4-EDGE_CUTS_GBR
 10
138.148596
 20
-190.223332
 30
0.00
  0
VERTEX
  8
ME_EC_PLATE_V4-EDGE_CUTS_GBR
 10
137.148596
 20
-191.223332
 30
0.00
  0
SEQEND
  0
POLYLINE
  8
ME_EC_PLATE_V4-EDGE_CUTS_GBR
 66
1
 10
0.00
 20
0.00
 30
0.00
 40
0.20
 41
0.20
  0
VERTEX
  8
ME_EC_PLATE_V4-EDGE_CUTS_GBR
 10
123.448596
 20
-178.123332
 30
0.00
  0
VERTEX
  8
ME_EC_PLATE_V4-EDGE_CUTS_GBR
 10
124.448596
 20
-177.123332
 30
0.00
  0
SEQEND
  0
POLYLINE
  8
ME_EC_PLATE_V4-EDGE_CUTS_GBR
 66
1
 10
0.00
 20
0.00
 30
0.00
 40
0.20
 41
0.20
  0
VERTEX
  8
ME_EC_PLATE_V4-EDGE_CUTS_GBR
 10
123.448596
 20
-190.223332
 30
0.00
  0
VERTEX
  8
ME_EC_PLATE_V4-EDGE_CUTS_GBR
 10
123.448596
 20
-178.123332
 30
0.00
  0
SEQEND
  0
POLYLINE
  8
ME_EC_PLATE_V4-EDGE_CUTS_GBR
 66
1
 10
0.00
 20
0.00
 30
0.00
 40
0.20
 41
0.20
  0
VERTEX
  8
ME_EC_PLATE_V4-EDGE_CUTS_GBR
 10
384.6312
 20
-137.2626
 30
0.00
  0
VERTEX
  8
ME_EC_PLATE_V4-EDGE_CUTS_GBR
 10
384.6312
 20
-153.2626
 30
0.00
  0
SEQEND
  0
POLYLINE
  8
ME_EC_PLATE_V4-EDGE_CUTS_GBR
 66
1
 10
0.00
 20
0.00
 30
0.00
 40
0.20
 41
0.20
  0
VERTEX
  8
ME_EC_PLATE_V4-EDGE_CUTS_GBR
 10
341.294268
 20
-153.2626
 30
0.00
  0
VERTEX
  8
ME_EC_PLATE_V4-EDGE_CUTS_GBR
 10
384.6312
 20
-153.2626
 30
0.00
  0
SEQEND
  0
POLYLINE
  8
ME_EC_PLATE_V4-EDGE_CUTS_GBR
 66
1
 10
0.00
 20
0.00
 30
0.00
 40
0.20
 41
0.20
  0
VERTEX
  8
ME_EC_PLATE_V4-EDGE_CUTS_GBR
 10
341.294268
 20
-137.2626
 30
0.00
  0
VERTEX
  8
ME_EC_PLATE_V4-EDGE_CUTS_GBR
 10
341.294268
 20
-153.2626
 30
0.00
  0
SEQEND
  0
POLYLINE
  8
ME_EC_PLATE_V4-EDGE_CUTS_GBR
 66
1
 10
0.00
 20
0.00
 30
0.00
 40
0.20
 41
0.20
  0
VERTEX
  8
ME_EC_PLATE_V4-EDGE_CUTS_GBR
 10
374.634268
 20
-78.95679
 30
0.00
  0
VERTEX
  8
ME_EC_PLATE_V4-EDGE_CUTS_GBR
 10
375.634268
 20
-77.95679
 30
0.00
  0
SEQEND
  0
POLYLINE
  8
ME_EC_PLATE_V4-EDGE_CUTS_GBR
 66
1
 10
0.00
 20
0.00
 30
0.00
 40
0.20
 41
0.20
  0
VERTEX
  8
ME_EC_PLATE_V4-EDGE_CUTS_GBR
 10
374.634268
 20
-91.05679
 30
0.00
  0
VERTEX
  8
ME_EC_PLATE_V4-EDGE_CUTS_GBR
 10
374.634268
 20
-78.95679
 30
0.00
  0
SEQEND
  0
POLYLINE
  8
ME_EC_PLATE_V4-EDGE_CUTS_GBR
 66
1
 10
0.00
 20
0.00
 30
0.00
 40
0.20
 41
0.20
  0
VERTEX
  8
ME_EC_PLATE_V4-EDGE_CUTS_GBR
 10
375.634268
 20
-92.05679
 30
0.00
  0
VERTEX
  8
ME_EC_PLATE_V4-EDGE_CUTS_GBR
 10
374.634268
 20
-91.05679
 30
0.00
  0
SEQEND
  0
POLYLINE
  8
ME_EC_PLATE_V4-EDGE_CUTS_GBR
 66
1
 10
0.00
 20
0.00
 30
0.00
 40
0.20
 41
0.20
  0
VERTEX
  8
ME_EC_PLATE_V4-EDGE_CUTS_GBR
 10
388.334268
 20
-92.05679
 30
0.00
  0
VERTEX
  8
ME_EC_PLATE_V4-EDGE_CUTS_GBR
 10
375.634268
 20
-92.05679
 30
0.00
  0
SEQEND
  0
POLYLINE
  8
ME_EC_PLATE_V4-EDGE_CUTS_GBR
 66
1
 10
0.00
 20
0.00
 30
0.00
 40
0.20
 41
0.20
  0
VERTEX
  8
ME_EC_PLATE_V4-EDGE_CUTS_GBR
 10
389.334268
 20
-91.05679
 30
0.00
  0
VERTEX
  8
ME_EC_PLATE_V4-EDGE_CUTS_GBR
 10
388.334268
 20
-92.05679
 30
0.00
  0
SEQEND
  0
POLYLINE
  8
ME_EC_PLATE_V4-EDGE_CUTS_GBR
 66
1
 10
0.00
 20
0.00
 30
0.00
 40
0.20
 41
0.20
  0
VERTEX
  8
ME_EC_PLATE_V4-EDGE_CUTS_GBR
 10
389.334268
 20
-78.95679
 30
0.00
  0
VERTEX
  8
ME_EC_PLATE_V4-EDGE_CUTS_GBR
 10
389.334268
 20
-91.05679
 30
0.00
  0
SEQEND
  0
POLYLINE
  8
ME_EC_PLATE_V4-EDGE_CUTS_GBR
 66
1
 10
0.00
 20
0.00
 30
0.00
 40
0.20
 41
0.20
  0
VERTEX
  8
ME_EC_PLATE_V4-EDGE_CUTS_GBR
 10
388.334268
 20
-77.95679
 30
0.00
  0
VERTEX
  8
ME_EC_PLATE_V4-EDGE_CUTS_GBR
 10
389.334268
 20
-78.95679
 30
0.00
  0
SEQEND
  0
POLYLINE
  8
ME_EC_PLATE_V4-EDGE_CUTS_GBR
 66
1
 10
0.00
 20
0.00
 30
0.00
 40
0.20
 41
0.20
  0
VERTEX
  8
ME_EC_PLATE_V4-EDGE_CUTS_GBR
 10
375.634268
 20
-77.95679
 30
0.00
  0
VERTEX
  8
ME_EC_PLATE_V4-EDGE_CUTS_GBR
 10
388.334268
 20
-77.95679
 30
0.00
  0
SEQEND
  0
POLYLINE
  8
ME_EC_PLATE_V4-EDGE_CUTS_GBR
 66
1
 10
0.00
 20
0.00
 30
0.00
 40
0.20
 41
0.20
  0
VERTEX
  8
ME_EC_PLATE_V4-EDGE_CUTS_GBR
 10
355.614268
 20
-78.953332
 30
0.00
  0
VERTEX
  8
ME_EC_PLATE_V4-EDGE_CUTS_GBR
 10
356.614268
 20
-77.953332
 30
0.00
  0
SEQEND
  0
POLYLINE
  8
ME_EC_PLATE_V4-EDGE_CUTS_GBR
 66
1
 10
0.00
 20
0.00
 30
0.00
 40
0.20
 41
0.20
  0
VERTEX
  8
ME_EC_PLATE_V4-EDGE_CUTS_GBR
 10
355.614268
 20
-91.053332
 30
0.00
  0
VERTEX
  8
ME_EC_PLATE_V4-EDGE_CUTS_GBR
 10
355.614268
 20
-78.953332
 30
0.00
  0
SEQEND
  0
POLYLINE
  8
ME_EC_PLATE_V4-EDGE_CUTS_GBR
 66
1
 10
0.00
 20
0.00
 30
0.00
 40
0.20
 41
0.20
  0
VERTEX
  8
ME_EC_PLATE_V4-EDGE_CUTS_GBR
 10
356.614268
 20
-92.053332
 30
0.00
  0
VERTEX
  8
ME_EC_PLATE_V4-EDGE_CUTS_GBR
 10
355.614268
 20
-91.053332
 30
0.00
  0
SEQEND
  0
POLYLINE
  8
ME_EC_PLATE_V4-EDGE_CUTS_GBR
 66
1
 10
0.00
 20
0.00
 30
0.00
 40
0.20
 41
0.20
  0
VERTEX
  8
ME_EC_PLATE_V4-EDGE_CUTS_GBR
 10
369.314268
 20
-92.053332
 30
0.00
  0
VERTEX
  8
ME_EC_PLATE_V4-EDGE_CUTS_GBR
 10
356.614268
 20
-92.053332
 30
0.00
  0
SEQEND
  0
POLYLINE
  8
ME_EC_PLATE_V4-EDGE_CUTS_GBR
 66
1
 10
0.00
 20
0.00
 30
0.00
 40
0.20
 41
0.20
  0
VERTEX
  8
ME_EC_PLATE_V4-EDGE_CUTS_GBR
 10
370.314268
 20
-91.053332
 30
0.00
  0
VERTEX
  8
ME_EC_PLATE_V4-EDGE_CUTS_GBR
 10
369.314268
 20
-92.053332
 30
0.00
  0
SEQEND
  0
POLYLINE
  8
ME_EC_PLATE_V4-EDGE_CUTS_GBR
 66
1
 10
0.00
 20
0.00
 30
0.00
 40
0.20
 41
0.20
  0
VERTEX
  8
ME_EC_PLATE_V4-EDGE_CUTS_GBR
 10
370.314268
 20
-78.953332
 30
0.00
  0
VERTEX
  8
ME_EC_PLATE_V4-EDGE_CUTS_GBR
 10
370.314268
 20
-91.053332
 30
0.00
  0
SEQEND
  0
POLYLINE
  8
ME_EC_PLATE_V4-EDGE_CUTS_GBR
 66
1
 10
0.00
 20
0.00
 30
0.00
 40
0.20
 41
0.20
  0
VERTEX
  8
ME_EC_PLATE_V4-EDGE_CUTS_GBR
 10
369.314268
 20
-77.953332
 30
0.00
  0
VERTEX
  8
ME_EC_PLATE_V4-EDGE_CUTS_GBR
 10
370.314268
 20
-78.953332
 30
0.00
  0
SEQEND
  0
POLYLINE
  8
ME_EC_PLATE_V4-EDGE_CUTS_GBR
 66
1
 10
0.00
 20
0.00
 30
0.00
 40
0.20
 41
0.20
  0
VERTEX
  8
ME_EC_PLATE_V4-EDGE_CUTS_GBR
 10
356.614268
 20
-77.953332
 30
0.00
  0
VERTEX
  8
ME_EC_PLATE_V4-EDGE_CUTS_GBR
 10
369.314268
 20
-77.953332
 30
0.00
  0
SEQEND
  0
POLYLINE
  8
ME_EC_PLATE_V4-EDGE_CUTS_GBR
 66
1
 10
0.00
 20
0.00
 30
0.00
 40
0.20
 41
0.20
  0
VERTEX
  8
ME_EC_PLATE_V4-EDGE_CUTS_GBR
 10
336.594268
 20
-78.95679
 30
0.00
  0
VERTEX
  8
ME_EC_PLATE_V4-EDGE_CUTS_GBR
 10
337.594268
 20
-77.95679
 30
0.00
  0
SEQEND
  0
POLYLINE
  8
ME_EC_PLATE_V4-EDGE_CUTS_GBR
 66
1
 10
0.00
 20
0.00
 30
0.00
 40
0.20
 41
0.20
  0
VERTEX
  8
ME_EC_PLATE_V4-EDGE_CUTS_GBR
 10
336.594268
 20
-91.05679
 30
0.00
  0
VERTEX
  8
ME_EC_PLATE_V4-EDGE_CUTS_GBR
 10
336.594268
 20
-78.95679
 30
0.00
  0
SEQEND
  0
POLYLINE
  8
ME_EC_PLATE_V4-EDGE_CUTS_GBR
 66
1
 10
0.00
 20
0.00
 30
0.00
 40
0.20
 41
0.20
  0
VERTEX
  8
ME_EC_PLATE_V4-EDGE_CUTS_GBR
 10
337.594268
 20
-92.05679
 30
0.00
  0
VERTEX
  8
ME_EC_PLATE_V4-EDGE_CUTS_GBR
 10
336.594268
 20
-91.05679
 30
0.00
  0
SEQEND
  0
POLYLINE
  8
ME_EC_PLATE_V4-EDGE_CUTS_GBR
 66
1
 10
0.00
 20
0.00
 30
0.00
 40
0.20
 41
0.20
  0
VERTEX
  8
ME_EC_PLATE_V4-EDGE_CUTS_GBR
 10
350.294268
 20
-92.05679
 30
0.00
  0
VERTEX
  8
ME_EC_PLATE_V4-EDGE_CUTS_GBR
 10
337.594268
 20
-92.05679
 30
0.00
  0
SEQEND
  0
POLYLINE
  8
ME_EC_PLATE_V4-EDGE_CUTS_GBR
 66
1
 10
0.00
 20
0.00
 30
0.00
 40
0.20
 41
0.20
  0
VERTEX
  8
ME_EC_PLATE_V4-EDGE_CUTS_GBR
 10
351.294268
 20
-91.05679
 30
0.00
  0
VERTEX
  8
ME_EC_PLATE_V4-EDGE_CUTS_GBR
 10
350.294268
 20
-92.05679
 30
0.00
  0
SEQEND
  0
POLYLINE
  8
ME_EC_PLATE_V4-EDGE_CUTS_GBR
 66
1
 10
0.00
 20
0.00
 30
0.00
 40
0.20
 41
0.20
  0
VERTEX
  8
ME_EC_PLATE_V4-EDGE_CUTS_GBR
 10
351.294268
 20
-78.95679
 30
0.00
  0
VERTEX
  8
ME_EC_PLATE_V4-EDGE_CUTS_GBR
 10
351.294268
 20
-91.05679
 30
0.00
  0
SEQEND
  0
POLYLINE
  8
ME_EC_PLATE_V4-EDGE_CUTS_GBR
 66
1
 10
0.00
 20
0.00
 30
0.00
 40
0.20
 41
0.20
  0
VERTEX
  8
ME_EC_PLATE_V4-EDGE_CUTS_GBR
 10
350.294268
 20
-77.95679
 30
0.00
  0
VERTEX
  8
ME_EC_PLATE_V4-EDGE_CUTS_GBR
 10
351.294268
 20
-78.95679
 30
0.00
  0
SEQEND
  0
POLYLINE
  8
ME_EC_PLATE_V4-EDGE_CUTS_GBR
 66
1
 10
0.00
 20
0.00
 30
0.00
 40
0.20
 41
0.20
  0
VERTEX
  8
ME_EC_PLATE_V4-EDGE_CUTS_GBR
 10
337.594268
 20
-77.95679
 30
0.00
  0
VERTEX
  8
ME_EC_PLATE_V4-EDGE_CUTS_GBR
 10
350.294268
 20
-77.95679
 30
0.00
  0
SEQEND
  0
POLYLINE
  8
ME_EC_PLATE_V4-EDGE_CUTS_GBR
 66
1
 10
0.00
 20
0.00
 30
0.00
 40
0.20
 41
0.20
  0
VERTEX
  8
ME_EC_PLATE_V4-EDGE_CUTS_GBR
 10
313.55506
 20
-78.953332
 30
0.00
  0
VERTEX
  8
ME_EC_PLATE_V4-EDGE_CUTS_GBR
 10
314.55506
 20
-77.953332
 30
0.00
  0
SEQEND
  0
POLYLINE
  8
ME_EC_PLATE_V4-EDGE_CUTS_GBR
 66
1
 10
0.00
 20
0.00
 30
0.00
 40
0.20
 41
0.20
  0
VERTEX
  8
ME_EC_PLATE_V4-EDGE_CUTS_GBR
 10
313.55506
 20
-91.053332
 30
0.00
  0
VERTEX
  8
ME_EC_PLATE_V4-EDGE_CUTS_GBR
 10
313.55506
 20
-78.953332
 30
0.00
  0
SEQEND
  0
POLYLINE
  8
ME_EC_PLATE_V4-EDGE_CUTS_GBR
 66
1
 10
0.00
 20
0.00
 30
0.00
 40
0.20
 41
0.20
  0
VERTEX
  8
ME_EC_PLATE_V4-EDGE_CUTS_GBR
 10
314.55506
 20
-92.053332
 30
0.00
  0
VERTEX
  8
ME_EC_PLATE_V4-EDGE_CUTS_GBR
 10
313.55506
 20
-91.053332
 30
0.00
  0
SEQEND
  0
POLYLINE
  8
ME_EC_PLATE_V4-EDGE_CUTS_GBR
 66
1
 10
0.00
 20
0.00
 30
0.00
 40
0.20
 41
0.20
  0
VERTEX
  8
ME_EC_PLATE_V4-EDGE_CUTS_GBR
 10
327.25506
 20
-92.053332
 30
0.00
  0
VERTEX
  8
ME_EC_PLATE_V4-EDGE_CUTS_GBR
 10
314.55506
 20
-92.053332
 30
0.00
  0
SEQEND
  0
POLYLINE
  8
ME_EC_PLATE_V4-EDGE_CUTS_GBR
 66
1
 10
0.00
 20
0.00
 30
0.00
 40
0.20
 41
0.20
  0
VERTEX
  8
ME_EC_PLATE_V4-EDGE_CUTS_GBR
 10
328.25506
 20
-91.053332
 30
0.00
  0
VERTEX
  8
ME_EC_PLATE_V4-EDGE_CUTS_GBR
 10
327.25506
 20
-92.053332
 30
0.00
  0
SEQEND
  0
POLYLINE
  8
ME_EC_PLATE_V4-EDGE_CUTS_GBR
 66
1
 10
0.00
 20
0.00
 30
0.00
 40
0.20
 41
0.20
  0
VERTEX
  8
ME_EC_PLATE_V4-EDGE_CUTS_GBR
 10
328.25506
 20
-78.953332
 30
0.00
  0
VERTEX
  8
ME_EC_PLATE_V4-EDGE_CUTS_GBR
 10
328.25506
 20
-91.053332
 30
0.00
  0
SEQEND
  0
POLYLINE
  8
ME_EC_PLATE_V4-EDGE_CUTS_GBR
 66
1
 10
0.00
 20
0.00
 30
0.00
 40
0.20
 41
0.20
  0
VERTEX
  8
ME_EC_PLATE_V4-EDGE_CUTS_GBR
 10
327.25506
 20
-77.953332
 30
0.00
  0
VERTEX
  8
ME_EC_PLATE_V4-EDGE_CUTS_GBR
 10
328.25506
 20
-78.953332
 30
0.00
  0
SEQEND
  0
POLYLINE
  8
ME_EC_PLATE_V4-EDGE_CUTS_GBR
 66
1
 10
0.00
 20
0.00
 30
0.00
 40
0.20
 41
0.20
  0
VERTEX
  8
ME_EC_PLATE_V4-EDGE_CUTS_GBR
 10
314.55506
 20
-77.953332
 30
0.00
  0
VERTEX
  8
ME_EC_PLATE_V4-EDGE_CUTS_GBR
 10
327.25506
 20
-77.953332
 30
0.00
  0
SEQEND
  0
POLYLINE
  8
ME_EC_PLATE_V4-EDGE_CUTS_GBR
 66
1
 10
0.00
 20
0.00
 30
0.00
 40
0.20
 41
0.20
  0
VERTEX
  8
ME_EC_PLATE_V4-EDGE_CUTS_GBR
 10
294.53506
 20
-78.953332
 30
0.00
  0
VERTEX
  8
ME_EC_PLATE_V4-EDGE_CUTS_GBR
 10
295.53506
 20
-77.953332
 30
0.00
  0
SEQEND
  0
POLYLINE
  8
ME_EC_PLATE_V4-EDGE_CUTS_GBR
 66
1
 10
0.00
 20
0.00
 30
0.00
 40
0.20
 41
0.20
  0
VERTEX
  8
ME_EC_PLATE_V4-EDGE_CUTS_GBR
 10
294.53506
 20
-91.053332
 30
0.00
  0
VERTEX
  8
ME_EC_PLATE_V4-EDGE_CUTS_GBR
 10
294.53506
 20
-78.953332
 30
0.00
  0
SEQEND
  0
POLYLINE
  8
ME_EC_PLATE_V4-EDGE_CUTS_GBR
 66
1
 10
0.00
 20
0.00
 30
0.00
 40
0.20
 41
0.20
  0
VERTEX
  8
ME_EC_PLATE_V4-EDGE_CUTS_GBR
 10
295.53506
 20
-92.053332
 30
0.00
  0
VERTEX
  8
ME_EC_PLATE_V4-EDGE_CUTS_GBR
 10
294.53506
 20
-91.053332
 30
0.00
  0
SEQEND
  0
POLYLINE
  8
ME_EC_PLATE_V4-EDGE_CUTS_GBR
 66
1
 10
0.00
 20
0.00
 30
0.00
 40
0.20
 41
0.20
  0
VERTEX
  8
ME_EC_PLATE_V4-EDGE_CUTS_GBR
 10
308.23506
 20
-92.053332
 30
0.00
  0
VERTEX
  8
ME_EC_PLATE_V4-EDGE_CUTS_GBR
 10
295.53506
 20
-92.053332
 30
0.00
  0
SEQEND
  0
POLYLINE
  8
ME_EC_PLATE_V4-EDGE_CUTS_GBR
 66
1
 10
0.00
 20
0.00
 30
0.00
 40
0.20
 41
0.20
  0
VERTEX
  8
ME_EC_PLATE_V4-EDGE_CUTS_GBR
 10
309.23506
 20
-91.053332
 30
0.00
  0
VERTEX
  8
ME_EC_PLATE_V4-EDGE_CUTS_GBR
 10
308.23506
 20
-92.053332
 30
0.00
  0
SEQEND
  0
POLYLINE
  8
ME_EC_PLATE_V4-EDGE_CUTS_GBR
 66
1
 10
0.00
 20
0.00
 30
0.00
 40
0.20
 41
0.20
  0
VERTEX
  8
ME_EC_PLATE_V4-EDGE_CUTS_GBR
 10
309.23506
 20
-78.953332
 30
0.00
  0
VERTEX
  8
ME_EC_PLATE_V4-EDGE_CUTS_GBR
 10
309.23506
 20
-91.053332
 30
0.00
  0
SEQEND
  0
POLYLINE
  8
ME_EC_PLATE_V4-EDGE_CUTS_GBR
 66
1
 10
0.00
 20
0.00
 30
0.00
 40
0.20
 41
0.20
  0
VERTEX
  8
ME_EC_PLATE_V4-EDGE_CUTS_GBR
 10
308.23506
 20
-77.953332
 30
0.00
  0
VERTEX
  8
ME_EC_PLATE_V4-EDGE_CUTS_GBR
 10
309.23506
 20
-78.953332
 30
0.00
  0
SEQEND
  0
POLYLINE
  8
ME_EC_PLATE_V4-EDGE_CUTS_GBR
 66
1
 10
0.00
 20
0.00
 30
0.00
 40
0.20
 41
0.20
  0
VERTEX
  8
ME_EC_PLATE_V4-EDGE_CUTS_GBR
 10
295.53506
 20
-77.953332
 30
0.00
  0
VERTEX
  8
ME_EC_PLATE_V4-EDGE_CUTS_GBR
 10
308.23506
 20
-77.953332
 30
0.00
  0
SEQEND
  0
POLYLINE
  8
ME_EC_PLATE_V4-EDGE_CUTS_GBR
 66
1
 10
0.00
 20
0.00
 30
0.00
 40
0.20
 41
0.20
  0
VERTEX
  8
ME_EC_PLATE_V4-EDGE_CUTS_GBR
 10
275.51506
 20
-78.953332
 30
0.00
  0
VERTEX
  8
ME_EC_PLATE_V4-EDGE_CUTS_GBR
 10
276.51506
 20
-77.953332
 30
0.00
  0
SEQEND
  0
POLYLINE
  8
ME_EC_PLATE_V4-EDGE_CUTS_GBR
 66
1
 10
0.00
 20
0.00
 30
0.00
 40
0.20
 41
0.20
  0
VERTEX
  8
ME_EC_PLATE_V4-EDGE_CUTS_GBR
 10
275.51506
 20
-91.053332
 30
0.00
  0
VERTEX
  8
ME_EC_PLATE_V4-EDGE_CUTS_GBR
 10
275.51506
 20
-78.953332
 30
0.00
  0
SEQEND
  0
POLYLINE
  8
ME_EC_PLATE_V4-EDGE_CUTS_GBR
 66
1
 10
0.00
 20
0.00
 30
0.00
 40
0.20
 41
0.20
  0
VERTEX
  8
ME_EC_PLATE_V4-EDGE_CUTS_GBR
 10
276.51506
 20
-92.053332
 30
0.00
  0
VERTEX
  8
ME_EC_PLATE_V4-EDGE_CUTS_GBR
 10
275.51506
 20
-91.053332
 30
0.00
  0
SEQEND
  0
POLYLINE
  8
ME_EC_PLATE_V4-EDGE_CUTS_GBR
 66
1
 10
0.00
 20
0.00
 30
0.00
 40
0.20
 41
0.20
  0
VERTEX
  8
ME_EC_PLATE_V4-EDGE_CUTS_GBR
 10
289.21506
 20
-92.053332
 30
0.00
  0
VERTEX
  8
ME_EC_PLATE_V4-EDGE_CUTS_GBR
 10
276.51506
 20
-92.053332
 30
0.00
  0
SEQEND
  0
POLYLINE
  8
ME_EC_PLATE_V4-EDGE_CUTS_GBR
 66
1
 10
0.00
 20
0.00
 30
0.00
 40
0.20
 41
0.20
  0
VERTEX
  8
ME_EC_PLATE_V4-EDGE_CUTS_GBR
 10
290.21506
 20
-91.053332
 30
0.00
  0
VERTEX
  8
ME_EC_PLATE_V4-EDGE_CUTS_GBR
 10
289.21506
 20
-92.053332
 30
0.00
  0
SEQEND
  0
POLYLINE
  8
ME_EC_PLATE_V4-EDGE_CUTS_GBR
 66
1
 10
0.00
 20
0.00
 30
0.00
 40
0.20
 41
0.20
  0
VERTEX
  8
ME_EC_PLATE_V4-EDGE_CUTS_GBR
 10
290.21506
 20
-78.953332
 30
0.00
  0
VERTEX
  8
ME_EC_PLATE_V4-EDGE_CUTS_GBR
 10
290.21506
 20
-91.053332
 30
0.00
  0
SEQEND
  0
POLYLINE
  8
ME_EC_PLATE_V4-EDGE_CUTS_GBR
 66
1
 10
0.00
 20
0.00
 30
0.00
 40
0.20
 41
0.20
  0
VERTEX
  8
ME_EC_PLATE_V4-EDGE_CUTS_GBR
 10
289.21506
 20
-77.953332
 30
0.00
  0
VERTEX
  8
ME_EC_PLATE_V4-EDGE_CUTS_GBR
 10
290.21506
 20
-78.953332
 30
0.00
  0
SEQEND
  0
POLYLINE
  8
ME_EC_PLATE_V4-EDGE_CUTS_GBR
 66
1
 10
0.00
 20
0.00
 30
0.00
 40
0.20
 41
0.20
  0
VERTEX
  8
ME_EC_PLATE_V4-EDGE_CUTS_GBR
 10
276.51506
 20
-77.953332
 30
0.00
  0
VERTEX
  8
ME_EC_PLATE_V4-EDGE_CUTS_GBR
 10
289.21506
 20
-77.953332
 30
0.00
  0
SEQEND
  0
POLYLINE
  8
ME_EC_PLATE_V4-EDGE_CUTS_GBR
 66
1
 10
0.00
 20
0.00
 30
0.00
 40
0.20
 41
0.20
  0
VERTEX
  8
ME_EC_PLATE_V4-EDGE_CUTS_GBR
 10
256.49506
 20
-78.953332
 30
0.00
  0
VERTEX
  8
ME_EC_PLATE_V4-EDGE_CUTS_GBR
 10
257.49506
 20
-77.953332
 30
0.00
  0
SEQEND
  0
POLYLINE
  8
ME_EC_PLATE_V4-EDGE_CUTS_GBR
 66
1
 10
0.00
 20
0.00
 30
0.00
 40
0.20
 41
0.20
  0
VERTEX
  8
ME_EC_PLATE_V4-EDGE_CUTS_GBR
 10
256.49506
 20
-91.053332
 30
0.00
  0
VERTEX
  8
ME_EC_PLATE_V4-EDGE_CUTS_GBR
 10
256.49506
 20
-78.953332
 30
0.00
  0
SEQEND
  0
POLYLINE
  8
ME_EC_PLATE_V4-EDGE_CUTS_GBR
 66
1
 10
0.00
 20
0.00
 30
0.00
 40
0.20
 41
0.20
  0
VERTEX
  8
ME_EC_PLATE_V4-EDGE_CUTS_GBR
 10
257.49506
 20
-92.053332
 30
0.00
  0
VERTEX
  8
ME_EC_PLATE_V4-EDGE_CUTS_GBR
 10
256.49506
 20
-91.053332
 30
0.00
  0
SEQEND
  0
POLYLINE
  8
ME_EC_PLATE_V4-EDGE_CUTS_GBR
 66
1
 10
0.00
 20
0.00
 30
0.00
 40
0.20
 41
0.20
  0
VERTEX
  8
ME_EC_PLATE_V4-EDGE_CUTS_GBR
 10
270.19506
 20
-92.053332
 30
0.00
  0
VERTEX
  8
ME_EC_PLATE_V4-EDGE_CUTS_GBR
 10
257.49506
 20
-92.053332
 30
0.00
  0
SEQEND
  0
POLYLINE
  8
ME_EC_PLATE_V4-EDGE_CUTS_GBR
 66
1
 10
0.00
 20
0.00
 30
0.00
 40
0.20
 41
0.20
  0
VERTEX
  8
ME_EC_PLATE_V4-EDGE_CUTS_GBR
 10
271.19506
 20
-91.053332
 30
0.00
  0
VERTEX
  8
ME_EC_PLATE_V4-EDGE_CUTS_GBR
 10
270.19506
 20
-92.053332
 30
0.00
  0
SEQEND
  0
POLYLINE
  8
ME_EC_PLATE_V4-EDGE_CUTS_GBR
 66
1
 10
0.00
 20
0.00
 30
0.00
 40
0.20
 41
0.20
  0
VERTEX
  8
ME_EC_PLATE_V4-EDGE_CUTS_GBR
 10
271.19506
 20
-78.953332
 30
0.00
  0
VERTEX
  8
ME_EC_PLATE_V4-EDGE_CUTS_GBR
 10
271.19506
 20
-91.053332
 30
0.00
  0
SEQEND
  0
POLYLINE
  8
ME_EC_PLATE_V4-EDGE_CUTS_GBR
 66
1
 10
0.00
 20
0.00
 30
0.00
 40
0.20
 41
0.20
  0
VERTEX
  8
ME_EC_PLATE_V4-EDGE_CUTS_GBR
 10
270.19506
 20
-77.953332
 30
0.00
  0
VERTEX
  8
ME_EC_PLATE_V4-EDGE_CUTS_GBR
 10
271.19506
 20
-78.953332
 30
0.00
  0
SEQEND
  0
POLYLINE
  8
ME_EC_PLATE_V4-EDGE_CUTS_GBR
 66
1
 10
0.00
 20
0.00
 30
0.00
 40
0.20
 41
0.20
  0
VERTEX
  8
ME_EC_PLATE_V4-EDGE_CUTS_GBR
 10
257.49506
 20
-77.953332
 30
0.00
  0
VERTEX
  8
ME_EC_PLATE_V4-EDGE_CUTS_GBR
 10
270.19506
 20
-77.953332
 30
0.00
  0
SEQEND
  0
POLYLINE
  8
ME_EC_PLATE_V4-EDGE_CUTS_GBR
 66
1
 10
0.00
 20
0.00
 30
0.00
 40
0.20
 41
0.20
  0
VERTEX
  8
ME_EC_PLATE_V4-EDGE_CUTS_GBR
 10
374.644268
 20
-178.246884
 30
0.00
  0
VERTEX
  8
ME_EC_PLATE_V4-EDGE_CUTS_GBR
 10
375.644268
 20
-177.246884
 30
0.00
  0
SEQEND
  0
POLYLINE
  8
ME_EC_PLATE_V4-EDGE_CUTS_GBR
 66
1
 10
0.00
 20
0.00
 30
0.00
 40
0.20
 41
0.20
  0
VERTEX
  8
ME_EC_PLATE_V4-EDGE_CUTS_GBR
 10
374.644268
 20
-190.346884
 30
0.00
  0
VERTEX
  8
ME_EC_PLATE_V4-EDGE_CUTS_GBR
 10
374.644268
 20
-178.246884
 30
0.00
  0
SEQEND
  0
POLYLINE
  8
ME_EC_PLATE_V4-EDGE_CUTS_GBR
 66
1
 10
0.00
 20
0.00
 30
0.00
 40
0.20
 41
0.20
  0
VERTEX
  8
ME_EC_PLATE_V4-EDGE_CUTS_GBR
 10
375.644268
 20
-191.346884
 30
0.00
  0
VERTEX
  8
ME_EC_PLATE_V4-EDGE_CUTS_GBR
 10
374.644268
 20
-190.346884
 30
0.00
  0
SEQEND
  0
POLYLINE
  8
ME_EC_PLATE_V4-EDGE_CUTS_GBR
 66
1
 10
0.00
 20
0.00
 30
0.00
 40
0.20
 41
0.20
  0
VERTEX
  8
ME_EC_PLATE_V4-EDGE_CUTS_GBR
 10
388.344268
 20
-191.346884
 30
0.00
  0
VERTEX
  8
ME_EC_PLATE_V4-EDGE_CUTS_GBR
 10
375.644268
 20
-191.346884
 30
0.00
  0
SEQEND
  0
POLYLINE
  8
ME_EC_PLATE_V4-EDGE_CUTS_GBR
 66
1
 10
0.00
 20
0.00
 30
0.00
 40
0.20
 41
0.20
  0
VERTEX
  8
ME_EC_PLATE_V4-EDGE_CUTS_GBR
 10
389.344268
 20
-190.346884
 30
0.00
  0
VERTEX
  8
ME_EC_PLATE_V4-EDGE_CUTS_GBR
 10
388.344268
 20
-191.346884
 30
0.00
  0
SEQEND
  0
POLYLINE
  8
ME_EC_PLATE_V4-EDGE_CUTS_GBR
 66
1
 10
0.00
 20
0.00
 30
0.00
 40
0.20
 41
0.20
  0
VERTEX
  8
ME_EC_PLATE_V4-EDGE_CUTS_GBR
 10
389.344268
 20
-178.246884
 30
0.00
  0
VERTEX
  8
ME_EC_PLATE_V4-EDGE_CUTS_GBR
 10
389.344268
 20
-190.346884
 30
0.00
  0
SEQEND
  0
POLYLINE
  8
ME_EC_PLATE_V4-EDGE_CUTS_GBR
 66
1
 10
0.00
 20
0.00
 30
0.00
 40
0.20
 41
0.20
  0
VERTEX
  8
ME_EC_PLATE_V4-EDGE_CUTS_GBR
 10
388.344268
 20
-177.246884
 30
0.00
  0
VERTEX
  8
ME_EC_PLATE_V4-EDGE_CUTS_GBR
 10
389.344268
 20
-178.246884
 30
0.00
  0
SEQEND
  0
POLYLINE
  8
ME_EC_PLATE_V4-EDGE_CUTS_GBR
 66
1
 10
0.00
 20
0.00
 30
0.00
 40
0.20
 41
0.20
  0
VERTEX
  8
ME_EC_PLATE_V4-EDGE_CUTS_GBR
 10
375.644268
 20
-177.246884
 30
0.00
  0
VERTEX
  8
ME_EC_PLATE_V4-EDGE_CUTS_GBR
 10
388.344268
 20
-177.246884
 30
0.00
  0
SEQEND
  0
POLYLINE
  8
ME_EC_PLATE_V4-EDGE_CUTS_GBR
 66
1
 10
0.00
 20
0.00
 30
0.00
 40
0.20
 41
0.20
  0
VERTEX
  8
ME_EC_PLATE_V4-EDGE_CUTS_GBR
 10
355.624268
 20
-178.246884
 30
0.00
  0
VERTEX
  8
ME_EC_PLATE_V4-EDGE_CUTS_GBR
 10
356.624268
 20
-177.246884
 30
0.00
  0
SEQEND
  0
POLYLINE
  8
ME_EC_PLATE_V4-EDGE_CUTS_GBR
 66
1
 10
0.00
 20
0.00
 30
0.00
 40
0.20
 41
0.20
  0
VERTEX
  8
ME_EC_PLATE_V4-EDGE_CUTS_GBR
 10
355.624268
 20
-190.346884
 30
0.00
  0
VERTEX
  8
ME_EC_PLATE_V4-EDGE_CUTS_GBR
 10
355.624268
 20
-178.246884
 30
0.00
  0
SEQEND
  0
POLYLINE
  8
ME_EC_PLATE_V4-EDGE_CUTS_GBR
 66
1
 10
0.00
 20
0.00
 30
0.00
 40
0.20
 41
0.20
  0
VERTEX
  8
ME_EC_PLATE_V4-EDGE_CUTS_GBR
 10
356.624268
 20
-191.346884
 30
0.00
  0
VERTEX
  8
ME_EC_PLATE_V4-EDGE_CUTS_GBR
 10
355.624268
 20
-190.346884
 30
0.00
  0
SEQEND
  0
POLYLINE
  8
ME_EC_PLATE_V4-EDGE_CUTS_GBR
 66
1
 10
0.00
 20
0.00
 30
0.00
 40
0.20
 41
0.20
  0
VERTEX
  8
ME_EC_PLATE_V4-EDGE_CUTS_GBR
 10
369.324268
 20
-191.346884
 30
0.00
  0
VERTEX
  8
ME_EC_PLATE_V4-EDGE_CUTS_GBR
 10
356.624268
 20
-191.346884
 30
0.00
  0
SEQEND
  0
POLYLINE
  8
ME_EC_PLATE_V4-EDGE_CUTS_GBR
 66
1
 10
0.00
 20
0.00
 30
0.00
 40
0.20
 41
0.20
  0
VERTEX
  8
ME_EC_PLATE_V4-EDGE_CUTS_GBR
 10
370.324268
 20
-190.346884
 30
0.00
  0
VERTEX
  8
ME_EC_PLATE_V4-EDGE_CUTS_GBR
 10
369.324268
 20
-191.346884
 30
0.00
  0
SEQEND
  0
POLYLINE
  8
ME_EC_PLATE_V4-EDGE_CUTS_GBR
 66
1
 10
0.00
 20
0.00
 30
0.00
 40
0.20
 41
0.20
  0
VERTEX
  8
ME_EC_PLATE_V4-EDGE_CUTS_GBR
 10
370.324268
 20
-178.246884
 30
0.00
  0
VERTEX
  8
ME_EC_PLATE_V4-EDGE_CUTS_GBR
 10
370.324268
 20
-190.346884
 30
0.00
  0
SEQEND
  0
POLYLINE
  8
ME_EC_PLATE_V4-EDGE_CUTS_GBR
 66
1
 10
0.00
 20
0.00
 30
0.00
 40
0.20
 41
0.20
  0
VERTEX
  8
ME_EC_PLATE_V4-EDGE_CUTS_GBR
 10
369.324268
 20
-177.246884
 30
0.00
  0
VERTEX
  8
ME_EC_PLATE_V4-EDGE_CUTS_GBR
 10
370.324268
 20
-178.246884
 30
0.00
  0
SEQEND
  0
POLYLINE
  8
ME_EC_PLATE_V4-EDGE_CUTS_GBR
 66
1
 10
0.00
 20
0.00
 30
0.00
 40
0.20
 41
0.20
  0
VERTEX
  8
ME_EC_PLATE_V4-EDGE_CUTS_GBR
 10
356.624268
 20
-177.246884
 30
0.00
  0
VERTEX
  8
ME_EC_PLATE_V4-EDGE_CUTS_GBR
 10
369.324268
 20
-177.246884
 30
0.00
  0
SEQEND
  0
POLYLINE
  8
ME_EC_PLATE_V4-EDGE_CUTS_GBR
 66
1
 10
0.00
 20
0.00
 30
0.00
 40
0.20
 41
0.20
  0
VERTEX
  8
ME_EC_PLATE_V4-EDGE_CUTS_GBR
 10
336.604268
 20
-178.246884
 30
0.00
  0
VERTEX
  8
ME_EC_PLATE_V4-EDGE_CUTS_GBR
 10
337.604268
 20
-177.246884
 30
0.00
  0
SEQEND
  0
POLYLINE
  8
ME_EC_PLATE_V4-EDGE_CUTS_GBR
 66
1
 10
0.00
 20
0.00
 30
0.00
 40
0.20
 41
0.20
  0
VERTEX
  8
ME_EC_PLATE_V4-EDGE_CUTS_GBR
 10
336.604268
 20
-190.346884
 30
0.00
  0
VERTEX
  8
ME_EC_PLATE_V4-EDGE_CUTS_GBR
 10
336.604268
 20
-178.246884
 30
0.00
  0
SEQEND
  0
POLYLINE
  8
ME_EC_PLATE_V4-EDGE_CUTS_GBR
 66
1
 10
0.00
 20
0.00
 30
0.00
 40
0.20
 41
0.20
  0
VERTEX
  8
ME_EC_PLATE_V4-EDGE_CUTS_GBR
 10
337.604268
 20
-191.346884
 30
0.00
  0
VERTEX
  8
ME_EC_PLATE_V4-EDGE_CUTS_GBR
 10
336.604268
 20
-190.346884
 30
0.00
  0
SEQEND
  0
POLYLINE
  8
ME_EC_PLATE_V4-EDGE_CUTS_GBR
 66
1
 10
0.00
 20
0.00
 30
0.00
 40
0.20
 41
0.20
  0
VERTEX
  8
ME_EC_PLATE_V4-EDGE_CUTS_GBR
 10
350.304268
 20
-191.346884
 30
0.00
  0
VERTEX
  8
ME_EC_PLATE_V4-EDGE_CUTS_GBR
 10
337.604268
 20
-191.346884
 30
0.00
  0
SEQEND
  0
POLYLINE
  8
ME_EC_PLATE_V4-EDGE_CUTS_GBR
 66
1
 10
0.00
 20
0.00
 30
0.00
 40
0.20
 41
0.20
  0
VERTEX
  8
ME_EC_PLATE_V4-EDGE_CUTS_GBR
 10
351.304268
 20
-190.346884
 30
0.00
  0
VERTEX
  8
ME_EC_PLATE_V4-EDGE_CUTS_GBR
 10
350.304268
 20
-191.346884
 30
0.00
  0
SEQEND
  0
POLYLINE
  8
ME_EC_PLATE_V4-EDGE_CUTS_GBR
 66
1
 10
0.00
 20
0.00
 30
0.00
 40
0.20
 41
0.20
  0
VERTEX
  8
ME_EC_PLATE_V4-EDGE_CUTS_GBR
 10
351.304268
 20
-178.246884
 30
0.00
  0
VERTEX
  8
ME_EC_PLATE_V4-EDGE_CUTS_GBR
 10
351.304268
 20
-190.346884
 30
0.00
  0
SEQEND
  0
POLYLINE
  8
ME_EC_PLATE_V4-EDGE_CUTS_GBR
 66
1
 10
0.00
 20
0.00
 30
0.00
 40
0.20
 41
0.20
  0
VERTEX
  8
ME_EC_PLATE_V4-EDGE_CUTS_GBR
 10
350.304268
 20
-177.246884
 30
0.00
  0
VERTEX
  8
ME_EC_PLATE_V4-EDGE_CUTS_GBR
 10
351.304268
 20
-178.246884
 30
0.00
  0
SEQEND
  0
POLYLINE
  8
ME_EC_PLATE_V4-EDGE_CUTS_GBR
 66
1
 10
0.00
 20
0.00
 30
0.00
 40
0.20
 41
0.20
  0
VERTEX
  8
ME_EC_PLATE_V4-EDGE_CUTS_GBR
 10
337.604268
 20
-177.246884
 30
0.00
  0
VERTEX
  8
ME_EC_PLATE_V4-EDGE_CUTS_GBR
 10
350.304268
 20
-177.246884
 30
0.00
  0
SEQEND
  0
POLYLINE
  8
ME_EC_PLATE_V4-EDGE_CUTS_GBR
 66
1
 10
0.00
 20
0.00
 30
0.00
 40
0.20
 41
0.20
  0
VERTEX
  8
ME_EC_PLATE_V4-EDGE_CUTS_GBR
 10
308.762508
 20
-178.123332
 30
0.00
  0
VERTEX
  8
ME_EC_PLATE_V4-EDGE_CUTS_GBR
 10
309.762508
 20
-177.123332
 30
0.00
  0
SEQEND
  0
POLYLINE
  8
ME_EC_PLATE_V4-EDGE_CUTS_GBR
 66
1
 10
0.00
 20
0.00
 30
0.00
 40
0.20
 41
0.20
  0
VERTEX
  8
ME_EC_PLATE_V4-EDGE_CUTS_GBR
 10
308.762508
 20
-190.223332
 30
0.00
  0
VERTEX
  8
ME_EC_PLATE_V4-EDGE_CUTS_GBR
 10
308.762508
 20
-178.123332
 30
0.00
  0
SEQEND
  0
POLYLINE
  8
ME_EC_PLATE_V4-EDGE_CUTS_GBR
 66
1
 10
0.00
 20
0.00
 30
0.00
 40
0.20
 41
0.20
  0
VERTEX
  8
ME_EC_PLATE_V4-EDGE_CUTS_GBR
 10
309.762508
 20
-191.223332
 30
0.00
  0
VERTEX
  8
ME_EC_PLATE_V4-EDGE_CUTS_GBR
 10
308.762508
 20
-190.223332
 30
0.00
  0
SEQEND
  0
POLYLINE
  8
ME_EC_PLATE_V4-EDGE_CUTS_GBR
 66
1
 10
0.00
 20
0.00
 30
0.00
 40
0.20
 41
0.20
  0
VERTEX
  8
ME_EC_PLATE_V4-EDGE_CUTS_GBR
 10
322.462508
 20
-191.223332
 30
0.00
  0
VERTEX
  8
ME_EC_PLATE_V4-EDGE_CUTS_GBR
 10
309.762508
 20
-191.223332
 30
0.00
  0
SEQEND
  0
POLYLINE
  8
ME_EC_PLATE_V4-EDGE_CUTS_GBR
 66
1
 10
0.00
 20
0.00
 30
0.00
 40
0.20
 41
0.20
  0
VERTEX
  8
ME_EC_PLATE_V4-EDGE_CUTS_GBR
 10
323.462508
 20
-190.223332
 30
0.00
  0
VERTEX
  8
ME_EC_PLATE_V4-EDGE_CUTS_GBR
 10
322.462508
 20
-191.223332
 30
0.00
  0
SEQEND
  0
POLYLINE
  8
ME_EC_PLATE_V4-EDGE_CUTS_GBR
 66
1
 10
0.00
 20
0.00
 30
0.00
 40
0.20
 41
0.20
  0
VERTEX
  8
ME_EC_PLATE_V4-EDGE_CUTS_GBR
 10
323.462508
 20
-178.123332
 30
0.00
  0
VERTEX
  8
ME_EC_PLATE_V4-EDGE_CUTS_GBR
 10
323.462508
 20
-190.223332
 30
0.00
  0
SEQEND
  0
POLYLINE
  8
ME_EC_PLATE_V4-EDGE_CUTS_GBR
 66
1
 10
0.00
 20
0.00
 30
0.00
 40
0.20
 41
0.20
  0
VERTEX
  8
ME_EC_PLATE_V4-EDGE_CUTS_GBR
 10
322.462508
 20
-177.123332
 30
0.00
  0
VERTEX
  8
ME_EC_PLATE_V4-EDGE_CUTS_GBR
 10
323.462508
 20
-178.123332
 30
0.00
  0
SEQEND
  0
POLYLINE
  8
ME_EC_PLATE_V4-EDGE_CUTS_GBR
 66
1
 10
0.00
 20
0.00
 30
0.00
 40
0.20
 41
0.20
  0
VERTEX
  8
ME_EC_PLATE_V4-EDGE_CUTS_GBR
 10
309.762508
 20
-177.123332
 30
0.00
  0
VERTEX
  8
ME_EC_PLATE_V4-EDGE_CUTS_GBR
 10
322.462508
 20
-177.123332
 30
0.00
  0
SEQEND
  0
POLYLINE
  8
ME_EC_PLATE_V4-EDGE_CUTS_GBR
 66
1
 10
0.00
 20
0.00
 30
0.00
 40
0.20
 41
0.20
  0
VERTEX
  8
ME_EC_PLATE_V4-EDGE_CUTS_GBR
 10
285.069058
 20
-178.123332
 30
0.00
  0
VERTEX
  8
ME_EC_PLATE_V4-EDGE_CUTS_GBR
 10
286.069058
 20
-177.123332
 30
0.00
  0
SEQEND
  0
POLYLINE
  8
ME_EC_PLATE_V4-EDGE_CUTS_GBR
 66
1
 10
0.00
 20
0.00
 30
0.00
 40
0.20
 41
0.20
  0
VERTEX
  8
ME_EC_PLATE_V4-EDGE_CUTS_GBR
 10
285.069058
 20
-190.223332
 30
0.00
  0
VERTEX
  8
ME_EC_PLATE_V4-EDGE_CUTS_GBR
 10
285.069058
 20
-178.123332
 30
0.00
  0
SEQEND
  0
POLYLINE
  8
ME_EC_PLATE_V4-EDGE_CUTS_GBR
 66
1
 10
0.00
 20
0.00
 30
0.00
 40
0.20
 41
0.20
  0
VERTEX
  8
ME_EC_PLATE_V4-EDGE_CUTS_GBR
 10
286.069058
 20
-191.223332
 30
0.00
  0
VERTEX
  8
ME_EC_PLATE_V4-EDGE_CUTS_GBR
 10
285.069058
 20
-190.223332
 30
0.00
  0
SEQEND
  0
POLYLINE
  8
ME_EC_PLATE_V4-EDGE_CUTS_GBR
 66
1
 10
0.00
 20
0.00
 30
0.00
 40
0.20
 41
0.20
  0
VERTEX
  8
ME_EC_PLATE_V4-EDGE_CUTS_GBR
 10
298.769058
 20
-191.223332
 30
0.00
  0
VERTEX
  8
ME_EC_PLATE_V4-EDGE_CUTS_GBR
 10
286.069058
 20
-191.223332
 30
0.00
  0
SEQEND
  0
POLYLINE
  8
ME_EC_PLATE_V4-EDGE_CUTS_GBR
 66
1
 10
0.00
 20
0.00
 30
0.00
 40
0.20
 41
0.20
  0
VERTEX
  8
ME_EC_PLATE_V4-EDGE_CUTS_GBR
 10
299.769058
 20
-190.223332
 30
0.00
  0
VERTEX
  8
ME_EC_PLATE_V4-EDGE_CUTS_GBR
 10
298.769058
 20
-191.223332
 30
0.00
  0
SEQEND
  0
POLYLINE
  8
ME_EC_PLATE_V4-EDGE_CUTS_GBR
 66
1
 10
0.00
 20
0.00
 30
0.00
 40
0.20
 41
0.20
  0
VERTEX
  8
ME_EC_PLATE_V4-EDGE_CUTS_GBR
 10
299.769058
 20
-178.123332
 30
0.00
  0
VERTEX
  8
ME_EC_PLATE_V4-EDGE_CUTS_GBR
 10
299.769058
 20
-190.223332
 30
0.00
  0
SEQEND
  0
POLYLINE
  8
ME_EC_PLATE_V4-EDGE_CUTS_GBR
 66
1
 10
0.00
 20
0.00
 30
0.00
 40
0.20
 41
0.20
  0
VERTEX
  8
ME_EC_PLATE_V4-EDGE_CUTS_GBR
 10
298.769058
 20
-177.123332
 30
0.00
  0
VERTEX
  8
ME_EC_PLATE_V4-EDGE_CUTS_GBR
 10
299.769058
 20
-178.123332
 30
0.00
  0
SEQEND
  0
POLYLINE
  8
ME_EC_PLATE_V4-EDGE_CUTS_GBR
 66
1
 10
0.00
 20
0.00
 30
0.00
 40
0.20
 41
0.20
  0
VERTEX
  8
ME_EC_PLATE_V4-EDGE_CUTS_GBR
 10
286.069058
 20
-177.123332
 30
0.00
  0
VERTEX
  8
ME_EC_PLATE_V4-EDGE_CUTS_GBR
 10
298.769058
 20
-177.123332
 30
0.00
  0
SEQEND
  0
POLYLINE
  8
ME_EC_PLATE_V4-EDGE_CUTS_GBR
 66
1
 10
0.00
 20
0.00
 30
0.00
 40
0.20
 41
0.20
  0
VERTEX
  8
ME_EC_PLATE_V4-EDGE_CUTS_GBR
 10
261.337508
 20
-178.123332
 30
0.00
  0
VERTEX
  8
ME_EC_PLATE_V4-EDGE_CUTS_GBR
 10
262.337508
 20
-177.123332
 30
0.00
  0
SEQEND
  0
POLYLINE
  8
ME_EC_PLATE_V4-EDGE_CUTS_GBR
 66
1
 10
0.00
 20
0.00
 30
0.00
 40
0.20
 41
0.20
  0
VERTEX
  8
ME_EC_PLATE_V4-EDGE_CUTS_GBR
 10
261.337508
 20
-190.223332
 30
0.00
  0
VERTEX
  8
ME_EC_PLATE_V4-EDGE_CUTS_GBR
 10
261.337508
 20
-178.123332
 30
0.00
  0
SEQEND
  0
POLYLINE
  8
ME_EC_PLATE_V4-EDGE_CUTS_GBR
 66
1
 10
0.00
 20
0.00
 30
0.00
 40
0.20
 41
0.20
  0
VERTEX
  8
ME_EC_PLATE_V4-EDGE_CUTS_GBR
 10
262.337508
 20
-191.223332
 30
0.00
  0
VERTEX
  8
ME_EC_PLATE_V4-EDGE_CUTS_GBR
 10
261.337508
 20
-190.223332
 30
0.00
  0
SEQEND
  0
POLYLINE
  8
ME_EC_PLATE_V4-EDGE_CUTS_GBR
 66
1
 10
0.00
 20
0.00
 30
0.00
 40
0.20
 41
0.20
  0
VERTEX
  8
ME_EC_PLATE_V4-EDGE_CUTS_GBR
 10
275.037508
 20
-191.223332
 30
0.00
  0
VERTEX
  8
ME_EC_PLATE_V4-EDGE_CUTS_GBR
 10
262.337508
 20
-191.223332
 30
0.00
  0
SEQEND
  0
POLYLINE
  8
ME_EC_PLATE_V4-EDGE_CUTS_GBR
 66
1
 10
0.00
 20
0.00
 30
0.00
 40
0.20
 41
0.20
  0
VERTEX
  8
ME_EC_PLATE_V4-EDGE_CUTS_GBR
 10
276.037508
 20
-190.223332
 30
0.00
  0
VERTEX
  8
ME_EC_PLATE_V4-EDGE_CUTS_GBR
 10
275.037508
 20
-191.223332
 30
0.00
  0
SEQEND
  0
POLYLINE
  8
ME_EC_PLATE_V4-EDGE_CUTS_GBR
 66
1
 10
0.00
 20
0.00
 30
0.00
 40
0.20
 41
0.20
  0
VERTEX
  8
ME_EC_PLATE_V4-EDGE_CUTS_GBR
 10
276.037508
 20
-178.123332
 30
0.00
  0
VERTEX
  8
ME_EC_PLATE_V4-EDGE_CUTS_GBR
 10
276.037508
 20
-190.223332
 30
0.00
  0
SEQEND
  0
POLYLINE
  8
ME_EC_PLATE_V4-EDGE_CUTS_GBR
 66
1
 10
0.00
 20
0.00
 30
0.00
 40
0.20
 41
0.20
  0
VERTEX
  8
ME_EC_PLATE_V4-EDGE_CUTS_GBR
 10
275.037508
 20
-177.123332
 30
0.00
  0
VERTEX
  8
ME_EC_PLATE_V4-EDGE_CUTS_GBR
 10
276.037508
 20
-178.123332
 30
0.00
  0
SEQEND
  0
POLYLINE
  8
ME_EC_PLATE_V4-EDGE_CUTS_GBR
 66
1
 10
0.00
 20
0.00
 30
0.00
 40
0.20
 41
0.20
  0
VERTEX
  8
ME_EC_PLATE_V4-EDGE_CUTS_GBR
 10
262.337508
 20
-177.123332
 30
0.00
  0
VERTEX
  8
ME_EC_PLATE_V4-EDGE_CUTS_GBR
 10
275.037508
 20
-177.123332
 30
0.00
  0
SEQEND
  0
POLYLINE
  8
ME_EC_PLATE_V4-EDGE_CUTS_GBR
 66
1
 10
0.00
 20
0.00
 30
0.00
 40
0.20
 41
0.20
  0
VERTEX
  8
ME_EC_PLATE_V4-EDGE_CUTS_GBR
 10
355.624268
 20
-159.226884
 30
0.00
  0
VERTEX
  8
ME_EC_PLATE_V4-EDGE_CUTS_GBR
 10
356.624268
 20
-158.226884
 30
0.00
  0
SEQEND
  0
POLYLINE
  8
ME_EC_PLATE_V4-EDGE_CUTS_GBR
 66
1
 10
0.00
 20
0.00
 30
0.00
 40
0.20
 41
0.20
  0
VERTEX
  8
ME_EC_PLATE_V4-EDGE_CUTS_GBR
 10
355.624268
 20
-171.326884
 30
0.00
  0
VERTEX
  8
ME_EC_PLATE_V4-EDGE_CUTS_GBR
 10
355.624268
 20
-159.226884
 30
0.00
  0
SEQEND
  0
POLYLINE
  8
ME_EC_PLATE_V4-EDGE_CUTS_GBR
 66
1
 10
0.00
 20
0.00
 30
0.00
 40
0.20
 41
0.20
  0
VERTEX
  8
ME_EC_PLATE_V4-EDGE_CUTS_GBR
 10
356.624268
 20
-172.326884
 30
0.00
  0
VERTEX
  8
ME_EC_PLATE_V4-EDGE_CUTS_GBR
 10
355.624268
 20
-171.326884
 30
0.00
  0
SEQEND
  0
POLYLINE
  8
ME_EC_PLATE_V4-EDGE_CUTS_GBR
 66
1
 10
0.00
 20
0.00
 30
0.00
 40
0.20
 41
0.20
  0
VERTEX
  8
ME_EC_PLATE_V4-EDGE_CUTS_GBR
 10
369.324268
 20
-172.326884
 30
0.00
  0
VERTEX
  8
ME_EC_PLATE_V4-EDGE_CUTS_GBR
 10
356.624268
 20
-172.326884
 30
0.00
  0
SEQEND
  0
POLYLINE
  8
ME_EC_PLATE_V4-EDGE_CUTS_GBR
 66
1
 10
0.00
 20
0.00
 30
0.00
 40
0.20
 41
0.20
  0
VERTEX
  8
ME_EC_PLATE_V4-EDGE_CUTS_GBR
 10
370.324268
 20
-171.326884
 30
0.00
  0
VERTEX
  8
ME_EC_PLATE_V4-EDGE_CUTS_GBR
 10
369.324268
 20
-172.326884
 30
0.00
  0
SEQEND
  0
POLYLINE
  8
ME_EC_PLATE_V4-EDGE_CUTS_GBR
 66
1
 10
0.00
 20
0.00
 30
0.00
 40
0.20
 41
0.20
  0
VERTEX
  8
ME_EC_PLATE_V4-EDGE_CUTS_GBR
 10
370.324268
 20
-159.226884
 30
0.00
  0
VERTEX
  8
ME_EC_PLATE_V4-EDGE_CUTS_GBR
 10
370.324268
 20
-171.326884
 30
0.00
  0
SEQEND
  0
POLYLINE
  8
ME_EC_PLATE_V4-EDGE_CUTS_GBR
 66
1
 10
0.00
 20
0.00
 30
0.00
 40
0.20
 41
0.20
  0
VERTEX
  8
ME_EC_PLATE_V4-EDGE_CUTS_GBR
 10
369.324268
 20
-158.226884
 30
0.00
  0
VERTEX
  8
ME_EC_PLATE_V4-EDGE_CUTS_GBR
 10
370.324268
 20
-159.226884
 30
0.00
  0
SEQEND
  0
POLYLINE
  8
ME_EC_PLATE_V4-EDGE_CUTS_GBR
 66
1
 10
0.00
 20
0.00
 30
0.00
 40
0.20
 41
0.20
  0
VERTEX
  8
ME_EC_PLATE_V4-EDGE_CUTS_GBR
 10
356.624268
 20
-158.226884
 30
0.00
  0
VERTEX
  8
ME_EC_PLATE_V4-EDGE_CUTS_GBR
 10
369.324268
 20
-158.226884
 30
0.00
  0
SEQEND
  0
POLYLINE
  8
ME_EC_PLATE_V4-EDGE_CUTS_GBR
 66
1
 10
0.00
 20
0.00
 30
0.00
 40
0.20
 41
0.20
  0
VERTEX
  8
ME_EC_PLATE_V4-EDGE_CUTS_GBR
 10
288.32006
 20
-159.113332
 30
0.00
  0
VERTEX
  8
ME_EC_PLATE_V4-EDGE_CUTS_GBR
 10
289.32006
 20
-158.113332
 30
0.00
  0
SEQEND
  0
POLYLINE
  8
ME_EC_PLATE_V4-EDGE_CUTS_GBR
 66
1
 10
0.00
 20
0.00
 30
0.00
 40
0.20
 41
0.20
  0
VERTEX
  8
ME_EC_PLATE_V4-EDGE_CUTS_GBR
 10
288.32006
 20
-170.483332
 30
0.00
  0
VERTEX
  8
ME_EC_PLATE_V4-EDGE_CUTS_GBR
 10
288.32006
 20
-159.113332
 30
0.00
  0
SEQEND
  0
POLYLINE
  8
ME_EC_PLATE_V4-EDGE_CUTS_GBR
 66
1
 10
0.00
 20
0.00
 30
0.00
 40
0.20
 41
0.20
  0
VERTEX
  8
ME_EC_PLATE_V4-EDGE_CUTS_GBR
 10
291.32006
 20
-172.213332
 30
0.00
  0
VERTEX
  8
ME_EC_PLATE_V4-EDGE_CUTS_GBR
 10
288.32006
 20
-170.483332
 30
0.00
  0
SEQEND
  0
POLYLINE
  8
ME_EC_PLATE_V4-EDGE_CUTS_GBR
 66
1
 10
0.00
 20
0.00
 30
0.00
 40
0.20
 41
0.20
  0
VERTEX
  8
ME_EC_PLATE_V4-EDGE_CUTS_GBR
 10
317.52006
 20
-172.213332
 30
0.00
  0
VERTEX
  8
ME_EC_PLATE_V4-EDGE_CUTS_GBR
 10
291.32006
 20
-172.213332
 30
0.00
  0
SEQEND
  0
POLYLINE
  8
ME_EC_PLATE_V4-EDGE_CUTS_GBR
 66
1
 10
0.00
 20
0.00
 30
0.00
 40
0.20
 41
0.20
  0
VERTEX
  8
ME_EC_PLATE_V4-EDGE_CUTS_GBR
 10
320.52006
 20
-170.483332
 30
0.00
  0
VERTEX
  8
ME_EC_PLATE_V4-EDGE_CUTS_GBR
 10
317.52006
 20
-172.213332
 30
0.00
  0
SEQEND
  0
POLYLINE
  8
ME_EC_PLATE_V4-EDGE_CUTS_GBR
 66
1
 10
0.00
 20
0.00
 30
0.00
 40
0.20
 41
0.20
  0
VERTEX
  8
ME_EC_PLATE_V4-EDGE_CUTS_GBR
 10
320.52006
 20
-159.113332
 30
0.00
  0
VERTEX
  8
ME_EC_PLATE_V4-EDGE_CUTS_GBR
 10
320.52006
 20
-170.483332
 30
0.00
  0
SEQEND
  0
POLYLINE
  8
ME_EC_PLATE_V4-EDGE_CUTS_GBR
 66
1
 10
0.00
 20
0.00
 30
0.00
 40
0.20
 41
0.20
  0
VERTEX
  8
ME_EC_PLATE_V4-EDGE_CUTS_GBR
 10
319.52006
 20
-158.113332
 30
0.00
  0
VERTEX
  8
ME_EC_PLATE_V4-EDGE_CUTS_GBR
 10
320.52006
 20
-159.113332
 30
0.00
  0
SEQEND
  0
POLYLINE
  8
ME_EC_PLATE_V4-EDGE_CUTS_GBR
 66
1
 10
0.00
 20
0.00
 30
0.00
 40
0.20
 41
0.20
  0
VERTEX
  8
ME_EC_PLATE_V4-EDGE_CUTS_GBR
 10
289.32006
 20
-158.113332
 30
0.00
  0
VERTEX
  8
ME_EC_PLATE_V4-EDGE_CUTS_GBR
 10
319.52006
 20
-158.113332
 30
0.00
  0
SEQEND
  0
POLYLINE
  8
ME_EC_PLATE_V4-EDGE_CUTS_GBR
 66
1
 10
0.00
 20
0.00
 30
0.00
 40
0.20
 41
0.20
  0
VERTEX
  8
ME_EC_PLATE_V4-EDGE_CUTS_GBR
 10
261.34506
 20
-159.113332
 30
0.00
  0
VERTEX
  8
ME_EC_PLATE_V4-EDGE_CUTS_GBR
 10
262.34506
 20
-158.113332
 30
0.00
  0
SEQEND
  0
POLYLINE
  8
ME_EC_PLATE_V4-EDGE_CUTS_GBR
 66
1
 10
0.00
 20
0.00
 30
0.00
 40
0.20
 41
0.20
  0
VERTEX
  8
ME_EC_PLATE_V4-EDGE_CUTS_GBR
 10
261.34506
 20
-171.213332
 30
0.00
  0
VERTEX
  8
ME_EC_PLATE_V4-EDGE_CUTS_GBR
 10
261.34506
 20
-159.113332
 30
0.00
  0
SEQEND
  0
POLYLINE
  8
ME_EC_PLATE_V4-EDGE_CUTS_GBR
 66
1
 10
0.00
 20
0.00
 30
0.00
 40
0.20
 41
0.20
  0
VERTEX
  8
ME_EC_PLATE_V4-EDGE_CUTS_GBR
 10
262.34506
 20
-172.213332
 30
0.00
  0
VERTEX
  8
ME_EC_PLATE_V4-EDGE_CUTS_GBR
 10
261.34506
 20
-171.213332
 30
0.00
  0
SEQEND
  0
POLYLINE
  8
ME_EC_PLATE_V4-EDGE_CUTS_GBR
 66
1
 10
0.00
 20
0.00
 30
0.00
 40
0.20
 41
0.20
  0
VERTEX
  8
ME_EC_PLATE_V4-EDGE_CUTS_GBR
 10
275.04506
 20
-172.213332
 30
0.00
  0
VERTEX
  8
ME_EC_PLATE_V4-EDGE_CUTS_GBR
 10
262.34506
 20
-172.213332
 30
0.00
  0
SEQEND
  0
POLYLINE
  8
ME_EC_PLATE_V4-EDGE_CUTS_GBR
 66
1
 10
0.00
 20
0.00
 30
0.00
 40
0.20
 41
0.20
  0
VERTEX
  8
ME_EC_PLATE_V4-EDGE_CUTS_GBR
 10
276.04506
 20
-171.213332
 30
0.00
  0
VERTEX
  8
ME_EC_PLATE_V4-EDGE_CUTS_GBR
 10
275.04506
 20
-172.213332
 30
0.00
  0
SEQEND
  0
POLYLINE
  8
ME_EC_PLATE_V4-EDGE_CUTS_GBR
 66
1
 10
0.00
 20
0.00
 30
0.00
 40
0.20
 41
0.20
  0
VERTEX
  8
ME_EC_PLATE_V4-EDGE_CUTS_GBR
 10
276.04506
 20
-159.113332
 30
0.00
  0
VERTEX
  8
ME_EC_PLATE_V4-EDGE_CUTS_GBR
 10
276.04506
 20
-171.213332
 30
0.00
  0
SEQEND
  0
POLYLINE
  8
ME_EC_PLATE_V4-EDGE_CUTS_GBR
 66
1
 10
0.00
 20
0.00
 30
0.00
 40
0.20
 41
0.20
  0
VERTEX
  8
ME_EC_PLATE_V4-EDGE_CUTS_GBR
 10
275.04506
 20
-158.113332
 30
0.00
  0
VERTEX
  8
ME_EC_PLATE_V4-EDGE_CUTS_GBR
 10
276.04506
 20
-159.113332
 30
0.00
  0
SEQEND
  0
POLYLINE
  8
ME_EC_PLATE_V4-EDGE_CUTS_GBR
 66
1
 10
0.00
 20
0.00
 30
0.00
 40
0.20
 41
0.20
  0
VERTEX
  8
ME_EC_PLATE_V4-EDGE_CUTS_GBR
 10
262.34506
 20
-158.113332
 30
0.00
  0
VERTEX
  8
ME_EC_PLATE_V4-EDGE_CUTS_GBR
 10
275.04506
 20
-158.113332
 30
0.00
  0
SEQEND
  0
POLYLINE
  8
ME_EC_PLATE_V4-EDGE_CUTS_GBR
 66
1
 10
0.00
 20
0.00
 30
0.00
 40
0.20
 41
0.20
  0
VERTEX
  8
ME_EC_PLATE_V4-EDGE_CUTS_GBR
 10
242.34506
 20
-159.113332
 30
0.00
  0
VERTEX
  8
ME_EC_PLATE_V4-EDGE_CUTS_GBR
 10
243.34506
 20
-158.113332
 30
0.00
  0
SEQEND
  0
POLYLINE
  8
ME_EC_PLATE_V4-EDGE_CUTS_GBR
 66
1
 10
0.00
 20
0.00
 30
0.00
 40
0.20
 41
0.20
  0
VERTEX
  8
ME_EC_PLATE_V4-EDGE_CUTS_GBR
 10
242.34506
 20
-171.213332
 30
0.00
  0
VERTEX
  8
ME_EC_PLATE_V4-EDGE_CUTS_GBR
 10
242.34506
 20
-159.113332
 30
0.00
  0
SEQEND
  0
POLYLINE
  8
ME_EC_PLATE_V4-EDGE_CUTS_GBR
 66
1
 10
0.00
 20
0.00
 30
0.00
 40
0.20
 41
0.20
  0
VERTEX
  8
ME_EC_PLATE_V4-EDGE_CUTS_GBR
 10
243.34506
 20
-172.213332
 30
0.00
  0
VERTEX
  8
ME_EC_PLATE_V4-EDGE_CUTS_GBR
 10
242.34506
 20
-171.213332
 30
0.00
  0
SEQEND
  0
POLYLINE
  8
ME_EC_PLATE_V4-EDGE_CUTS_GBR
 66
1
 10
0.00
 20
0.00
 30
0.00
 40
0.20
 41
0.20
  0
VERTEX
  8
ME_EC_PLATE_V4-EDGE_CUTS_GBR
 10
256.04506
 20
-172.213332
 30
0.00
  0
VERTEX
  8
ME_EC_PLATE_V4-EDGE_CUTS_GBR
 10
243.34506
 20
-172.213332
 30
0.00
  0
SEQEND
  0
POLYLINE
  8
ME_EC_PLATE_V4-EDGE_CUTS_GBR
 66
1
 10
0.00
 20
0.00
 30
0.00
 40
0.20
 41
0.20
  0
VERTEX
  8
ME_EC_PLATE_V4-EDGE_CUTS_GBR
 10
257.04506
 20
-171.213332
 30
0.00
  0
VERTEX
  8
ME_EC_PLATE_V4-EDGE_CUTS_GBR
 10
256.04506
 20
-172.213332
 30
0.00
  0
SEQEND
  0
POLYLINE
  8
ME_EC_PLATE_V4-EDGE_CUTS_GBR
 66
1
 10
0.00
 20
0.00
 30
0.00
 40
0.20
 41
0.20
  0
VERTEX
  8
ME_EC_PLATE_V4-EDGE_CUTS_GBR
 10
257.04506
 20
-159.113332
 30
0.00
  0
VERTEX
  8
ME_EC_PLATE_V4-EDGE_CUTS_GBR
 10
257.04506
 20
-171.213332
 30
0.00
  0
SEQEND
  0
POLYLINE
  8
ME_EC_PLATE_V4-EDGE_CUTS_GBR
 66
1
 10
0.00
 20
0.00
 30
0.00
 40
0.20
 41
0.20
  0
VERTEX
  8
ME_EC_PLATE_V4-EDGE_CUTS_GBR
 10
256.04506
 20
-158.113332
 30
0.00
  0
VERTEX
  8
ME_EC_PLATE_V4-EDGE_CUTS_GBR
 10
257.04506
 20
-159.113332
 30
0.00
  0
SEQEND
  0
POLYLINE
  8
ME_EC_PLATE_V4-EDGE_CUTS_GBR
 66
1
 10
0.00
 20
0.00
 30
0.00
 40
0.20
 41
0.20
  0
VERTEX
  8
ME_EC_PLATE_V4-EDGE_CUTS_GBR
 10
243.34506
 20
-158.113332
 30
0.00
  0
VERTEX
  8
ME_EC_PLATE_V4-EDGE_CUTS_GBR
 10
256.04506
 20
-158.113332
 30
0.00
  0
SEQEND
  0
POLYLINE
  8
ME_EC_PLATE_V4-EDGE_CUTS_GBR
 66
1
 10
0.00
 20
0.00
 30
0.00
 40
0.20
 41
0.20
  0
VERTEX
  8
ME_EC_PLATE_V4-EDGE_CUTS_GBR
 10
223.34506
 20
-159.113332
 30
0.00
  0
VERTEX
  8
ME_EC_PLATE_V4-EDGE_CUTS_GBR
 10
224.34506
 20
-158.113332
 30
0.00
  0
SEQEND
  0
POLYLINE
  8
ME_EC_PLATE_V4-EDGE_CUTS_GBR
 66
1
 10
0.00
 20
0.00
 30
0.00
 40
0.20
 41
0.20
  0
VERTEX
  8
ME_EC_PLATE_V4-EDGE_CUTS_GBR
 10
223.34506
 20
-171.213332
 30
0.00
  0
VERTEX
  8
ME_EC_PLATE_V4-EDGE_CUTS_GBR
 10
223.34506
 20
-159.113332
 30
0.00
  0
SEQEND
  0
POLYLINE
  8
ME_EC_PLATE_V4-EDGE_CUTS_GBR
 66
1
 10
0.00
 20
0.00
 30
0.00
 40
0.20
 41
0.20
  0
VERTEX
  8
ME_EC_PLATE_V4-EDGE_CUTS_GBR
 10
224.34506
 20
-172.213332
 30
0.00
  0
VERTEX
  8
ME_EC_PLATE_V4-EDGE_CUTS_GBR
 10
223.34506
 20
-171.213332
 30
0.00
  0
SEQEND
  0
POLYLINE
  8
ME_EC_PLATE_V4-EDGE_CUTS_GBR
 66
1
 10
0.00
 20
0.00
 30
0.00
 40
0.20
 41
0.20
  0
VERTEX
  8
ME_EC_PLATE_V4-EDGE_CUTS_GBR
 10
237.04506
 20
-172.213332
 30
0.00
  0
VERTEX
  8
ME_EC_PLATE_V4-EDGE_CUTS_GBR
 10
224.34506
 20
-172.213332
 30
0.00
  0
SEQEND
  0
POLYLINE
  8
ME_EC_PLATE_V4-EDGE_CUTS_GBR
 66
1
 10
0.00
 20
0.00
 30
0.00
 40
0.20
 41
0.20
  0
VERTEX
  8
ME_EC_PLATE_V4-EDGE_CUTS_GBR
 10
238.04506
 20
-171.213332
 30
0.00
  0
VERTEX
  8
ME_EC_PLATE_V4-EDGE_CUTS_GBR
 10
237.04506
 20
-172.213332
 30
0.00
  0
SEQEND
  0
POLYLINE
  8
ME_EC_PLATE_V4-EDGE_CUTS_GBR
 66
1
 10
0.00
 20
0.00
 30
0.00
 40
0.20
 41
0.20
  0
VERTEX
  8
ME_EC_PLATE_V4-EDGE_CUTS_GBR
 10
238.04506
 20
-159.113332
 30
0.00
  0
VERTEX
  8
ME_EC_PLATE_V4-EDGE_CUTS_GBR
 10
238.04506
 20
-171.213332
 30
0.00
  0
SEQEND
  0
POLYLINE
  8
ME_EC_PLATE_V4-EDGE_CUTS_GBR
 66
1
 10
0.00
 20
0.00
 30
0.00
 40
0.20
 41
0.20
  0
VERTEX
  8
ME_EC_PLATE_V4-EDGE_CUTS_GBR
 10
237.04506
 20
-158.113332
 30
0.00
  0
VERTEX
  8
ME_EC_PLATE_V4-EDGE_CUTS_GBR
 10
238.04506
 20
-159.113332
 30
0.00
  0
SEQEND
  0
POLYLINE
  8
ME_EC_PLATE_V4-EDGE_CUTS_GBR
 66
1
 10
0.00
 20
0.00
 30
0.00
 40
0.20
 41
0.20
  0
VERTEX
  8
ME_EC_PLATE_V4-EDGE_CUTS_GBR
 10
224.34506
 20
-158.113332
 30
0.00
  0
VERTEX
  8
ME_EC_PLATE_V4-EDGE_CUTS_GBR
 10
237.04506
 20
-158.113332
 30
0.00
  0
SEQEND
  0
POLYLINE
  8
ME_EC_PLATE_V4-EDGE_CUTS_GBR
 66
1
 10
0.00
 20
0.00
 30
0.00
 40
0.20
 41
0.20
  0
VERTEX
  8
ME_EC_PLATE_V4-EDGE_CUTS_GBR
 10
293.10506
 20
-140.093332
 30
0.00
  0
VERTEX
  8
ME_EC_PLATE_V4-EDGE_CUTS_GBR
 10
294.10506
 20
-139.093332
 30
0.00
  0
SEQEND
  0
POLYLINE
  8
ME_EC_PLATE_V4-EDGE_CUTS_GBR
 66
1
 10
0.00
 20
0.00
 30
0.00
 40
0.20
 41
0.20
  0
VERTEX
  8
ME_EC_PLATE_V4-EDGE_CUTS_GBR
 10
293.10506
 20
-151.463332
 30
0.00
  0
VERTEX
  8
ME_EC_PLATE_V4-EDGE_CUTS_GBR
 10
293.10506
 20
-140.093332
 30
0.00
  0
SEQEND
  0
POLYLINE
  8
ME_EC_PLATE_V4-EDGE_CUTS_GBR
 66
1
 10
0.00
 20
0.00
 30
0.00
 40
0.20
 41
0.20
  0
VERTEX
  8
ME_EC_PLATE_V4-EDGE_CUTS_GBR
 10
296.10506
 20
-153.193332
 30
0.00
  0
VERTEX
  8
ME_EC_PLATE_V4-EDGE_CUTS_GBR
 10
293.10506
 20
-151.463332
 30
0.00
  0
SEQEND
  0
POLYLINE
  8
ME_EC_PLATE_V4-EDGE_CUTS_GBR
 66
1
 10
0.00
 20
0.00
 30
0.00
 40
0.20
 41
0.20
  0
VERTEX
  8
ME_EC_PLATE_V4-EDGE_CUTS_GBR
 10
322.30506
 20
-153.193332
 30
0.00
  0
VERTEX
  8
ME_EC_PLATE_V4-EDGE_CUTS_GBR
 10
296.10506
 20
-153.193332
 30
0.00
  0
SEQEND
  0
POLYLINE
  8
ME_EC_PLATE_V4-EDGE_CUTS_GBR
 66
1
 10
0.00
 20
0.00
 30
0.00
 40
0.20
 41
0.20
  0
VERTEX
  8
ME_EC_PLATE_V4-EDGE_CUTS_GBR
 10
325.30506
 20
-151.463332
 30
0.00
  0
VERTEX
  8
ME_EC_PLATE_V4-EDGE_CUTS_GBR
 10
322.30506
 20
-153.193332
 30
0.00
  0
SEQEND
  0
POLYLINE
  8
ME_EC_PLATE_V4-EDGE_CUTS_GBR
 66
1
 10
0.00
 20
0.00
 30
0.00
 40
0.20
 41
0.20
  0
VERTEX
  8
ME_EC_PLATE_V4-EDGE_CUTS_GBR
 10
325.30506
 20
-140.093332
 30
0.00
  0
VERTEX
  8
ME_EC_PLATE_V4-EDGE_CUTS_GBR
 10
325.30506
 20
-151.463332
 30
0.00
  0
SEQEND
  0
POLYLINE
  8
ME_EC_PLATE_V4-EDGE_CUTS_GBR
 66
1
 10
0.00
 20
0.00
 30
0.00
 40
0.20
 41
0.20
  0
VERTEX
  8
ME_EC_PLATE_V4-EDGE_CUTS_GBR
 10
324.30506
 20
-139.093332
 30
0.00
  0
VERTEX
  8
ME_EC_PLATE_V4-EDGE_CUTS_GBR
 10
325.30506
 20
-140.093332
 30
0.00
  0
SEQEND
  0
POLYLINE
  8
ME_EC_PLATE_V4-EDGE_CUTS_GBR
 66
1
 10
0.00
 20
0.00
 30
0.00
 40
0.20
 41
0.20
  0
VERTEX
  8
ME_EC_PLATE_V4-EDGE_CUTS_GBR
 10
294.10506
 20
-139.093332
 30
0.00
  0
VERTEX
  8
ME_EC_PLATE_V4-EDGE_CUTS_GBR
 10
324.30506
 20
-139.093332
 30
0.00
  0
SEQEND
  0
POLYLINE
  8
ME_EC_PLATE_V4-EDGE_CUTS_GBR
 66
1
 10
0.00
 20
0.00
 30
0.00
 40
0.20
 41
0.20
  0
VERTEX
  8
ME_EC_PLATE_V4-EDGE_CUTS_GBR
 10
270.93506
 20
-140.093332
 30
0.00
  0
VERTEX
  8
ME_EC_PLATE_V4-EDGE_CUTS_GBR
 10
271.93506
 20
-139.093332
 30
0.00
  0
SEQEND
  0
POLYLINE
  8
ME_EC_PLATE_V4-EDGE_CUTS_GBR
 66
1
 10
0.00
 20
0.00
 30
0.00
 40
0.20
 41
0.20
  0
VERTEX
  8
ME_EC_PLATE_V4-EDGE_CUTS_GBR
 10
270.93506
 20
-152.193332
 30
0.00
  0
VERTEX
  8
ME_EC_PLATE_V4-EDGE_CUTS_GBR
 10
270.93506
 20
-140.093332
 30
0.00
  0
SEQEND
  0
POLYLINE
  8
ME_EC_PLATE_V4-EDGE_CUTS_GBR
 66
1
 10
0.00
 20
0.00
 30
0.00
 40
0.20
 41
0.20
  0
VERTEX
  8
ME_EC_PLATE_V4-EDGE_CUTS_GBR
 10
271.93506
 20
-153.193332
 30
0.00
  0
VERTEX
  8
ME_EC_PLATE_V4-EDGE_CUTS_GBR
 10
270.93506
 20
-152.193332
 30
0.00
  0
SEQEND
  0
POLYLINE
  8
ME_EC_PLATE_V4-EDGE_CUTS_GBR
 66
1
 10
0.00
 20
0.00
 30
0.00
 40
0.20
 41
0.20
  0
VERTEX
  8
ME_EC_PLATE_V4-EDGE_CUTS_GBR
 10
284.63506
 20
-153.193332
 30
0.00
  0
VERTEX
  8
ME_EC_PLATE_V4-EDGE_CUTS_GBR
 10
271.93506
 20
-153.193332
 30
0.00
  0
SEQEND
  0
POLYLINE
  8
ME_EC_PLATE_V4-EDGE_CUTS_GBR
 66
1
 10
0.00
 20
0.00
 30
0.00
 40
0.20
 41
0.20
  0
VERTEX
  8
ME_EC_PLATE_V4-EDGE_CUTS_GBR
 10
285.63506
 20
-152.193332
 30
0.00
  0
VERTEX
  8
ME_EC_PLATE_V4-EDGE_CUTS_GBR
 10
284.63506
 20
-153.193332
 30
0.00
  0
SEQEND
  0
POLYLINE
  8
ME_EC_PLATE_V4-EDGE_CUTS_GBR
 66
1
 10
0.00
 20
0.00
 30
0.00
 40
0.20
 41
0.20
  0
VERTEX
  8
ME_EC_PLATE_V4-EDGE_CUTS_GBR
 10
285.63506
 20
-140.093332
 30
0.00
  0
VERTEX
  8
ME_EC_PLATE_V4-EDGE_CUTS_GBR
 10
285.63506
 20
-152.193332
 30
0.00
  0
SEQEND
  0
POLYLINE
  8
ME_EC_PLATE_V4-EDGE_CUTS_GBR
 66
1
 10
0.00
 20
0.00
 30
0.00
 40
0.20
 41
0.20
  0
VERTEX
  8
ME_EC_PLATE_V4-EDGE_CUTS_GBR
 10
284.63506
 20
-139.093332
 30
0.00
  0
VERTEX
  8
ME_EC_PLATE_V4-EDGE_CUTS_GBR
 10
285.63506
 20
-140.093332
 30
0.00
  0
SEQEND
  0
POLYLINE
  8
ME_EC_PLATE_V4-EDGE_CUTS_GBR
 66
1
 10
0.00
 20
0.00
 30
0.00
 40
0.20
 41
0.20
  0
VERTEX
  8
ME_EC_PLATE_V4-EDGE_CUTS_GBR
 10
271.93506
 20
-139.093332
 30
0.00
  0
VERTEX
  8
ME_EC_PLATE_V4-EDGE_CUTS_GBR
 10
284.63506
 20
-139.093332
 30
0.00
  0
SEQEND
  0
POLYLINE
  8
ME_EC_PLATE_V4-EDGE_CUTS_GBR
 66
1
 10
0.00
 20
0.00
 30
0.00
 40
0.20
 41
0.20
  0
VERTEX
  8
ME_EC_PLATE_V4-EDGE_CUTS_GBR
 10
251.93506
 20
-140.093332
 30
0.00
  0
VERTEX
  8
ME_EC_PLATE_V4-EDGE_CUTS_GBR
 10
252.93506
 20
-139.093332
 30
0.00
  0
SEQEND
  0
POLYLINE
  8
ME_EC_PLATE_V4-EDGE_CUTS_GBR
 66
1
 10
0.00
 20
0.00
 30
0.00
 40
0.20
 41
0.20
  0
VERTEX
  8
ME_EC_PLATE_V4-EDGE_CUTS_GBR
 10
251.93506
 20
-152.193332
 30
0.00
  0
VERTEX
  8
ME_EC_PLATE_V4-EDGE_CUTS_GBR
 10
251.93506
 20
-140.093332
 30
0.00
  0
SEQEND
  0
POLYLINE
  8
ME_EC_PLATE_V4-EDGE_CUTS_GBR
 66
1
 10
0.00
 20
0.00
 30
0.00
 40
0.20
 41
0.20
  0
VERTEX
  8
ME_EC_PLATE_V4-EDGE_CUTS_GBR
 10
252.93506
 20
-153.193332
 30
0.00
  0
VERTEX
  8
ME_EC_PLATE_V4-EDGE_CUTS_GBR
 10
251.93506
 20
-152.193332
 30
0.00
  0
SEQEND
  0
POLYLINE
  8
ME_EC_PLATE_V4-EDGE_CUTS_GBR
 66
1
 10
0.00
 20
0.00
 30
0.00
 40
0.20
 41
0.20
  0
VERTEX
  8
ME_EC_PLATE_V4-EDGE_CUTS_GBR
 10
265.63506
 20
-153.193332
 30
0.00
  0
VERTEX
  8
ME_EC_PLATE_V4-EDGE_CUTS_GBR
 10
252.93506
 20
-153.193332
 30
0.00
  0
SEQEND
  0
POLYLINE
  8
ME_EC_PLATE_V4-EDGE_CUTS_GBR
 66
1
 10
0.00
 20
0.00
 30
0.00
 40
0.20
 41
0.20
  0
VERTEX
  8
ME_EC_PLATE_V4-EDGE_CUTS_GBR
 10
266.63506
 20
-152.193332
 30
0.00
  0
VERTEX
  8
ME_EC_PLATE_V4-EDGE_CUTS_GBR
 10
265.63506
 20
-153.193332
 30
0.00
  0
SEQEND
  0
POLYLINE
  8
ME_EC_PLATE_V4-EDGE_CUTS_GBR
 66
1
 10
0.00
 20
0.00
 30
0.00
 40
0.20
 41
0.20
  0
VERTEX
  8
ME_EC_PLATE_V4-EDGE_CUTS_GBR
 10
266.63506
 20
-140.093332
 30
0.00
  0
VERTEX
  8
ME_EC_PLATE_V4-EDGE_CUTS_GBR
 10
266.63506
 20
-152.193332
 30
0.00
  0
SEQEND
  0
POLYLINE
  8
ME_EC_PLATE_V4-EDGE_CUTS_GBR
 66
1
 10
0.00
 20
0.00
 30
0.00
 40
0.20
 41
0.20
  0
VERTEX
  8
ME_EC_PLATE_V4-EDGE_CUTS_GBR
 10
265.63506
 20
-139.093332
 30
0.00
  0
VERTEX
  8
ME_EC_PLATE_V4-EDGE_CUTS_GBR
 10
266.63506
 20
-140.093332
 30
0.00
  0
SEQEND
  0
POLYLINE
  8
ME_EC_PLATE_V4-EDGE_CUTS_GBR
 66
1
 10
0.00
 20
0.00
 30
0.00
 40
0.20
 41
0.20
  0
VERTEX
  8
ME_EC_PLATE_V4-EDGE_CUTS_GBR
 10
252.93506
 20
-139.093332
 30
0.00
  0
VERTEX
  8
ME_EC_PLATE_V4-EDGE_CUTS_GBR
 10
265.63506
 20
-139.093332
 30
0.00
  0
SEQEND
  0
POLYLINE
  8
ME_EC_PLATE_V4-EDGE_CUTS_GBR
 66
1
 10
0.00
 20
0.00
 30
0.00
 40
0.20
 41
0.20
  0
VERTEX
  8
ME_EC_PLATE_V4-EDGE_CUTS_GBR
 10
232.93506
 20
-140.093332
 30
0.00
  0
VERTEX
  8
ME_EC_PLATE_V4-EDGE_CUTS_GBR
 10
233.93506
 20
-139.093332
 30
0.00
  0
SEQEND
  0
POLYLINE
  8
ME_EC_PLATE_V4-EDGE_CUTS_GBR
 66
1
 10
0.00
 20
0.00
 30
0.00
 40
0.20
 41
0.20
  0
VERTEX
  8
ME_EC_PLATE_V4-EDGE_CUTS_GBR
 10
232.93506
 20
-152.193332
 30
0.00
  0
VERTEX
  8
ME_EC_PLATE_V4-EDGE_CUTS_GBR
 10
232.93506
 20
-140.093332
 30
0.00
  0
SEQEND
  0
POLYLINE
  8
ME_EC_PLATE_V4-EDGE_CUTS_GBR
 66
1
 10
0.00
 20
0.00
 30
0.00
 40
0.20
 41
0.20
  0
VERTEX
  8
ME_EC_PLATE_V4-EDGE_CUTS_GBR
 10
233.93506
 20
-153.193332
 30
0.00
  0
VERTEX
  8
ME_EC_PLATE_V4-EDGE_CUTS_GBR
 10
232.93506
 20
-152.193332
 30
0.00
  0
SEQEND
  0
POLYLINE
  8
ME_EC_PLATE_V4-EDGE_CUTS_GBR
 66
1
 10
0.00
 20
0.00
 30
0.00
 40
0.20
 41
0.20
  0
VERTEX
  8
ME_EC_PLATE_V4-EDGE_CUTS_GBR
 10
246.63506
 20
-153.193332
 30
0.00
  0
VERTEX
  8
ME_EC_PLATE_V4-EDGE_CUTS_GBR
 10
233.93506
 20
-153.193332
 30
0.00
  0
SEQEND
  0
POLYLINE
  8
ME_EC_PLATE_V4-EDGE_CUTS_GBR
 66
1
 10
0.00
 20
0.00
 30
0.00
 40
0.20
 41
0.20
  0
VERTEX
  8
ME_EC_PLATE_V4-EDGE_CUTS_GBR
 10
247.63506
 20
-152.193332
 30
0.00
  0
VERTEX
  8
ME_EC_PLATE_V4-EDGE_CUTS_GBR
 10
246.63506
 20
-153.193332
 30
0.00
  0
SEQEND
  0
POLYLINE
  8
ME_EC_PLATE_V4-EDGE_CUTS_GBR
 66
1
 10
0.00
 20
0.00
 30
0.00
 40
0.20
 41
0.20
  0
VERTEX
  8
ME_EC_PLATE_V4-EDGE_CUTS_GBR
 10
247.63506
 20
-140.093332
 30
0.00
  0
VERTEX
  8
ME_EC_PLATE_V4-EDGE_CUTS_GBR
 10
247.63506
 20
-152.193332
 30
0.00
  0
SEQEND
  0
POLYLINE
  8
ME_EC_PLATE_V4-EDGE_CUTS_GBR
 66
1
 10
0.00
 20
0.00
 30
0.00
 40
0.20
 41
0.20
  0
VERTEX
  8
ME_EC_PLATE_V4-EDGE_CUTS_GBR
 10
246.63506
 20
-139.093332
 30
0.00
  0
VERTEX
  8
ME_EC_PLATE_V4-EDGE_CUTS_GBR
 10
247.63506
 20
-140.093332
 30
0.00
  0
SEQEND
  0
POLYLINE
  8
ME_EC_PLATE_V4-EDGE_CUTS_GBR
 66
1
 10
0.00
 20
0.00
 30
0.00
 40
0.20
 41
0.20
  0
VERTEX
  8
ME_EC_PLATE_V4-EDGE_CUTS_GBR
 10
233.93506
 20
-139.093332
 30
0.00
  0
VERTEX
  8
ME_EC_PLATE_V4-EDGE_CUTS_GBR
 10
246.63506
 20
-139.093332
 30
0.00
  0
SEQEND
  0
POLYLINE
  8
ME_EC_PLATE_V4-EDGE_CUTS_GBR
 66
1
 10
0.00
 20
0.00
 30
0.00
 40
0.20
 41
0.20
  0
VERTEX
  8
ME_EC_PLATE_V4-EDGE_CUTS_GBR
 10
374.634268
 20
-121.096884
 30
0.00
  0
VERTEX
  8
ME_EC_PLATE_V4-EDGE_CUTS_GBR
 10
375.634268
 20
-120.096884
 30
0.00
  0
SEQEND
  0
POLYLINE
  8
ME_EC_PLATE_V4-EDGE_CUTS_GBR
 66
1
 10
0.00
 20
0.00
 30
0.00
 40
0.20
 41
0.20
  0
VERTEX
  8
ME_EC_PLATE_V4-EDGE_CUTS_GBR
 10
374.634268
 20
-133.196884
 30
0.00
  0
VERTEX
  8
ME_EC_PLATE_V4-EDGE_CUTS_GBR
 10
374.634268
 20
-121.096884
 30
0.00
  0
SEQEND
  0
POLYLINE
  8
ME_EC_PLATE_V4-EDGE_CUTS_GBR
 66
1
 10
0.00
 20
0.00
 30
0.00
 40
0.20
 41
0.20
  0
VERTEX
  8
ME_EC_PLATE_V4-EDGE_CUTS_GBR
 10
375.634268
 20
-134.196884
 30
0.00
  0
VERTEX
  8
ME_EC_PLATE_V4-EDGE_CUTS_GBR
 10
374.634268
 20
-133.196884
 30
0.00
  0
SEQEND
  0
POLYLINE
  8
ME_EC_PLATE_V4-EDGE_CUTS_GBR
 66
1
 10
0.00
 20
0.00
 30
0.00
 40
0.20
 41
0.20
  0
VERTEX
  8
ME_EC_PLATE_V4-EDGE_CUTS_GBR
 10
388.334268
 20
-134.196884
 30
0.00
  0
VERTEX
  8
ME_EC_PLATE_V4-EDGE_CUTS_GBR
 10
375.634268
 20
-134.196884
 30
0.00
  0
SEQEND
  0
POLYLINE
  8
ME_EC_PLATE_V4-EDGE_CUTS_GBR
 66
1
 10
0.00
 20
0.00
 30
0.00
 40
0.20
 41
0.20
  0
VERTEX
  8
ME_EC_PLATE_V4-EDGE_CUTS_GBR
 10
389.334268
 20
-133.196884
 30
0.00
  0
VERTEX
  8
ME_EC_PLATE_V4-EDGE_CUTS_GBR
 10
388.334268
 20
-134.196884
 30
0.00
  0
SEQEND
  0
POLYLINE
  8
ME_EC_PLATE_V4-EDGE_CUTS_GBR
 66
1
 10
0.00
 20
0.00
 30
0.00
 40
0.20
 41
0.20
  0
VERTEX
  8
ME_EC_PLATE_V4-EDGE_CUTS_GBR
 10
389.334268
 20
-121.096884
 30
0.00
  0
VERTEX
  8
ME_EC_PLATE_V4-EDGE_CUTS_GBR
 10
389.334268
 20
-133.196884
 30
0.00
  0
SEQEND
  0
POLYLINE
  8
ME_EC_PLATE_V4-EDGE_CUTS_GBR
 66
1
 10
0.00
 20
0.00
 30
0.00
 40
0.20
 41
0.20
  0
VERTEX
  8
ME_EC_PLATE_V4-EDGE_CUTS_GBR
 10
388.334268
 20
-120.096884
 30
0.00
  0
VERTEX
  8
ME_EC_PLATE_V4-EDGE_CUTS_GBR
 10
389.334268
 20
-121.096884
 30
0.00
  0
SEQEND
  0
POLYLINE
  8
ME_EC_PLATE_V4-EDGE_CUTS_GBR
 66
1
 10
0.00
 20
0.00
 30
0.00
 40
0.20
 41
0.20
  0
VERTEX
  8
ME_EC_PLATE_V4-EDGE_CUTS_GBR
 10
375.634268
 20
-120.096884
 30
0.00
  0
VERTEX
  8
ME_EC_PLATE_V4-EDGE_CUTS_GBR
 10
388.334268
 20
-120.096884
 30
0.00
  0
SEQEND
  0
POLYLINE
  8
ME_EC_PLATE_V4-EDGE_CUTS_GBR
 66
1
 10
0.00
 20
0.00
 30
0.00
 40
0.20
 41
0.20
  0
VERTEX
  8
ME_EC_PLATE_V4-EDGE_CUTS_GBR
 10
355.614268
 20
-121.096884
 30
0.00
  0
VERTEX
  8
ME_EC_PLATE_V4-EDGE_CUTS_GBR
 10
356.614268
 20
-120.096884
 30
0.00
  0
SEQEND
  0
POLYLINE
  8
ME_EC_PLATE_V4-EDGE_CUTS_GBR
 66
1
 10
0.00
 20
0.00
 30
0.00
 40
0.20
 41
0.20
  0
VERTEX
  8
ME_EC_PLATE_V4-EDGE_CUTS_GBR
 10
355.614268
 20
-133.196884
 30
0.00
  0
VERTEX
  8
ME_EC_PLATE_V4-EDGE_CUTS_GBR
 10
355.614268
 20
-121.096884
 30
0.00
  0
SEQEND
  0
POLYLINE
  8
ME_EC_PLATE_V4-EDGE_CUTS_GBR
 66
1
 10
0.00
 20
0.00
 30
0.00
 40
0.20
 41
0.20
  0
VERTEX
  8
ME_EC_PLATE_V4-EDGE_CUTS_GBR
 10
356.614268
 20
-134.196884
 30
0.00
  0
VERTEX
  8
ME_EC_PLATE_V4-EDGE_CUTS_GBR
 10
355.614268
 20
-133.196884
 30
0.00
  0
SEQEND
  0
POLYLINE
  8
ME_EC_PLATE_V4-EDGE_CUTS_GBR
 66
1
 10
0.00
 20
0.00
 30
0.00
 40
0.20
 41
0.20
  0
VERTEX
  8
ME_EC_PLATE_V4-EDGE_CUTS_GBR
 10
369.314268
 20
-134.196884
 30
0.00
  0
VERTEX
  8
ME_EC_PLATE_V4-EDGE_CUTS_GBR
 10
356.614268
 20
-134.196884
 30
0.00
  0
SEQEND
  0
POLYLINE
  8
ME_EC_PLATE_V4-EDGE_CUTS_GBR
 66
1
 10
0.00
 20
0.00
 30
0.00
 40
0.20
 41
0.20
  0
VERTEX
  8
ME_EC_PLATE_V4-EDGE_CUTS_GBR
 10
370.314268
 20
-133.196884
 30
0.00
  0
VERTEX
  8
ME_EC_PLATE_V4-EDGE_CUTS_GBR
 10
369.314268
 20
-134.196884
 30
0.00
  0
SEQEND
  0
POLYLINE
  8
ME_EC_PLATE_V4-EDGE_CUTS_GBR
 66
1
 10
0.00
 20
0.00
 30
0.00
 40
0.20
 41
0.20
  0
VERTEX
  8
ME_EC_PLATE_V4-EDGE_CUTS_GBR
 10
370.314268
 20
-121.096884
 30
0.00
  0
VERTEX
  8
ME_EC_PLATE_V4-EDGE_CUTS_GBR
 10
370.314268
 20
-133.196884
 30
0.00
  0
SEQEND
  0
POLYLINE
  8
ME_EC_PLATE_V4-EDGE_CUTS_GBR
 66
1
 10
0.00
 20
0.00
 30
0.00
 40
0.20
 41
0.20
  0
VERTEX
  8
ME_EC_PLATE_V4-EDGE_CUTS_GBR
 10
369.314268
 20
-120.096884
 30
0.00
  0
VERTEX
  8
ME_EC_PLATE_V4-EDGE_CUTS_GBR
 10
370.314268
 20
-121.096884
 30
0.00
  0
SEQEND
  0
POLYLINE
  8
ME_EC_PLATE_V4-EDGE_CUTS_GBR
 66
1
 10
0.00
 20
0.00
 30
0.00
 40
0.20
 41
0.20
  0
VERTEX
  8
ME_EC_PLATE_V4-EDGE_CUTS_GBR
 10
356.614268
 20
-120.096884
 30
0.00
  0
VERTEX
  8
ME_EC_PLATE_V4-EDGE_CUTS_GBR
 10
369.314268
 20
-120.096884
 30
0.00
  0
SEQEND
  0
POLYLINE
  8
ME_EC_PLATE_V4-EDGE_CUTS_GBR
 66
1
 10
0.00
 20
0.00
 30
0.00
 40
0.20
 41
0.20
  0
VERTEX
  8
ME_EC_PLATE_V4-EDGE_CUTS_GBR
 10
336.594268
 20
-121.096884
 30
0.00
  0
VERTEX
  8
ME_EC_PLATE_V4-EDGE_CUTS_GBR
 10
337.594268
 20
-120.096884
 30
0.00
  0
SEQEND
  0
POLYLINE
  8
ME_EC_PLATE_V4-EDGE_CUTS_GBR
 66
1
 10
0.00
 20
0.00
 30
0.00
 40
0.20
 41
0.20
  0
VERTEX
  8
ME_EC_PLATE_V4-EDGE_CUTS_GBR
 10
336.594268
 20
-133.196884
 30
0.00
  0
VERTEX
  8
ME_EC_PLATE_V4-EDGE_CUTS_GBR
 10
336.594268
 20
-121.096884
 30
0.00
  0
SEQEND
  0
POLYLINE
  8
ME_EC_PLATE_V4-EDGE_CUTS_GBR
 66
1
 10
0.00
 20
0.00
 30
0.00
 40
0.20
 41
0.20
  0
VERTEX
  8
ME_EC_PLATE_V4-EDGE_CUTS_GBR
 10
337.594268
 20
-134.196884
 30
0.00
  0
VERTEX
  8
ME_EC_PLATE_V4-EDGE_CUTS_GBR
 10
336.594268
 20
-133.196884
 30
0.00
  0
SEQEND
  0
POLYLINE
  8
ME_EC_PLATE_V4-EDGE_CUTS_GBR
 66
1
 10
0.00
 20
0.00
 30
0.00
 40
0.20
 41
0.20
  0
VERTEX
  8
ME_EC_PLATE_V4-EDGE_CUTS_GBR
 10
350.294268
 20
-134.196884
 30
0.00
  0
VERTEX
  8
ME_EC_PLATE_V4-EDGE_CUTS_GBR
 10
337.594268
 20
-134.196884
 30
0.00
  0
SEQEND
  0
POLYLINE
  8
ME_EC_PLATE_V4-EDGE_CUTS_GBR
 66
1
 10
0.00
 20
0.00
 30
0.00
 40
0.20
 41
0.20
  0
VERTEX
  8
ME_EC_PLATE_V4-EDGE_CUTS_GBR
 10
351.294268
 20
-133.196884
 30
0.00
  0
VERTEX
  8
ME_EC_PLATE_V4-EDGE_CUTS_GBR
 10
350.294268
 20
-134.196884
 30
0.00
  0
SEQEND
  0
POLYLINE
  8
ME_EC_PLATE_V4-EDGE_CUTS_GBR
 66
1
 10
0.00
 20
0.00
 30
0.00
 40
0.20
 41
0.20
  0
VERTEX
  8
ME_EC_PLATE_V4-EDGE_CUTS_GBR
 10
351.294268
 20
-121.096884
 30
0.00
  0
VERTEX
  8
ME_EC_PLATE_V4-EDGE_CUTS_GBR
 10
351.294268
 20
-133.196884
 30
0.00
  0
SEQEND
  0
POLYLINE
  8
ME_EC_PLATE_V4-EDGE_CUTS_GBR
 66
1
 10
0.00
 20
0.00
 30
0.00
 40
0.20
 41
0.20
  0
VERTEX
  8
ME_EC_PLATE_V4-EDGE_CUTS_GBR
 10
350.294268
 20
-120.096884
 30
0.00
  0
VERTEX
  8
ME_EC_PLATE_V4-EDGE_CUTS_GBR
 10
351.294268
 20
-121.096884
 30
0.00
  0
SEQEND
  0
POLYLINE
  8
ME_EC_PLATE_V4-EDGE_CUTS_GBR
 66
1
 10
0.00
 20
0.00
 30
0.00
 40
0.20
 41
0.20
  0
VERTEX
  8
ME_EC_PLATE_V4-EDGE_CUTS_GBR
 10
337.594268
 20
-120.096884
 30
0.00
  0
VERTEX
  8
ME_EC_PLATE_V4-EDGE_CUTS_GBR
 10
350.294268
 20
-120.096884
 30
0.00
  0
SEQEND
  0
POLYLINE
  8
ME_EC_PLATE_V4-EDGE_CUTS_GBR
 66
1
 10
0.00
 20
0.00
 30
0.00
 40
0.20
 41
0.20
  0
VERTEX
  8
ME_EC_PLATE_V4-EDGE_CUTS_GBR
 10
309.04006
 20
-121.073332
 30
0.00
  0
VERTEX
  8
ME_EC_PLATE_V4-EDGE_CUTS_GBR
 10
310.04006
 20
-120.073332
 30
0.00
  0
SEQEND
  0
POLYLINE
  8
ME_EC_PLATE_V4-EDGE_CUTS_GBR
 66
1
 10
0.00
 20
0.00
 30
0.00
 40
0.20
 41
0.20
  0
VERTEX
  8
ME_EC_PLATE_V4-EDGE_CUTS_GBR
 10
309.04006
 20
-133.173332
 30
0.00
  0
VERTEX
  8
ME_EC_PLATE_V4-EDGE_CUTS_GBR
 10
309.04006
 20
-121.073332
 30
0.00
  0
SEQEND
  0
POLYLINE
  8
ME_EC_PLATE_V4-EDGE_CUTS_GBR
 66
1
 10
0.00
 20
0.00
 30
0.00
 40
0.20
 41
0.20
  0
VERTEX
  8
ME_EC_PLATE_V4-EDGE_CUTS_GBR
 10
310.04006
 20
-134.173332
 30
0.00
  0
VERTEX
  8
ME_EC_PLATE_V4-EDGE_CUTS_GBR
 10
309.04006
 20
-133.173332
 30
0.00
  0
SEQEND
  0
POLYLINE
  8
ME_EC_PLATE_V4-EDGE_CUTS_GBR
 66
1
 10
0.00
 20
0.00
 30
0.00
 40
0.20
 41
0.20
  0
VERTEX
  8
ME_EC_PLATE_V4-EDGE_CUTS_GBR
 10
322.74006
 20
-134.173332
 30
0.00
  0
VERTEX
  8
ME_EC_PLATE_V4-EDGE_CUTS_GBR
 10
310.04006
 20
-134.173332
 30
0.00
  0
SEQEND
  0
POLYLINE
  8
ME_EC_PLATE_V4-EDGE_CUTS_GBR
 66
1
 10
0.00
 20
0.00
 30
0.00
 40
0.20
 41
0.20
  0
VERTEX
  8
ME_EC_PLATE_V4-EDGE_CUTS_GBR
 10
323.74006
 20
-133.173332
 30
0.00
  0
VERTEX
  8
ME_EC_PLATE_V4-EDGE_CUTS_GBR
 10
322.74006
 20
-134.173332
 30
0.00
  0
SEQEND
  0
POLYLINE
  8
ME_EC_PLATE_V4-EDGE_CUTS_GBR
 66
1
 10
0.00
 20
0.00
 30
0.00
 40
0.20
 41
0.20
  0
VERTEX
  8
ME_EC_PLATE_V4-EDGE_CUTS_GBR
 10
323.74006
 20
-121.073332
 30
0.00
  0
VERTEX
  8
ME_EC_PLATE_V4-EDGE_CUTS_GBR
 10
323.74006
 20
-133.173332
 30
0.00
  0
SEQEND
  0
POLYLINE
  8
ME_EC_PLATE_V4-EDGE_CUTS_GBR
 66
1
 10
0.00
 20
0.00
 30
0.00
 40
0.20
 41
0.20
  0
VERTEX
  8
ME_EC_PLATE_V4-EDGE_CUTS_GBR
 10
322.74006
 20
-120.073332
 30
0.00
  0
VERTEX
  8
ME_EC_PLATE_V4-EDGE_CUTS_GBR
 10
323.74006
 20
-121.073332
 30
0.00
  0
SEQEND
  0
POLYLINE
  8
ME_EC_PLATE_V4-EDGE_CUTS_GBR
 66
1
 10
0.00
 20
0.00
 30
0.00
 40
0.20
 41
0.20
  0
VERTEX
  8
ME_EC_PLATE_V4-EDGE_CUTS_GBR
 10
310.04006
 20
-120.073332
 30
0.00
  0
VERTEX
  8
ME_EC_PLATE_V4-EDGE_CUTS_GBR
 10
322.74006
 20
-120.073332
 30
0.00
  0
SEQEND
  0
POLYLINE
  8
ME_EC_PLATE_V4-EDGE_CUTS_GBR
 66
1
 10
0.00
 20
0.00
 30
0.00
 40
0.20
 41
0.20
  0
VERTEX
  8
ME_EC_PLATE_V4-EDGE_CUTS_GBR
 10
285.22506
 20
-121.073332
 30
0.00
  0
VERTEX
  8
ME_EC_PLATE_V4-EDGE_CUTS_GBR
 10
286.22506
 20
-120.073332
 30
0.00
  0
SEQEND
  0
POLYLINE
  8
ME_EC_PLATE_V4-EDGE_CUTS_GBR
 66
1
 10
0.00
 20
0.00
 30
0.00
 40
0.20
 41
0.20
  0
VERTEX
  8
ME_EC_PLATE_V4-EDGE_CUTS_GBR
 10
285.22506
 20
-133.173332
 30
0.00
  0
VERTEX
  8
ME_EC_PLATE_V4-EDGE_CUTS_GBR
 10
285.22506
 20
-121.073332
 30
0.00
  0
SEQEND
  0
POLYLINE
  8
ME_EC_PLATE_V4-EDGE_CUTS_GBR
 66
1
 10
0.00
 20
0.00
 30
0.00
 40
0.20
 41
0.20
  0
VERTEX
  8
ME_EC_PLATE_V4-EDGE_CUTS_GBR
 10
286.22506
 20
-134.173332
 30
0.00
  0
VERTEX
  8
ME_EC_PLATE_V4-EDGE_CUTS_GBR
 10
285.22506
 20
-133.173332
 30
0.00
  0
SEQEND
  0
POLYLINE
  8
ME_EC_PLATE_V4-EDGE_CUTS_GBR
 66
1
 10
0.00
 20
0.00
 30
0.00
 40
0.20
 41
0.20
  0
VERTEX
  8
ME_EC_PLATE_V4-EDGE_CUTS_GBR
 10
298.92506
 20
-134.173332
 30
0.00
  0
VERTEX
  8
ME_EC_PLATE_V4-EDGE_CUTS_GBR
 10
286.22506
 20
-134.173332
 30
0.00
  0
SEQEND
  0
POLYLINE
  8
ME_EC_PLATE_V4-EDGE_CUTS_GBR
 66
1
 10
0.00
 20
0.00
 30
0.00
 40
0.20
 41
0.20
  0
VERTEX
  8
ME_EC_PLATE_V4-EDGE_CUTS_GBR
 10
299.92506
 20
-133.173332
 30
0.00
  0
VERTEX
  8
ME_EC_PLATE_V4-EDGE_CUTS_GBR
 10
298.92506
 20
-134.173332
 30
0.00
  0
SEQEND
  0
POLYLINE
  8
ME_EC_PLATE_V4-EDGE_CUTS_GBR
 66
1
 10
0.00
 20
0.00
 30
0.00
 40
0.20
 41
0.20
  0
VERTEX
  8
ME_EC_PLATE_V4-EDGE_CUTS_GBR
 10
299.92506
 20
-121.073332
 30
0.00
  0
VERTEX
  8
ME_EC_PLATE_V4-EDGE_CUTS_GBR
 10
299.92506
 20
-133.173332
 30
0.00
  0
SEQEND
  0
POLYLINE
  8
ME_EC_PLATE_V4-EDGE_CUTS_GBR
 66
1
 10
0.00
 20
0.00
 30
0.00
 40
0.20
 41
0.20
  0
VERTEX
  8
ME_EC_PLATE_V4-EDGE_CUTS_GBR
 10
298.92506
 20
-120.073332
 30
0.00
  0
VERTEX
  8
ME_EC_PLATE_V4-EDGE_CUTS_GBR
 10
299.92506
 20
-121.073332
 30
0.00
  0
SEQEND
  0
POLYLINE
  8
ME_EC_PLATE_V4-EDGE_CUTS_GBR
 66
1
 10
0.00
 20
0.00
 30
0.00
 40
0.20
 41
0.20
  0
VERTEX
  8
ME_EC_PLATE_V4-EDGE_CUTS_GBR
 10
286.22506
 20
-120.073332
 30
0.00
  0
VERTEX
  8
ME_EC_PLATE_V4-EDGE_CUTS_GBR
 10
298.92506
 20
-120.073332
 30
0.00
  0
SEQEND
  0
POLYLINE
  8
ME_EC_PLATE_V4-EDGE_CUTS_GBR
 66
1
 10
0.00
 20
0.00
 30
0.00
 40
0.20
 41
0.20
  0
VERTEX
  8
ME_EC_PLATE_V4-EDGE_CUTS_GBR
 10
266.20506
 20
-121.073332
 30
0.00
  0
VERTEX
  8
ME_EC_PLATE_V4-EDGE_CUTS_GBR
 10
267.20506
 20
-120.073332
 30
0.00
  0
SEQEND
  0
POLYLINE
  8
ME_EC_PLATE_V4-EDGE_CUTS_GBR
 66
1
 10
0.00
 20
0.00
 30
0.00
 40
0.20
 41
0.20
  0
VERTEX
  8
ME_EC_PLATE_V4-EDGE_CUTS_GBR
 10
266.20506
 20
-133.173332
 30
0.00
  0
VERTEX
  8
ME_EC_PLATE_V4-EDGE_CUTS_GBR
 10
266.20506
 20
-121.073332
 30
0.00
  0
SEQEND
  0
POLYLINE
  8
ME_EC_PLATE_V4-EDGE_CUTS_GBR
 66
1
 10
0.00
 20
0.00
 30
0.00
 40
0.20
 41
0.20
  0
VERTEX
  8
ME_EC_PLATE_V4-EDGE_CUTS_GBR
 10
267.20506
 20
-134.173332
 30
0.00
  0
VERTEX
  8
ME_EC_PLATE_V4-EDGE_CUTS_GBR
 10
266.20506
 20
-133.173332
 30
0.00
  0
SEQEND
  0
POLYLINE
  8
ME_EC_PLATE_V4-EDGE_CUTS_GBR
 66
1
 10
0.00
 20
0.00
 30
0.00
 40
0.20
 41
0.20
  0
VERTEX
  8
ME_EC_PLATE_V4-EDGE_CUTS_GBR
 10
279.90506
 20
-134.173332
 30
0.00
  0
VERTEX
  8
ME_EC_PLATE_V4-EDGE_CUTS_GBR
 10
267.20506
 20
-134.173332
 30
0.00
  0
SEQEND
  0
POLYLINE
  8
ME_EC_PLATE_V4-EDGE_CUTS_GBR
 66
1
 10
0.00
 20
0.00
 30
0.00
 40
0.20
 41
0.20
  0
VERTEX
  8
ME_EC_PLATE_V4-EDGE_CUTS_GBR
 10
280.90506
 20
-133.173332
 30
0.00
  0
VERTEX
  8
ME_EC_PLATE_V4-EDGE_CUTS_GBR
 10
279.90506
 20
-134.173332
 30
0.00
  0
SEQEND
  0
POLYLINE
  8
ME_EC_PLATE_V4-EDGE_CUTS_GBR
 66
1
 10
0.00
 20
0.00
 30
0.00
 40
0.20
 41
0.20
  0
VERTEX
  8
ME_EC_PLATE_V4-EDGE_CUTS_GBR
 10
280.90506
 20
-121.073332
 30
0.00
  0
VERTEX
  8
ME_EC_PLATE_V4-EDGE_CUTS_GBR
 10
280.90506
 20
-133.173332
 30
0.00
  0
SEQEND
  0
POLYLINE
  8
ME_EC_PLATE_V4-EDGE_CUTS_GBR
 66
1
 10
0.00
 20
0.00
 30
0.00
 40
0.20
 41
0.20
  0
VERTEX
  8
ME_EC_PLATE_V4-EDGE_CUTS_GBR
 10
279.90506
 20
-120.073332
 30
0.00
  0
VERTEX
  8
ME_EC_PLATE_V4-EDGE_CUTS_GBR
 10
280.90506
 20
-121.073332
 30
0.00
  0
SEQEND
  0
POLYLINE
  8
ME_EC_PLATE_V4-EDGE_CUTS_GBR
 66
1
 10
0.00
 20
0.00
 30
0.00
 40
0.20
 41
0.20
  0
VERTEX
  8
ME_EC_PLATE_V4-EDGE_CUTS_GBR
 10
267.20506
 20
-120.073332
 30
0.00
  0
VERTEX
  8
ME_EC_PLATE_V4-EDGE_CUTS_GBR
 10
279.90506
 20
-120.073332
 30
0.00
  0
SEQEND
  0
POLYLINE
  8
ME_EC_PLATE_V4-EDGE_CUTS_GBR
 66
1
 10
0.00
 20
0.00
 30
0.00
 40
0.20
 41
0.20
  0
VERTEX
  8
ME_EC_PLATE_V4-EDGE_CUTS_GBR
 10
247.18506
 20
-121.073332
 30
0.00
  0
VERTEX
  8
ME_EC_PLATE_V4-EDGE_CUTS_GBR
 10
248.18506
 20
-120.073332
 30
0.00
  0
SEQEND
  0
POLYLINE
  8
ME_EC_PLATE_V4-EDGE_CUTS_GBR
 66
1
 10
0.00
 20
0.00
 30
0.00
 40
0.20
 41
0.20
  0
VERTEX
  8
ME_EC_PLATE_V4-EDGE_CUTS_GBR
 10
247.18506
 20
-133.173332
 30
0.00
  0
VERTEX
  8
ME_EC_PLATE_V4-EDGE_CUTS_GBR
 10
247.18506
 20
-121.073332
 30
0.00
  0
SEQEND
  0
POLYLINE
  8
ME_EC_PLATE_V4-EDGE_CUTS_GBR
 66
1
 10
0.00
 20
0.00
 30
0.00
 40
0.20
 41
0.20
  0
VERTEX
  8
ME_EC_PLATE_V4-EDGE_CUTS_GBR
 10
248.18506
 20
-134.173332
 30
0.00
  0
VERTEX
  8
ME_EC_PLATE_V4-EDGE_CUTS_GBR
 10
247.18506
 20
-133.173332
 30
0.00
  0
SEQEND
  0
POLYLINE
  8
ME_EC_PLATE_V4-EDGE_CUTS_GBR
 66
1
 10
0.00
 20
0.00
 30
0.00
 40
0.20
 41
0.20
  0
VERTEX
  8
ME_EC_PLATE_V4-EDGE_CUTS_GBR
 10
260.88506
 20
-134.173332
 30
0.00
  0
VERTEX
  8
ME_EC_PLATE_V4-EDGE_CUTS_GBR
 10
248.18506
 20
-134.173332
 30
0.00
  0
SEQEND
  0
POLYLINE
  8
ME_EC_PLATE_V4-EDGE_CUTS_GBR
 66
1
 10
0.00
 20
0.00
 30
0.00
 40
0.20
 41
0.20
  0
VERTEX
  8
ME_EC_PLATE_V4-EDGE_CUTS_GBR
 10
261.88506
 20
-133.173332
 30
0.00
  0
VERTEX
  8
ME_EC_PLATE_V4-EDGE_CUTS_GBR
 10
260.88506
 20
-134.173332
 30
0.00
  0
SEQEND
  0
POLYLINE
  8
ME_EC_PLATE_V4-EDGE_CUTS_GBR
 66
1
 10
0.00
 20
0.00
 30
0.00
 40
0.20
 41
0.20
  0
VERTEX
  8
ME_EC_PLATE_V4-EDGE_CUTS_GBR
 10
261.88506
 20
-121.073332
 30
0.00
  0
VERTEX
  8
ME_EC_PLATE_V4-EDGE_CUTS_GBR
 10
261.88506
 20
-133.173332
 30
0.00
  0
SEQEND
  0
POLYLINE
  8
ME_EC_PLATE_V4-EDGE_CUTS_GBR
 66
1
 10
0.00
 20
0.00
 30
0.00
 40
0.20
 41
0.20
  0
VERTEX
  8
ME_EC_PLATE_V4-EDGE_CUTS_GBR
 10
260.88506
 20
-120.073332
 30
0.00
  0
VERTEX
  8
ME_EC_PLATE_V4-EDGE_CUTS_GBR
 10
261.88506
 20
-121.073332
 30
0.00
  0
SEQEND
  0
POLYLINE
  8
ME_EC_PLATE_V4-EDGE_CUTS_GBR
 66
1
 10
0.00
 20
0.00
 30
0.00
 40
0.20
 41
0.20
  0
VERTEX
  8
ME_EC_PLATE_V4-EDGE_CUTS_GBR
 10
248.18506
 20
-120.073332
 30
0.00
  0
VERTEX
  8
ME_EC_PLATE_V4-EDGE_CUTS_GBR
 10
260.88506
 20
-120.073332
 30
0.00
  0
SEQEND
  0
POLYLINE
  8
ME_EC_PLATE_V4-EDGE_CUTS_GBR
 66
1
 10
0.00
 20
0.00
 30
0.00
 40
0.20
 41
0.20
  0
VERTEX
  8
ME_EC_PLATE_V4-EDGE_CUTS_GBR
 10
228.16506
 20
-121.073332
 30
0.00
  0
VERTEX
  8
ME_EC_PLATE_V4-EDGE_CUTS_GBR
 10
229.16506
 20
-120.073332
 30
0.00
  0
SEQEND
  0
POLYLINE
  8
ME_EC_PLATE_V4-EDGE_CUTS_GBR
 66
1
 10
0.00
 20
0.00
 30
0.00
 40
0.20
 41
0.20
  0
VERTEX
  8
ME_EC_PLATE_V4-EDGE_CUTS_GBR
 10
228.16506
 20
-133.173332
 30
0.00
  0
VERTEX
  8
ME_EC_PLATE_V4-EDGE_CUTS_GBR
 10
228.16506
 20
-121.073332
 30
0.00
  0
SEQEND
  0
POLYLINE
  8
ME_EC_PLATE_V4-EDGE_CUTS_GBR
 66
1
 10
0.00
 20
0.00
 30
0.00
 40
0.20
 41
0.20
  0
VERTEX
  8
ME_EC_PLATE_V4-EDGE_CUTS_GBR
 10
229.16506
 20
-134.173332
 30
0.00
  0
VERTEX
  8
ME_EC_PLATE_V4-EDGE_CUTS_GBR
 10
228.16506
 20
-133.173332
 30
0.00
  0
SEQEND
  0
POLYLINE
  8
ME_EC_PLATE_V4-EDGE_CUTS_GBR
 66
1
 10
0.00
 20
0.00
 30
0.00
 40
0.20
 41
0.20
  0
VERTEX
  8
ME_EC_PLATE_V4-EDGE_CUTS_GBR
 10
241.86506
 20
-134.173332
 30
0.00
  0
VERTEX
  8
ME_EC_PLATE_V4-EDGE_CUTS_GBR
 10
229.16506
 20
-134.173332
 30
0.00
  0
SEQEND
  0
POLYLINE
  8
ME_EC_PLATE_V4-EDGE_CUTS_GBR
 66
1
 10
0.00
 20
0.00
 30
0.00
 40
0.20
 41
0.20
  0
VERTEX
  8
ME_EC_PLATE_V4-EDGE_CUTS_GBR
 10
242.86506
 20
-133.173332
 30
0.00
  0
VERTEX
  8
ME_EC_PLATE_V4-EDGE_CUTS_GBR
 10
241.86506
 20
-134.173332
 30
0.00
  0
SEQEND
  0
POLYLINE
  8
ME_EC_PLATE_V4-EDGE_CUTS_GBR
 66
1
 10
0.00
 20
0.00
 30
0.00
 40
0.20
 41
0.20
  0
VERTEX
  8
ME_EC_PLATE_V4-EDGE_CUTS_GBR
 10
242.86506
 20
-121.073332
 30
0.00
  0
VERTEX
  8
ME_EC_PLATE_V4-EDGE_CUTS_GBR
 10
242.86506
 20
-133.173332
 30
0.00
  0
SEQEND
  0
POLYLINE
  8
ME_EC_PLATE_V4-EDGE_CUTS_GBR
 66
1
 10
0.00
 20
0.00
 30
0.00
 40
0.20
 41
0.20
  0
VERTEX
  8
ME_EC_PLATE_V4-EDGE_CUTS_GBR
 10
241.86506
 20
-120.073332
 30
0.00
  0
VERTEX
  8
ME_EC_PLATE_V4-EDGE_CUTS_GBR
 10
242.86506
 20
-121.073332
 30
0.00
  0
SEQEND
  0
POLYLINE
  8
ME_EC_PLATE_V4-EDGE_CUTS_GBR
 66
1
 10
0.00
 20
0.00
 30
0.00
 40
0.20
 41
0.20
  0
VERTEX
  8
ME_EC_PLATE_V4-EDGE_CUTS_GBR
 10
229.16506
 20
-120.073332
 30
0.00
  0
VERTEX
  8
ME_EC_PLATE_V4-EDGE_CUTS_GBR
 10
241.86506
 20
-120.073332
 30
0.00
  0
SEQEND
  0
POLYLINE
  8
ME_EC_PLATE_V4-EDGE_CUTS_GBR
 66
1
 10
0.00
 20
0.00
 30
0.00
 40
0.20
 41
0.20
  0
VERTEX
  8
ME_EC_PLATE_V4-EDGE_CUTS_GBR
 10
374.634268
 20
-102.076884
 30
0.00
  0
VERTEX
  8
ME_EC_PLATE_V4-EDGE_CUTS_GBR
 10
375.634268
 20
-101.076884
 30
0.00
  0
SEQEND
  0
POLYLINE
  8
ME_EC_PLATE_V4-EDGE_CUTS_GBR
 66
1
 10
0.00
 20
0.00
 30
0.00
 40
0.20
 41
0.20
  0
VERTEX
  8
ME_EC_PLATE_V4-EDGE_CUTS_GBR
 10
374.634268
 20
-114.176884
 30
0.00
  0
VERTEX
  8
ME_EC_PLATE_V4-EDGE_CUTS_GBR
 10
374.634268
 20
-102.076884
 30
0.00
  0
SEQEND
  0
POLYLINE
  8
ME_EC_PLATE_V4-EDGE_CUTS_GBR
 66
1
 10
0.00
 20
0.00
 30
0.00
 40
0.20
 41
0.20
  0
VERTEX
  8
ME_EC_PLATE_V4-EDGE_CUTS_GBR
 10
375.634268
 20
-115.176884
 30
0.00
  0
VERTEX
  8
ME_EC_PLATE_V4-EDGE_CUTS_GBR
 10
374.634268
 20
-114.176884
 30
0.00
  0
SEQEND
  0
POLYLINE
  8
ME_EC_PLATE_V4-EDGE_CUTS_GBR
 66
1
 10
0.00
 20
0.00
 30
0.00
 40
0.20
 41
0.20
  0
VERTEX
  8
ME_EC_PLATE_V4-EDGE_CUTS_GBR
 10
388.334268
 20
-115.176884
 30
0.00
  0
VERTEX
  8
ME_EC_PLATE_V4-EDGE_CUTS_GBR
 10
375.634268
 20
-115.176884
 30
0.00
  0
SEQEND
  0
POLYLINE
  8
ME_EC_PLATE_V4-EDGE_CUTS_GBR
 66
1
 10
0.00
 20
0.00
 30
0.00
 40
0.20
 41
0.20
  0
VERTEX
  8
ME_EC_PLATE_V4-EDGE_CUTS_GBR
 10
389.334268
 20
-114.176884
 30
0.00
  0
VERTEX
  8
ME_EC_PLATE_V4-EDGE_CUTS_GBR
 10
388.334268
 20
-115.176884
 30
0.00
  0
SEQEND
  0
POLYLINE
  8
ME_EC_PLATE_V4-EDGE_CUTS_GBR
 66
1
 10
0.00
 20
0.00
 30
0.00
 40
0.20
 41
0.20
  0
VERTEX
  8
ME_EC_PLATE_V4-EDGE_CUTS_GBR
 10
389.334268
 20
-102.076884
 30
0.00
  0
VERTEX
  8
ME_EC_PLATE_V4-EDGE_CUTS_GBR
 10
389.334268
 20
-114.176884
 30
0.00
  0
SEQEND
  0
POLYLINE
  8
ME_EC_PLATE_V4-EDGE_CUTS_GBR
 66
1
 10
0.00
 20
0.00
 30
0.00
 40
0.20
 41
0.20
  0
VERTEX
  8
ME_EC_PLATE_V4-EDGE_CUTS_GBR
 10
388.334268
 20
-101.076884
 30
0.00
  0
VERTEX
  8
ME_EC_PLATE_V4-EDGE_CUTS_GBR
 10
389.334268
 20
-102.076884
 30
0.00
  0
SEQEND
  0
POLYLINE
  8
ME_EC_PLATE_V4-EDGE_CUTS_GBR
 66
1
 10
0.00
 20
0.00
 30
0.00
 40
0.20
 41
0.20
  0
VERTEX
  8
ME_EC_PLATE_V4-EDGE_CUTS_GBR
 10
375.634268
 20
-101.076884
 30
0.00
  0
VERTEX
  8
ME_EC_PLATE_V4-EDGE_CUTS_GBR
 10
388.334268
 20
-101.076884
 30
0.00
  0
SEQEND
  0
POLYLINE
  8
ME_EC_PLATE_V4-EDGE_CUTS_GBR
 66
1
 10
0.00
 20
0.00
 30
0.00
 40
0.20
 41
0.20
  0
VERTEX
  8
ME_EC_PLATE_V4-EDGE_CUTS_GBR
 10
355.614268
 20
-102.076884
 30
0.00
  0
VERTEX
  8
ME_EC_PLATE_V4-EDGE_CUTS_GBR
 10
356.614268
 20
-101.076884
 30
0.00
  0
SEQEND
  0
POLYLINE
  8
ME_EC_PLATE_V4-EDGE_CUTS_GBR
 66
1
 10
0.00
 20
0.00
 30
0.00
 40
0.20
 41
0.20
  0
VERTEX
  8
ME_EC_PLATE_V4-EDGE_CUTS_GBR
 10
355.614268
 20
-114.176884
 30
0.00
  0
VERTEX
  8
ME_EC_PLATE_V4-EDGE_CUTS_GBR
 10
355.614268
 20
-102.076884
 30
0.00
  0
SEQEND
  0
POLYLINE
  8
ME_EC_PLATE_V4-EDGE_CUTS_GBR
 66
1
 10
0.00
 20
0.00
 30
0.00
 40
0.20
 41
0.20
  0
VERTEX
  8
ME_EC_PLATE_V4-EDGE_CUTS_GBR
 10
356.614268
 20
-115.176884
 30
0.00
  0
VERTEX
  8
ME_EC_PLATE_V4-EDGE_CUTS_GBR
 10
355.614268
 20
-114.176884
 30
0.00
  0
SEQEND
  0
POLYLINE
  8
ME_EC_PLATE_V4-EDGE_CUTS_GBR
 66
1
 10
0.00
 20
0.00
 30
0.00
 40
0.20
 41
0.20
  0
VERTEX
  8
ME_EC_PLATE_V4-EDGE_CUTS_GBR
 10
369.314268
 20
-115.176884
 30
0.00
  0
VERTEX
  8
ME_EC_PLATE_V4-EDGE_CUTS_GBR
 10
356.614268
 20
-115.176884
 30
0.00
  0
SEQEND
  0
POLYLINE
  8
ME_EC_PLATE_V4-EDGE_CUTS_GBR
 66
1
 10
0.00
 20
0.00
 30
0.00
 40
0.20
 41
0.20
  0
VERTEX
  8
ME_EC_PLATE_V4-EDGE_CUTS_GBR
 10
370.314268
 20
-114.176884
 30
0.00
  0
VERTEX
  8
ME_EC_PLATE_V4-EDGE_CUTS_GBR
 10
369.314268
 20
-115.176884
 30
0.00
  0
SEQEND
  0
POLYLINE
  8
ME_EC_PLATE_V4-EDGE_CUTS_GBR
 66
1
 10
0.00
 20
0.00
 30
0.00
 40
0.20
 41
0.20
  0
VERTEX
  8
ME_EC_PLATE_V4-EDGE_CUTS_GBR
 10
370.314268
 20
-102.076884
 30
0.00
  0
VERTEX
  8
ME_EC_PLATE_V4-EDGE_CUTS_GBR
 10
370.314268
 20
-114.176884
 30
0.00
  0
SEQEND
  0
POLYLINE
  8
ME_EC_PLATE_V4-EDGE_CUTS_GBR
 66
1
 10
0.00
 20
0.00
 30
0.00
 40
0.20
 41
0.20
  0
VERTEX
  8
ME_EC_PLATE_V4-EDGE_CUTS_GBR
 10
369.314268
 20
-101.076884
 30
0.00
  0
VERTEX
  8
ME_EC_PLATE_V4-EDGE_CUTS_GBR
 10
370.314268
 20
-102.076884
 30
0.00
  0
SEQEND
  0
POLYLINE
  8
ME_EC_PLATE_V4-EDGE_CUTS_GBR
 66
1
 10
0.00
 20
0.00
 30
0.00
 40
0.20
 41
0.20
  0
VERTEX
  8
ME_EC_PLATE_V4-EDGE_CUTS_GBR
 10
356.614268
 20
-101.076884
 30
0.00
  0
VERTEX
  8
ME_EC_PLATE_V4-EDGE_CUTS_GBR
 10
369.314268
 20
-101.076884
 30
0.00
  0
SEQEND
  0
POLYLINE
  8
ME_EC_PLATE_V4-EDGE_CUTS_GBR
 66
1
 10
0.00
 20
0.00
 30
0.00
 40
0.20
 41
0.20
  0
VERTEX
  8
ME_EC_PLATE_V4-EDGE_CUTS_GBR
 10
336.594268
 20
-102.076884
 30
0.00
  0
VERTEX
  8
ME_EC_PLATE_V4-EDGE_CUTS_GBR
 10
337.594268
 20
-101.076884
 30
0.00
  0
SEQEND
  0
POLYLINE
  8
ME_EC_PLATE_V4-EDGE_CUTS_GBR
 66
1
 10
0.00
 20
0.00
 30
0.00
 40
0.20
 41
0.20
  0
VERTEX
  8
ME_EC_PLATE_V4-EDGE_CUTS_GBR
 10
336.594268
 20
-114.176884
 30
0.00
  0
VERTEX
  8
ME_EC_PLATE_V4-EDGE_CUTS_GBR
 10
336.594268
 20
-102.076884
 30
0.00
  0
SEQEND
  0
POLYLINE
  8
ME_EC_PLATE_V4-EDGE_CUTS_GBR
 66
1
 10
0.00
 20
0.00
 30
0.00
 40
0.20
 41
0.20
  0
VERTEX
  8
ME_EC_PLATE_V4-EDGE_CUTS_GBR
 10
337.594268
 20
-115.176884
 30
0.00
  0
VERTEX
  8
ME_EC_PLATE_V4-EDGE_CUTS_GBR
 10
336.594268
 20
-114.176884
 30
0.00
  0
SEQEND
  0
POLYLINE
  8
ME_EC_PLATE_V4-EDGE_CUTS_GBR
 66
1
 10
0.00
 20
0.00
 30
0.00
 40
0.20
 41
0.20
  0
VERTEX
  8
ME_EC_PLATE_V4-EDGE_CUTS_GBR
 10
350.294268
 20
-115.176884
 30
0.00
  0
VERTEX
  8
ME_EC_PLATE_V4-EDGE_CUTS_GBR
 10
337.594268
 20
-115.176884
 30
0.00
  0
SEQEND
  0
POLYLINE
  8
ME_EC_PLATE_V4-EDGE_CUTS_GBR
 66
1
 10
0.00
 20
0.00
 30
0.00
 40
0.20
 41
0.20
  0
VERTEX
  8
ME_EC_PLATE_V4-EDGE_CUTS_GBR
 10
351.294268
 20
-114.176884
 30
0.00
  0
VERTEX
  8
ME_EC_PLATE_V4-EDGE_CUTS_GBR
 10
350.294268
 20
-115.176884
 30
0.00
  0
SEQEND
  0
POLYLINE
  8
ME_EC_PLATE_V4-EDGE_CUTS_GBR
 66
1
 10
0.00
 20
0.00
 30
0.00
 40
0.20
 41
0.20
  0
VERTEX
  8
ME_EC_PLATE_V4-EDGE_CUTS_GBR
 10
351.294268
 20
-102.076884
 30
0.00
  0
VERTEX
  8
ME_EC_PLATE_V4-EDGE_CUTS_GBR
 10
351.294268
 20
-114.176884
 30
0.00
  0
SEQEND
  0
POLYLINE
  8
ME_EC_PLATE_V4-EDGE_CUTS_GBR
 66
1
 10
0.00
 20
0.00
 30
0.00
 40
0.20
 41
0.20
  0
VERTEX
  8
ME_EC_PLATE_V4-EDGE_CUTS_GBR
 10
350.294268
 20
-101.076884
 30
0.00
  0
VERTEX
  8
ME_EC_PLATE_V4-EDGE_CUTS_GBR
 10
351.294268
 20
-102.076884
 30
0.00
  0
SEQEND
  0
POLYLINE
  8
ME_EC_PLATE_V4-EDGE_CUTS_GBR
 66
1
 10
0.00
 20
0.00
 30
0.00
 40
0.20
 41
0.20
  0
VERTEX
  8
ME_EC_PLATE_V4-EDGE_CUTS_GBR
 10
337.594268
 20
-101.076884
 30
0.00
  0
VERTEX
  8
ME_EC_PLATE_V4-EDGE_CUTS_GBR
 10
350.294268
 20
-101.076884
 30
0.00
  0
SEQEND
  0
POLYLINE
  8
ME_EC_PLATE_V4-EDGE_CUTS_GBR
 66
1
 10
0.00
 20
0.00
 30
0.00
 40
0.20
 41
0.20
  0
VERTEX
  8
ME_EC_PLATE_V4-EDGE_CUTS_GBR
 10
295.56006
 20
-102.053332
 30
0.00
  0
VERTEX
  8
ME_EC_PLATE_V4-EDGE_CUTS_GBR
 10
296.56006
 20
-101.053332
 30
0.00
  0
SEQEND
  0
POLYLINE
  8
ME_EC_PLATE_V4-EDGE_CUTS_GBR
 66
1
 10
0.00
 20
0.00
 30
0.00
 40
0.20
 41
0.20
  0
VERTEX
  8
ME_EC_PLATE_V4-EDGE_CUTS_GBR
 10
295.56006
 20
-113.423332
 30
0.00
  0
VERTEX
  8
ME_EC_PLATE_V4-EDGE_CUTS_GBR
 10
295.56006
 20
-102.053332
 30
0.00
  0
SEQEND
  0
POLYLINE
  8
ME_EC_PLATE_V4-EDGE_CUTS_GBR
 66
1
 10
0.00
 20
0.00
 30
0.00
 40
0.20
 41
0.20
  0
VERTEX
  8
ME_EC_PLATE_V4-EDGE_CUTS_GBR
 10
298.56006
 20
-115.153332
 30
0.00
  0
VERTEX
  8
ME_EC_PLATE_V4-EDGE_CUTS_GBR
 10
295.56006
 20
-113.423332
 30
0.00
  0
SEQEND
  0
POLYLINE
  8
ME_EC_PLATE_V4-EDGE_CUTS_GBR
 66
1
 10
0.00
 20
0.00
 30
0.00
 40
0.20
 41
0.20
  0
VERTEX
  8
ME_EC_PLATE_V4-EDGE_CUTS_GBR
 10
324.76006
 20
-115.153332
 30
0.00
  0
VERTEX
  8
ME_EC_PLATE_V4-EDGE_CUTS_GBR
 10
298.56006
 20
-115.153332
 30
0.00
  0
SEQEND
  0
POLYLINE
  8
ME_EC_PLATE_V4-EDGE_CUTS_GBR
 66
1
 10
0.00
 20
0.00
 30
0.00
 40
0.20
 41
0.20
  0
VERTEX
  8
ME_EC_PLATE_V4-EDGE_CUTS_GBR
 10
327.76006
 20
-113.423332
 30
0.00
  0
VERTEX
  8
ME_EC_PLATE_V4-EDGE_CUTS_GBR
 10
324.76006
 20
-115.153332
 30
0.00
  0
SEQEND
  0
POLYLINE
  8
ME_EC_PLATE_V4-EDGE_CUTS_GBR
 66
1
 10
0.00
 20
0.00
 30
0.00
 40
0.20
 41
0.20
  0
VERTEX
  8
ME_EC_PLATE_V4-EDGE_CUTS_GBR
 10
327.76006
 20
-102.053332
 30
0.00
  0
VERTEX
  8
ME_EC_PLATE_V4-EDGE_CUTS_GBR
 10
327.76006
 20
-113.423332
 30
0.00
  0
SEQEND
  0
POLYLINE
  8
ME_EC_PLATE_V4-EDGE_CUTS_GBR
 66
1
 10
0.00
 20
0.00
 30
0.00
 40
0.20
 41
0.20
  0
VERTEX
  8
ME_EC_PLATE_V4-EDGE_CUTS_GBR
 10
326.76006
 20
-101.053332
 30
0.00
  0
VERTEX
  8
ME_EC_PLATE_V4-EDGE_CUTS_GBR
 10
327.76006
 20
-102.053332
 30
0.00
  0
SEQEND
  0
POLYLINE
  8
ME_EC_PLATE_V4-EDGE_CUTS_GBR
 66
1
 10
0.00
 20
0.00
 30
0.00
 40
0.20
 41
0.20
  0
VERTEX
  8
ME_EC_PLATE_V4-EDGE_CUTS_GBR
 10
296.56006
 20
-101.053332
 30
0.00
  0
VERTEX
  8
ME_EC_PLATE_V4-EDGE_CUTS_GBR
 10
326.76006
 20
-101.053332
 30
0.00
  0
SEQEND
  0
POLYLINE
  8
ME_EC_PLATE_V4-EDGE_CUTS_GBR
 66
1
 10
0.00
 20
0.00
 30
0.00
 40
0.20
 41
0.20
  0
VERTEX
  8
ME_EC_PLATE_V4-EDGE_CUTS_GBR
 10
275.76506
 20
-102.053332
 30
0.00
  0
VERTEX
  8
ME_EC_PLATE_V4-EDGE_CUTS_GBR
 10
276.76506
 20
-101.053332
 30
0.00
  0
SEQEND
  0
POLYLINE
  8
ME_EC_PLATE_V4-EDGE_CUTS_GBR
 66
1
 10
0.00
 20
0.00
 30
0.00
 40
0.20
 41
0.20
  0
VERTEX
  8
ME_EC_PLATE_V4-EDGE_CUTS_GBR
 10
275.76506
 20
-114.153332
 30
0.00
  0
VERTEX
  8
ME_EC_PLATE_V4-EDGE_CUTS_GBR
 10
275.76506
 20
-102.053332
 30
0.00
  0
SEQEND
  0
POLYLINE
  8
ME_EC_PLATE_V4-EDGE_CUTS_GBR
 66
1
 10
0.00
 20
0.00
 30
0.00
 40
0.20
 41
0.20
  0
VERTEX
  8
ME_EC_PLATE_V4-EDGE_CUTS_GBR
 10
276.76506
 20
-115.153332
 30
0.00
  0
VERTEX
  8
ME_EC_PLATE_V4-EDGE_CUTS_GBR
 10
275.76506
 20
-114.153332
 30
0.00
  0
SEQEND
  0
POLYLINE
  8
ME_EC_PLATE_V4-EDGE_CUTS_GBR
 66
1
 10
0.00
 20
0.00
 30
0.00
 40
0.20
 41
0.20
  0
VERTEX
  8
ME_EC_PLATE_V4-EDGE_CUTS_GBR
 10
289.46506
 20
-115.153332
 30
0.00
  0
VERTEX
  8
ME_EC_PLATE_V4-EDGE_CUTS_GBR
 10
276.76506
 20
-115.153332
 30
0.00
  0
SEQEND
  0
POLYLINE
  8
ME_EC_PLATE_V4-EDGE_CUTS_GBR
 66
1
 10
0.00
 20
0.00
 30
0.00
 40
0.20
 41
0.20
  0
VERTEX
  8
ME_EC_PLATE_V4-EDGE_CUTS_GBR
 10
290.46506
 20
-114.153332
 30
0.00
  0
VERTEX
  8
ME_EC_PLATE_V4-EDGE_CUTS_GBR
 10
289.46506
 20
-115.153332
 30
0.00
  0
SEQEND
  0
POLYLINE
  8
ME_EC_PLATE_V4-EDGE_CUTS_GBR
 66
1
 10
0.00
 20
0.00
 30
0.00
 40
0.20
 41
0.20
  0
VERTEX
  8
ME_EC_PLATE_V4-EDGE_CUTS_GBR
 10
290.46506
 20
-102.053332
 30
0.00
  0
VERTEX
  8
ME_EC_PLATE_V4-EDGE_CUTS_GBR
 10
290.46506
 20
-114.153332
 30
0.00
  0
SEQEND
  0
POLYLINE
  8
ME_EC_PLATE_V4-EDGE_CUTS_GBR
 66
1
 10
0.00
 20
0.00
 30
0.00
 40
0.20
 41
0.20
  0
VERTEX
  8
ME_EC_PLATE_V4-EDGE_CUTS_GBR
 10
289.46506
 20
-101.053332
 30
0.00
  0
VERTEX
  8
ME_EC_PLATE_V4-EDGE_CUTS_GBR
 10
290.46506
 20
-102.053332
 30
0.00
  0
SEQEND
  0
POLYLINE
  8
ME_EC_PLATE_V4-EDGE_CUTS_GBR
 66
1
 10
0.00
 20
0.00
 30
0.00
 40
0.20
 41
0.20
  0
VERTEX
  8
ME_EC_PLATE_V4-EDGE_CUTS_GBR
 10
276.76506
 20
-101.053332
 30
0.00
  0
VERTEX
  8
ME_EC_PLATE_V4-EDGE_CUTS_GBR
 10
289.46506
 20
-101.053332
 30
0.00
  0
SEQEND
  0
POLYLINE
  8
ME_EC_PLATE_V4-EDGE_CUTS_GBR
 66
1
 10
0.00
 20
0.00
 30
0.00
 40
0.20
 41
0.20
  0
VERTEX
  8
ME_EC_PLATE_V4-EDGE_CUTS_GBR
 10
256.74506
 20
-102.053332
 30
0.00
  0
VERTEX
  8
ME_EC_PLATE_V4-EDGE_CUTS_GBR
 10
257.74506
 20
-101.053332
 30
0.00
  0
SEQEND
  0
POLYLINE
  8
ME_EC_PLATE_V4-EDGE_CUTS_GBR
 66
1
 10
0.00
 20
0.00
 30
0.00
 40
0.20
 41
0.20
  0
VERTEX
  8
ME_EC_PLATE_V4-EDGE_CUTS_GBR
 10
256.74506
 20
-114.153332
 30
0.00
  0
VERTEX
  8
ME_EC_PLATE_V4-EDGE_CUTS_GBR
 10
256.74506
 20
-102.053332
 30
0.00
  0
SEQEND
  0
POLYLINE
  8
ME_EC_PLATE_V4-EDGE_CUTS_GBR
 66
1
 10
0.00
 20
0.00
 30
0.00
 40
0.20
 41
0.20
  0
VERTEX
  8
ME_EC_PLATE_V4-EDGE_CUTS_GBR
 10
257.74506
 20
-115.153332
 30
0.00
  0
VERTEX
  8
ME_EC_PLATE_V4-EDGE_CUTS_GBR
 10
256.74506
 20
-114.153332
 30
0.00
  0
SEQEND
  0
POLYLINE
  8
ME_EC_PLATE_V4-EDGE_CUTS_GBR
 66
1
 10
0.00
 20
0.00
 30
0.00
 40
0.20
 41
0.20
  0
VERTEX
  8
ME_EC_PLATE_V4-EDGE_CUTS_GBR
 10
270.44506
 20
-115.153332
 30
0.00
  0
VERTEX
  8
ME_EC_PLATE_V4-EDGE_CUTS_GBR
 10
257.74506
 20
-115.153332
 30
0.00
  0
SEQEND
  0
POLYLINE
  8
ME_EC_PLATE_V4-EDGE_CUTS_GBR
 66
1
 10
0.00
 20
0.00
 30
0.00
 40
0.20
 41
0.20
  0
VERTEX
  8
ME_EC_PLATE_V4-EDGE_CUTS_GBR
 10
271.44506
 20
-114.153332
 30
0.00
  0
VERTEX
  8
ME_EC_PLATE_V4-EDGE_CUTS_GBR
 10
270.44506
 20
-115.153332
 30
0.00
  0
SEQEND
  0
POLYLINE
  8
ME_EC_PLATE_V4-EDGE_CUTS_GBR
 66
1
 10
0.00
 20
0.00
 30
0.00
 40
0.20
 41
0.20
  0
VERTEX
  8
ME_EC_PLATE_V4-EDGE_CUTS_GBR
 10
271.44506
 20
-102.053332
 30
0.00
  0
VERTEX
  8
ME_EC_PLATE_V4-EDGE_CUTS_GBR
 10
271.44506
 20
-114.153332
 30
0.00
  0
SEQEND
  0
POLYLINE
  8
ME_EC_PLATE_V4-EDGE_CUTS_GBR
 66
1
 10
0.00
 20
0.00
 30
0.00
 40
0.20
 41
0.20
  0
VERTEX
  8
ME_EC_PLATE_V4-EDGE_CUTS_GBR
 10
270.44506
 20
-101.053332
 30
0.00
  0
VERTEX
  8
ME_EC_PLATE_V4-EDGE_CUTS_GBR
 10
271.44506
 20
-102.053332
 30
0.00
  0
SEQEND
  0
POLYLINE
  8
ME_EC_PLATE_V4-EDGE_CUTS_GBR
 66
1
 10
0.00
 20
0.00
 30
0.00
 40
0.20
 41
0.20
  0
VERTEX
  8
ME_EC_PLATE_V4-EDGE_CUTS_GBR
 10
257.74506
 20
-101.053332
 30
0.00
  0
VERTEX
  8
ME_EC_PLATE_V4-EDGE_CUTS_GBR
 10
270.44506
 20
-101.053332
 30
0.00
  0
SEQEND
  0
POLYLINE
  8
ME_EC_PLATE_V4-EDGE_CUTS_GBR
 66
1
 10
0.00
 20
0.00
 30
0.00
 40
0.20
 41
0.20
  0
VERTEX
  8
ME_EC_PLATE_V4-EDGE_CUTS_GBR
 10
237.72506
 20
-102.053332
 30
0.00
  0
VERTEX
  8
ME_EC_PLATE_V4-EDGE_CUTS_GBR
 10
238.72506
 20
-101.053332
 30
0.00
  0
SEQEND
  0
POLYLINE
  8
ME_EC_PLATE_V4-EDGE_CUTS_GBR
 66
1
 10
0.00
 20
0.00
 30
0.00
 40
0.20
 41
0.20
  0
VERTEX
  8
ME_EC_PLATE_V4-EDGE_CUTS_GBR
 10
237.72506
 20
-114.153332
 30
0.00
  0
VERTEX
  8
ME_EC_PLATE_V4-EDGE_CUTS_GBR
 10
237.72506
 20
-102.053332
 30
0.00
  0
SEQEND
  0
POLYLINE
  8
ME_EC_PLATE_V4-EDGE_CUTS_GBR
 66
1
 10
0.00
 20
0.00
 30
0.00
 40
0.20
 41
0.20
  0
VERTEX
  8
ME_EC_PLATE_V4-EDGE_CUTS_GBR
 10
238.72506
 20
-115.153332
 30
0.00
  0
VERTEX
  8
ME_EC_PLATE_V4-EDGE_CUTS_GBR
 10
237.72506
 20
-114.153332
 30
0.00
  0
SEQEND
  0
POLYLINE
  8
ME_EC_PLATE_V4-EDGE_CUTS_GBR
 66
1
 10
0.00
 20
0.00
 30
0.00
 40
0.20
 41
0.20
  0
VERTEX
  8
ME_EC_PLATE_V4-EDGE_CUTS_GBR
 10
251.42506
 20
-115.153332
 30
0.00
  0
VERTEX
  8
ME_EC_PLATE_V4-EDGE_CUTS_GBR
 10
238.72506
 20
-115.153332
 30
0.00
  0
SEQEND
  0
POLYLINE
  8
ME_EC_PLATE_V4-EDGE_CUTS_GBR
 66
1
 10
0.00
 20
0.00
 30
0.00
 40
0.20
 41
0.20
  0
VERTEX
  8
ME_EC_PLATE_V4-EDGE_CUTS_GBR
 10
252.42506
 20
-114.153332
 30
0.00
  0
VERTEX
  8
ME_EC_PLATE_V4-EDGE_CUTS_GBR
 10
251.42506
 20
-115.153332
 30
0.00
  0
SEQEND
  0
POLYLINE
  8
ME_EC_PLATE_V4-EDGE_CUTS_GBR
 66
1
 10
0.00
 20
0.00
 30
0.00
 40
0.20
 41
0.20
  0
VERTEX
  8
ME_EC_PLATE_V4-EDGE_CUTS_GBR
 10
252.42506
 20
-102.053332
 30
0.00
  0
VERTEX
  8
ME_EC_PLATE_V4-EDGE_CUTS_GBR
 10
252.42506
 20
-114.153332
 30
0.00
  0
SEQEND
  0
POLYLINE
  8
ME_EC_PLATE_V4-EDGE_CUTS_GBR
 66
1
 10
0.00
 20
0.00
 30
0.00
 40
0.20
 41
0.20
  0
VERTEX
  8
ME_EC_PLATE_V4-EDGE_CUTS_GBR
 10
251.42506
 20
-101.053332
 30
0.00
  0
VERTEX
  8
ME_EC_PLATE_V4-EDGE_CUTS_GBR
 10
252.42506
 20
-102.053332
 30
0.00
  0
SEQEND
  0
POLYLINE
  8
ME_EC_PLATE_V4-EDGE_CUTS_GBR
 66
1
 10
0.00
 20
0.00
 30
0.00
 40
0.20
 41
0.20
  0
VERTEX
  8
ME_EC_PLATE_V4-EDGE_CUTS_GBR
 10
238.72506
 20
-101.053332
 30
0.00
  0
VERTEX
  8
ME_EC_PLATE_V4-EDGE_CUTS_GBR
 10
251.42506
 20
-101.053332
 30
0.00
  0
SEQEND
  0
POLYLINE
  8
ME_EC_PLATE_V4-EDGE_CUTS_GBR
 66
1
 10
0.00
 20
0.00
 30
0.00
 40
0.20
 41
0.20
  0
VERTEX
  8
ME_EC_PLATE_V4-EDGE_CUTS_GBR
 10
218.70506
 20
-102.053332
 30
0.00
  0
VERTEX
  8
ME_EC_PLATE_V4-EDGE_CUTS_GBR
 10
219.70506
 20
-101.053332
 30
0.00
  0
SEQEND
  0
POLYLINE
  8
ME_EC_PLATE_V4-EDGE_CUTS_GBR
 66
1
 10
0.00
 20
0.00
 30
0.00
 40
0.20
 41
0.20
  0
VERTEX
  8
ME_EC_PLATE_V4-EDGE_CUTS_GBR
 10
218.70506
 20
-114.153332
 30
0.00
  0
VERTEX
  8
ME_EC_PLATE_V4-EDGE_CUTS_GBR
 10
218.70506
 20
-102.053332
 30
0.00
  0
SEQEND
  0
POLYLINE
  8
ME_EC_PLATE_V4-EDGE_CUTS_GBR
 66
1
 10
0.00
 20
0.00
 30
0.00
 40
0.20
 41
0.20
  0
VERTEX
  8
ME_EC_PLATE_V4-EDGE_CUTS_GBR
 10
219.70506
 20
-115.153332
 30
0.00
  0
VERTEX
  8
ME_EC_PLATE_V4-EDGE_CUTS_GBR
 10
218.70506
 20
-114.153332
 30
0.00
  0
SEQEND
  0
POLYLINE
  8
ME_EC_PLATE_V4-EDGE_CUTS_GBR
 66
1
 10
0.00
 20
0.00
 30
0.00
 40
0.20
 41
0.20
  0
VERTEX
  8
ME_EC_PLATE_V4-EDGE_CUTS_GBR
 10
232.40506
 20
-115.153332
 30
0.00
  0
VERTEX
  8
ME_EC_PLATE_V4-EDGE_CUTS_GBR
 10
219.70506
 20
-115.153332
 30
0.00
  0
SEQEND
  0
POLYLINE
  8
ME_EC_PLATE_V4-EDGE_CUTS_GBR
 66
1
 10
0.00
 20
0.00
 30
0.00
 40
0.20
 41
0.20
  0
VERTEX
  8
ME_EC_PLATE_V4-EDGE_CUTS_GBR
 10
233.40506
 20
-114.153332
 30
0.00
  0
VERTEX
  8
ME_EC_PLATE_V4-EDGE_CUTS_GBR
 10
232.40506
 20
-115.153332
 30
0.00
  0
SEQEND
  0
POLYLINE
  8
ME_EC_PLATE_V4-EDGE_CUTS_GBR
 66
1
 10
0.00
 20
0.00
 30
0.00
 40
0.20
 41
0.20
  0
VERTEX
  8
ME_EC_PLATE_V4-EDGE_CUTS_GBR
 10
233.40506
 20
-102.053332
 30
0.00
  0
VERTEX
  8
ME_EC_PLATE_V4-EDGE_CUTS_GBR
 10
233.40506
 20
-114.153332
 30
0.00
  0
SEQEND
  0
POLYLINE
  8
ME_EC_PLATE_V4-EDGE_CUTS_GBR
 66
1
 10
0.00
 20
0.00
 30
0.00
 40
0.20
 41
0.20
  0
VERTEX
  8
ME_EC_PLATE_V4-EDGE_CUTS_GBR
 10
232.40506
 20
-101.053332
 30
0.00
  0
VERTEX
  8
ME_EC_PLATE_V4-EDGE_CUTS_GBR
 10
233.40506
 20
-102.053332
 30
0.00
  0
SEQEND
  0
POLYLINE
  8
ME_EC_PLATE_V4-EDGE_CUTS_GBR
 66
1
 10
0.00
 20
0.00
 30
0.00
 40
0.20
 41
0.20
  0
VERTEX
  8
ME_EC_PLATE_V4-EDGE_CUTS_GBR
 10
219.70506
 20
-101.053332
 30
0.00
  0
VERTEX
  8
ME_EC_PLATE_V4-EDGE_CUTS_GBR
 10
232.40506
 20
-101.053332
 30
0.00
  0
SEQEND
  0
POLYLINE
  8
ME_EC_PLATE_V4-EDGE_CUTS_GBR
 66
1
 10
0.00
 20
0.00
 30
0.00
 40
0.20
 41
0.20
  0
VERTEX
  8
ME_EC_PLATE_V4-EDGE_CUTS_GBR
 10
228.05506
 20
-78.953332
 30
0.00
  0
VERTEX
  8
ME_EC_PLATE_V4-EDGE_CUTS_GBR
 10
229.05506
 20
-77.953332
 30
0.00
  0
SEQEND
  0
POLYLINE
  8
ME_EC_PLATE_V4-EDGE_CUTS_GBR
 66
1
 10
0.00
 20
0.00
 30
0.00
 40
0.20
 41
0.20
  0
VERTEX
  8
ME_EC_PLATE_V4-EDGE_CUTS_GBR
 10
228.05506
 20
-91.053332
 30
0.00
  0
VERTEX
  8
ME_EC_PLATE_V4-EDGE_CUTS_GBR
 10
228.05506
 20
-78.953332
 30
0.00
  0
SEQEND
  0
POLYLINE
  8
ME_EC_PLATE_V4-EDGE_CUTS_GBR
 66
1
 10
0.00
 20
0.00
 30
0.00
 40
0.20
 41
0.20
  0
VERTEX
  8
ME_EC_PLATE_V4-EDGE_CUTS_GBR
 10
229.05506
 20
-92.053332
 30
0.00
  0
VERTEX
  8
ME_EC_PLATE_V4-EDGE_CUTS_GBR
 10
228.05506
 20
-91.053332
 30
0.00
  0
SEQEND
  0
POLYLINE
  8
ME_EC_PLATE_V4-EDGE_CUTS_GBR
 66
1
 10
0.00
 20
0.00
 30
0.00
 40
0.20
 41
0.20
  0
VERTEX
  8
ME_EC_PLATE_V4-EDGE_CUTS_GBR
 10
241.75506
 20
-92.053332
 30
0.00
  0
VERTEX
  8
ME_EC_PLATE_V4-EDGE_CUTS_GBR
 10
229.05506
 20
-92.053332
 30
0.00
  0
SEQEND
  0
POLYLINE
  8
ME_EC_PLATE_V4-EDGE_CUTS_GBR
 66
1
 10
0.00
 20
0.00
 30
0.00
 40
0.20
 41
0.20
  0
VERTEX
  8
ME_EC_PLATE_V4-EDGE_CUTS_GBR
 10
242.75506
 20
-91.053332
 30
0.00
  0
VERTEX
  8
ME_EC_PLATE_V4-EDGE_CUTS_GBR
 10
241.75506
 20
-92.053332
 30
0.00
  0
SEQEND
  0
POLYLINE
  8
ME_EC_PLATE_V4-EDGE_CUTS_GBR
 66
1
 10
0.00
 20
0.00
 30
0.00
 40
0.20
 41
0.20
  0
VERTEX
  8
ME_EC_PLATE_V4-EDGE_CUTS_GBR
 10
242.75506
 20
-78.953332
 30
0.00
  0
VERTEX
  8
ME_EC_PLATE_V4-EDGE_CUTS_GBR
 10
242.75506
 20
-91.053332
 30
0.00
  0
SEQEND
  0
POLYLINE
  8
ME_EC_PLATE_V4-EDGE_CUTS_GBR
 66
1
 10
0.00
 20
0.00
 30
0.00
 40
0.20
 41
0.20
  0
VERTEX
  8
ME_EC_PLATE_V4-EDGE_CUTS_GBR
 10
241.75506
 20
-77.953332
 30
0.00
  0
VERTEX
  8
ME_EC_PLATE_V4-EDGE_CUTS_GBR
 10
242.75506
 20
-78.953332
 30
0.00
  0
SEQEND
  0
POLYLINE
  8
ME_EC_PLATE_V4-EDGE_CUTS_GBR
 66
1
 10
0.00
 20
0.00
 30
0.00
 40
0.20
 41
0.20
  0
VERTEX
  8
ME_EC_PLATE_V4-EDGE_CUTS_GBR
 10
229.05506
 20
-77.953332
 30
0.00
  0
VERTEX
  8
ME_EC_PLATE_V4-EDGE_CUTS_GBR
 10
241.75506
 20
-77.953332
 30
0.00
  0
SEQEND
  0
POLYLINE
  8
ME_EC_PLATE_V4-EDGE_CUTS_GBR
 66
1
 10
0.00
 20
0.00
 30
0.00
 40
0.20
 41
0.20
  0
VERTEX
  8
ME_EC_PLATE_V4-EDGE_CUTS_GBR
 10
209.03506
 20
-78.953332
 30
0.00
  0
VERTEX
  8
ME_EC_PLATE_V4-EDGE_CUTS_GBR
 10
210.03506
 20
-77.953332
 30
0.00
  0
SEQEND
  0
POLYLINE
  8
ME_EC_PLATE_V4-EDGE_CUTS_GBR
 66
1
 10
0.00
 20
0.00
 30
0.00
 40
0.20
 41
0.20
  0
VERTEX
  8
ME_EC_PLATE_V4-EDGE_CUTS_GBR
 10
209.03506
 20
-91.053332
 30
0.00
  0
VERTEX
  8
ME_EC_PLATE_V4-EDGE_CUTS_GBR
 10
209.03506
 20
-78.953332
 30
0.00
  0
SEQEND
  0
POLYLINE
  8
ME_EC_PLATE_V4-EDGE_CUTS_GBR
 66
1
 10
0.00
 20
0.00
 30
0.00
 40
0.20
 41
0.20
  0
VERTEX
  8
ME_EC_PLATE_V4-EDGE_CUTS_GBR
 10
210.03506
 20
-92.053332
 30
0.00
  0
VERTEX
  8
ME_EC_PLATE_V4-EDGE_CUTS_GBR
 10
209.03506
 20
-91.053332
 30
0.00
  0
SEQEND
  0
POLYLINE
  8
ME_EC_PLATE_V4-EDGE_CUTS_GBR
 66
1
 10
0.00
 20
0.00
 30
0.00
 40
0.20
 41
0.20
  0
VERTEX
  8
ME_EC_PLATE_V4-EDGE_CUTS_GBR
 10
222.73506
 20
-92.053332
 30
0.00
  0
VERTEX
  8
ME_EC_PLATE_V4-EDGE_CUTS_GBR
 10
210.03506
 20
-92.053332
 30
0.00
  0
SEQEND
  0
POLYLINE
  8
ME_EC_PLATE_V4-EDGE_CUTS_GBR
 66
1
 10
0.00
 20
0.00
 30
0.00
 40
0.20
 41
0.20
  0
VERTEX
  8
ME_EC_PLATE_V4-EDGE_CUTS_GBR
 10
223.73506
 20
-91.053332
 30
0.00
  0
VERTEX
  8
ME_EC_PLATE_V4-EDGE_CUTS_GBR
 10
222.73506
 20
-92.053332
 30
0.00
  0
SEQEND
  0
POLYLINE
  8
ME_EC_PLATE_V4-EDGE_CUTS_GBR
 66
1
 10
0.00
 20
0.00
 30
0.00
 40
0.20
 41
0.20
  0
VERTEX
  8
ME_EC_PLATE_V4-EDGE_CUTS_GBR
 10
223.73506
 20
-78.953332
 30
0.00
  0
VERTEX
  8
ME_EC_PLATE_V4-EDGE_CUTS_GBR
 10
223.73506
 20
-91.053332
 30
0.00
  0
SEQEND
  0
POLYLINE
  8
ME_EC_PLATE_V4-EDGE_CUTS_GBR
 66
1
 10
0.00
 20
0.00
 30
0.00
 40
0.20
 41
0.20
  0
VERTEX
  8
ME_EC_PLATE_V4-EDGE_CUTS_GBR
 10
222.73506
 20
-77.953332
 30
0.00
  0
VERTEX
  8
ME_EC_PLATE_V4-EDGE_CUTS_GBR
 10
223.73506
 20
-78.953332
 30
0.00
  0
SEQEND
  0
POLYLINE
  8
ME_EC_PLATE_V4-EDGE_CUTS_GBR
 66
1
 10
0.00
 20
0.00
 30
0.00
 40
0.20
 41
0.20
  0
VERTEX
  8
ME_EC_PLATE_V4-EDGE_CUTS_GBR
 10
210.03506
 20
-77.953332
 30
0.00
  0
VERTEX
  8
ME_EC_PLATE_V4-EDGE_CUTS_GBR
 10
222.73506
 20
-77.953332
 30
0.00
  0
SEQEND
  0
POLYLINE
  8
ME_EC_PLATE_V4-EDGE_CUTS_GBR
 66
1
 10
0.00
 20
0.00
 30
0.00
 40
0.20
 41
0.20
  0
VERTEX
  8
ME_EC_PLATE_V4-EDGE_CUTS_GBR
 10
190.01506
 20
-78.953332
 30
0.00
  0
VERTEX
  8
ME_EC_PLATE_V4-EDGE_CUTS_GBR
 10
191.01506
 20
-77.953332
 30
0.00
  0
SEQEND
  0
POLYLINE
  8
ME_EC_PLATE_V4-EDGE_CUTS_GBR
 66
1
 10
0.00
 20
0.00
 30
0.00
 40
0.20
 41
0.20
  0
VERTEX
  8
ME_EC_PLATE_V4-EDGE_CUTS_GBR
 10
190.01506
 20
-91.053332
 30
0.00
  0
VERTEX
  8
ME_EC_PLATE_V4-EDGE_CUTS_GBR
 10
190.01506
 20
-78.953332
 30
0.00
  0
SEQEND
  0
POLYLINE
  8
ME_EC_PLATE_V4-EDGE_CUTS_GBR
 66
1
 10
0.00
 20
0.00
 30
0.00
 40
0.20
 41
0.20
  0
VERTEX
  8
ME_EC_PLATE_V4-EDGE_CUTS_GBR
 10
191.01506
 20
-92.053332
 30
0.00
  0
VERTEX
  8
ME_EC_PLATE_V4-EDGE_CUTS_GBR
 10
190.01506
 20
-91.053332
 30
0.00
  0
SEQEND
  0
POLYLINE
  8
ME_EC_PLATE_V4-EDGE_CUTS_GBR
 66
1
 10
0.00
 20
0.00
 30
0.00
 40
0.20
 41
0.20
  0
VERTEX
  8
ME_EC_PLATE_V4-EDGE_CUTS_GBR
 10
203.71506
 20
-92.053332
 30
0.00
  0
VERTEX
  8
ME_EC_PLATE_V4-EDGE_CUTS_GBR
 10
191.01506
 20
-92.053332
 30
0.00
  0
SEQEND
  0
POLYLINE
  8
ME_EC_PLATE_V4-EDGE_CUTS_GBR
 66
1
 10
0.00
 20
0.00
 30
0.00
 40
0.20
 41
0.20
  0
VERTEX
  8
ME_EC_PLATE_V4-EDGE_CUTS_GBR
 10
204.71506
 20
-91.053332
 30
0.00
  0
VERTEX
  8
ME_EC_PLATE_V4-EDGE_CUTS_GBR
 10
203.71506
 20
-92.053332
 30
0.00
  0
SEQEND
  0
POLYLINE
  8
ME_EC_PLATE_V4-EDGE_CUTS_GBR
 66
1
 10
0.00
 20
0.00
 30
0.00
 40
0.20
 41
0.20
  0
VERTEX
  8
ME_EC_PLATE_V4-EDGE_CUTS_GBR
 10
204.71506
 20
-78.953332
 30
0.00
  0
VERTEX
  8
ME_EC_PLATE_V4-EDGE_CUTS_GBR
 10
204.71506
 20
-91.053332
 30
0.00
  0
SEQEND
  0
POLYLINE
  8
ME_EC_PLATE_V4-EDGE_CUTS_GBR
 66
1
 10
0.00
 20
0.00
 30
0.00
 40
0.20
 41
0.20
  0
VERTEX
  8
ME_EC_PLATE_V4-EDGE_CUTS_GBR
 10
203.71506
 20
-77.953332
 30
0.00
  0
VERTEX
  8
ME_EC_PLATE_V4-EDGE_CUTS_GBR
 10
204.71506
 20
-78.953332
 30
0.00
  0
SEQEND
  0
POLYLINE
  8
ME_EC_PLATE_V4-EDGE_CUTS_GBR
 66
1
 10
0.00
 20
0.00
 30
0.00
 40
0.20
 41
0.20
  0
VERTEX
  8
ME_EC_PLATE_V4-EDGE_CUTS_GBR
 10
191.01506
 20
-77.953332
 30
0.00
  0
VERTEX
  8
ME_EC_PLATE_V4-EDGE_CUTS_GBR
 10
203.71506
 20
-77.953332
 30
0.00
  0
SEQEND
  0
POLYLINE
  8
ME_EC_PLATE_V4-EDGE_CUTS_GBR
 66
1
 10
0.00
 20
0.00
 30
0.00
 40
0.20
 41
0.20
  0
VERTEX
  8
ME_EC_PLATE_V4-EDGE_CUTS_GBR
 10
170.99506
 20
-78.953332
 30
0.00
  0
VERTEX
  8
ME_EC_PLATE_V4-EDGE_CUTS_GBR
 10
171.99506
 20
-77.953332
 30
0.00
  0
SEQEND
  0
POLYLINE
  8
ME_EC_PLATE_V4-EDGE_CUTS_GBR
 66
1
 10
0.00
 20
0.00
 30
0.00
 40
0.20
 41
0.20
  0
VERTEX
  8
ME_EC_PLATE_V4-EDGE_CUTS_GBR
 10
170.99506
 20
-91.053332
 30
0.00
  0
VERTEX
  8
ME_EC_PLATE_V4-EDGE_CUTS_GBR
 10
170.99506
 20
-78.953332
 30
0.00
  0
SEQEND
  0
POLYLINE
  8
ME_EC_PLATE_V4-EDGE_CUTS_GBR
 66
1
 10
0.00
 20
0.00
 30
0.00
 40
0.20
 41
0.20
  0
VERTEX
  8
ME_EC_PLATE_V4-EDGE_CUTS_GBR
 10
171.99506
 20
-92.053332
 30
0.00
  0
VERTEX
  8
ME_EC_PLATE_V4-EDGE_CUTS_GBR
 10
170.99506
 20
-91.053332
 30
0.00
  0
SEQEND
  0
POLYLINE
  8
ME_EC_PLATE_V4-EDGE_CUTS_GBR
 66
1
 10
0.00
 20
0.00
 30
0.00
 40
0.20
 41
0.20
  0
VERTEX
  8
ME_EC_PLATE_V4-EDGE_CUTS_GBR
 10
184.69506
 20
-92.053332
 30
0.00
  0
VERTEX
  8
ME_EC_PLATE_V4-EDGE_CUTS_GBR
 10
171.99506
 20
-92.053332
 30
0.00
  0
SEQEND
  0
POLYLINE
  8
ME_EC_PLATE_V4-EDGE_CUTS_GBR
 66
1
 10
0.00
 20
0.00
 30
0.00
 40
0.20
 41
0.20
  0
VERTEX
  8
ME_EC_PLATE_V4-EDGE_CUTS_GBR
 10
185.69506
 20
-91.053332
 30
0.00
  0
VERTEX
  8
ME_EC_PLATE_V4-EDGE_CUTS_GBR
 10
184.69506
 20
-92.053332
 30
0.00
  0
SEQEND
  0
POLYLINE
  8
ME_EC_PLATE_V4-EDGE_CUTS_GBR
 66
1
 10
0.00
 20
0.00
 30
0.00
 40
0.20
 41
0.20
  0
VERTEX
  8
ME_EC_PLATE_V4-EDGE_CUTS_GBR
 10
185.69506
 20
-78.953332
 30
0.00
  0
VERTEX
  8
ME_EC_PLATE_V4-EDGE_CUTS_GBR
 10
185.69506
 20
-91.053332
 30
0.00
  0
SEQEND
  0
POLYLINE
  8
ME_EC_PLATE_V4-EDGE_CUTS_GBR
 66
1
 10
0.00
 20
0.00
 30
0.00
 40
0.20
 41
0.20
  0
VERTEX
  8
ME_EC_PLATE_V4-EDGE_CUTS_GBR
 10
184.69506
 20
-77.953332
 30
0.00
  0
VERTEX
  8
ME_EC_PLATE_V4-EDGE_CUTS_GBR
 10
185.69506
 20
-78.953332
 30
0.00
  0
SEQEND
  0
POLYLINE
  8
ME_EC_PLATE_V4-EDGE_CUTS_GBR
 66
1
 10
0.00
 20
0.00
 30
0.00
 40
0.20
 41
0.20
  0
VERTEX
  8
ME_EC_PLATE_V4-EDGE_CUTS_GBR
 10
171.99506
 20
-77.953332
 30
0.00
  0
VERTEX
  8
ME_EC_PLATE_V4-EDGE_CUTS_GBR
 10
184.69506
 20
-77.953332
 30
0.00
  0
SEQEND
  0
POLYLINE
  8
ME_EC_PLATE_V4-EDGE_CUTS_GBR
 66
1
 10
0.00
 20
0.00
 30
0.00
 40
0.20
 41
0.20
  0
VERTEX
  8
ME_EC_PLATE_V4-EDGE_CUTS_GBR
 10
142.55506
 20
-78.953332
 30
0.00
  0
VERTEX
  8
ME_EC_PLATE_V4-EDGE_CUTS_GBR
 10
143.55506
 20
-77.953332
 30
0.00
  0
SEQEND
  0
POLYLINE
  8
ME_EC_PLATE_V4-EDGE_CUTS_GBR
 66
1
 10
0.00
 20
0.00
 30
0.00
 40
0.20
 41
0.20
  0
VERTEX
  8
ME_EC_PLATE_V4-EDGE_CUTS_GBR
 10
142.55506
 20
-91.053332
 30
0.00
  0
VERTEX
  8
ME_EC_PLATE_V4-EDGE_CUTS_GBR
 10
142.55506
 20
-78.953332
 30
0.00
  0
SEQEND
  0
POLYLINE
  8
ME_EC_PLATE_V4-EDGE_CUTS_GBR
 66
1
 10
0.00
 20
0.00
 30
0.00
 40
0.20
 41
0.20
  0
VERTEX
  8
ME_EC_PLATE_V4-EDGE_CUTS_GBR
 10
143.55506
 20
-92.053332
 30
0.00
  0
VERTEX
  8
ME_EC_PLATE_V4-EDGE_CUTS_GBR
 10
142.55506
 20
-91.053332
 30
0.00
  0
SEQEND
  0
POLYLINE
  8
ME_EC_PLATE_V4-EDGE_CUTS_GBR
 66
1
 10
0.00
 20
0.00
 30
0.00
 40
0.20
 41
0.20
  0
VERTEX
  8
ME_EC_PLATE_V4-EDGE_CUTS_GBR
 10
156.25506
 20
-92.053332
 30
0.00
  0
VERTEX
  8
ME_EC_PLATE_V4-EDGE_CUTS_GBR
 10
143.55506
 20
-92.053332
 30
0.00
  0
SEQEND
  0
POLYLINE
  8
ME_EC_PLATE_V4-EDGE_CUTS_GBR
 66
1
 10
0.00
 20
0.00
 30
0.00
 40
0.20
 41
0.20
  0
VERTEX
  8
ME_EC_PLATE_V4-EDGE_CUTS_GBR
 10
157.25506
 20
-91.053332
 30
0.00
  0
VERTEX
  8
ME_EC_PLATE_V4-EDGE_CUTS_GBR
 10
156.25506
 20
-92.053332
 30
0.00
  0
SEQEND
  0
POLYLINE
  8
ME_EC_PLATE_V4-EDGE_CUTS_GBR
 66
1
 10
0.00
 20
0.00
 30
0.00
 40
0.20
 41
0.20
  0
VERTEX
  8
ME_EC_PLATE_V4-EDGE_CUTS_GBR
 10
157.25506
 20
-78.953332
 30
0.00
  0
VERTEX
  8
ME_EC_PLATE_V4-EDGE_CUTS_GBR
 10
157.25506
 20
-91.053332
 30
0.00
  0
SEQEND
  0
POLYLINE
  8
ME_EC_PLATE_V4-EDGE_CUTS_GBR
 66
1
 10
0.00
 20
0.00
 30
0.00
 40
0.20
 41
0.20
  0
VERTEX
  8
ME_EC_PLATE_V4-EDGE_CUTS_GBR
 10
156.25506
 20
-77.953332
 30
0.00
  0
VERTEX
  8
ME_EC_PLATE_V4-EDGE_CUTS_GBR
 10
157.25506
 20
-78.953332
 30
0.00
  0
SEQEND
  0
POLYLINE
  8
ME_EC_PLATE_V4-EDGE_CUTS_GBR
 66
1
 10
0.00
 20
0.00
 30
0.00
 40
0.20
 41
0.20
  0
VERTEX
  8
ME_EC_PLATE_V4-EDGE_CUTS_GBR
 10
143.55506
 20
-77.953332
 30
0.00
  0
VERTEX
  8
ME_EC_PLATE_V4-EDGE_CUTS_GBR
 10
156.25506
 20
-77.953332
 30
0.00
  0
SEQEND
  0
POLYLINE
  8
ME_EC_PLATE_V4-EDGE_CUTS_GBR
 66
1
 10
0.00
 20
0.00
 30
0.00
 40
0.20
 41
0.20
  0
VERTEX
  8
ME_EC_PLATE_V4-EDGE_CUTS_GBR
 10
123.53506
 20
-78.953332
 30
0.00
  0
VERTEX
  8
ME_EC_PLATE_V4-EDGE_CUTS_GBR
 10
124.53506
 20
-77.953332
 30
0.00
  0
SEQEND
  0
POLYLINE
  8
ME_EC_PLATE_V4-EDGE_CUTS_GBR
 66
1
 10
0.00
 20
0.00
 30
0.00
 40
0.20
 41
0.20
  0
VERTEX
  8
ME_EC_PLATE_V4-EDGE_CUTS_GBR
 10
123.53506
 20
-91.053332
 30
0.00
  0
VERTEX
  8
ME_EC_PLATE_V4-EDGE_CUTS_GBR
 10
123.53506
 20
-78.953332
 30
0.00
  0
SEQEND
  0
POLYLINE
  8
ME_EC_PLATE_V4-EDGE_CUTS_GBR
 66
1
 10
0.00
 20
0.00
 30
0.00
 40
0.20
 41
0.20
  0
VERTEX
  8
ME_EC_PLATE_V4-EDGE_CUTS_GBR
 10
124.53506
 20
-92.053332
 30
0.00
  0
VERTEX
  8
ME_EC_PLATE_V4-EDGE_CUTS_GBR
 10
123.53506
 20
-91.053332
 30
0.00
  0
SEQEND
  0
POLYLINE
  8
ME_EC_PLATE_V4-EDGE_CUTS_GBR
 66
1
 10
0.00
 20
0.00
 30
0.00
 40
0.20
 41
0.20
  0
VERTEX
  8
ME_EC_PLATE_V4-EDGE_CUTS_GBR
 10
137.23506
 20
-92.053332
 30
0.00
  0
VERTEX
  8
ME_EC_PLATE_V4-EDGE_CUTS_GBR
 10
124.53506
 20
-92.053332
 30
0.00
  0
SEQEND
  0
POLYLINE
  8
ME_EC_PLATE_V4-EDGE_CUTS_GBR
 66
1
 10
0.00
 20
0.00
 30
0.00
 40
0.20
 41
0.20
  0
VERTEX
  8
ME_EC_PLATE_V4-EDGE_CUTS_GBR
 10
138.23506
 20
-91.053332
 30
0.00
  0
VERTEX
  8
ME_EC_PLATE_V4-EDGE_CUTS_GBR
 10
137.23506
 20
-92.053332
 30
0.00
  0
SEQEND
  0
POLYLINE
  8
ME_EC_PLATE_V4-EDGE_CUTS_GBR
 66
1
 10
0.00
 20
0.00
 30
0.00
 40
0.20
 41
0.20
  0
VERTEX
  8
ME_EC_PLATE_V4-EDGE_CUTS_GBR
 10
138.23506
 20
-78.953332
 30
0.00
  0
VERTEX
  8
ME_EC_PLATE_V4-EDGE_CUTS_GBR
 10
138.23506
 20
-91.053332
 30
0.00
  0
SEQEND
  0
POLYLINE
  8
ME_EC_PLATE_V4-EDGE_CUTS_GBR
 66
1
 10
0.00
 20
0.00
 30
0.00
 40
0.20
 41
0.20
  0
VERTEX
  8
ME_EC_PLATE_V4-EDGE_CUTS_GBR
 10
137.23506
 20
-77.953332
 30
0.00
  0
VERTEX
  8
ME_EC_PLATE_V4-EDGE_CUTS_GBR
 10
138.23506
 20
-78.953332
 30
0.00
  0
SEQEND
  0
POLYLINE
  8
ME_EC_PLATE_V4-EDGE_CUTS_GBR
 66
1
 10
0.00
 20
0.00
 30
0.00
 40
0.20
 41
0.20
  0
VERTEX
  8
ME_EC_PLATE_V4-EDGE_CUTS_GBR
 10
124.53506
 20
-77.953332
 30
0.00
  0
VERTEX
  8
ME_EC_PLATE_V4-EDGE_CUTS_GBR
 10
137.23506
 20
-77.953332
 30
0.00
  0
SEQEND
  0
POLYLINE
  8
ME_EC_PLATE_V4-EDGE_CUTS_GBR
 66
1
 10
0.00
 20
0.00
 30
0.00
 40
0.20
 41
0.20
  0
VERTEX
  8
ME_EC_PLATE_V4-EDGE_CUTS_GBR
 10
104.51506
 20
-78.953332
 30
0.00
  0
VERTEX
  8
ME_EC_PLATE_V4-EDGE_CUTS_GBR
 10
105.51506
 20
-77.953332
 30
0.00
  0
SEQEND
  0
POLYLINE
  8
ME_EC_PLATE_V4-EDGE_CUTS_GBR
 66
1
 10
0.00
 20
0.00
 30
0.00
 40
0.20
 41
0.20
  0
VERTEX
  8
ME_EC_PLATE_V4-EDGE_CUTS_GBR
 10
104.51506
 20
-91.053332
 30
0.00
  0
VERTEX
  8
ME_EC_PLATE_V4-EDGE_CUTS_GBR
 10
104.51506
 20
-78.953332
 30
0.00
  0
SEQEND
  0
POLYLINE
  8
ME_EC_PLATE_V4-EDGE_CUTS_GBR
 66
1
 10
0.00
 20
0.00
 30
0.00
 40
0.20
 41
0.20
  0
VERTEX
  8
ME_EC_PLATE_V4-EDGE_CUTS_GBR
 10
105.51506
 20
-92.053332
 30
0.00
  0
VERTEX
  8
ME_EC_PLATE_V4-EDGE_CUTS_GBR
 10
104.51506
 20
-91.053332
 30
0.00
  0
SEQEND
  0
POLYLINE
  8
ME_EC_PLATE_V4-EDGE_CUTS_GBR
 66
1
 10
0.00
 20
0.00
 30
0.00
 40
0.20
 41
0.20
  0
VERTEX
  8
ME_EC_PLATE_V4-EDGE_CUTS_GBR
 10
118.21506
 20
-92.053332
 30
0.00
  0
VERTEX
  8
ME_EC_PLATE_V4-EDGE_CUTS_GBR
 10
105.51506
 20
-92.053332
 30
0.00
  0
SEQEND
  0
POLYLINE
  8
ME_EC_PLATE_V4-EDGE_CUTS_GBR
 66
1
 10
0.00
 20
0.00
 30
0.00
 40
0.20
 41
0.20
  0
VERTEX
  8
ME_EC_PLATE_V4-EDGE_CUTS_GBR
 10
119.21506
 20
-91.053332
 30
0.00
  0
VERTEX
  8
ME_EC_PLATE_V4-EDGE_CUTS_GBR
 10
118.21506
 20
-92.053332
 30
0.00
  0
SEQEND
  0
POLYLINE
  8
ME_EC_PLATE_V4-EDGE_CUTS_GBR
 66
1
 10
0.00
 20
0.00
 30
0.00
 40
0.20
 41
0.20
  0
VERTEX
  8
ME_EC_PLATE_V4-EDGE_CUTS_GBR
 10
119.21506
 20
-78.953332
 30
0.00
  0
VERTEX
  8
ME_EC_PLATE_V4-EDGE_CUTS_GBR
 10
119.21506
 20
-91.053332
 30
0.00
  0
SEQEND
  0
POLYLINE
  8
ME_EC_PLATE_V4-EDGE_CUTS_GBR
 66
1
 10
0.00
 20
0.00
 30
0.00
 40
0.20
 41
0.20
  0
VERTEX
  8
ME_EC_PLATE_V4-EDGE_CUTS_GBR
 10
118.21506
 20
-77.953332
 30
0.00
  0
VERTEX
  8
ME_EC_PLATE_V4-EDGE_CUTS_GBR
 10
119.21506
 20
-78.953332
 30
0.00
  0
SEQEND
  0
POLYLINE
  8
ME_EC_PLATE_V4-EDGE_CUTS_GBR
 66
1
 10
0.00
 20
0.00
 30
0.00
 40
0.20
 41
0.20
  0
VERTEX
  8
ME_EC_PLATE_V4-EDGE_CUTS_GBR
 10
105.51506
 20
-77.953332
 30
0.00
  0
VERTEX
  8
ME_EC_PLATE_V4-EDGE_CUTS_GBR
 10
118.21506
 20
-77.953332
 30
0.00
  0
SEQEND
  0
POLYLINE
  8
ME_EC_PLATE_V4-EDGE_CUTS_GBR
 66
1
 10
0.00
 20
0.00
 30
0.00
 40
0.20
 41
0.20
  0
VERTEX
  8
ME_EC_PLATE_V4-EDGE_CUTS_GBR
 10
85.49506
 20
-78.953332
 30
0.00
  0
VERTEX
  8
ME_EC_PLATE_V4-EDGE_CUTS_GBR
 10
86.49506
 20
-77.953332
 30
0.00
  0
SEQEND
  0
POLYLINE
  8
ME_EC_PLATE_V4-EDGE_CUTS_GBR
 66
1
 10
0.00
 20
0.00
 30
0.00
 40
0.20
 41
0.20
  0
VERTEX
  8
ME_EC_PLATE_V4-EDGE_CUTS_GBR
 10
85.49506
 20
-91.053332
 30
0.00
  0
VERTEX
  8
ME_EC_PLATE_V4-EDGE_CUTS_GBR
 10
85.49506
 20
-78.953332
 30
0.00
  0
SEQEND
  0
POLYLINE
  8
ME_EC_PLATE_V4-EDGE_CUTS_GBR
 66
1
 10
0.00
 20
0.00
 30
0.00
 40
0.20
 41
0.20
  0
VERTEX
  8
ME_EC_PLATE_V4-EDGE_CUTS_GBR
 10
86.49506
 20
-92.053332
 30
0.00
  0
VERTEX
  8
ME_EC_PLATE_V4-EDGE_CUTS_GBR
 10
85.49506
 20
-91.053332
 30
0.00
  0
SEQEND
  0
POLYLINE
  8
ME_EC_PLATE_V4-EDGE_CUTS_GBR
 66
1
 10
0.00
 20
0.00
 30
0.00
 40
0.20
 41
0.20
  0
VERTEX
  8
ME_EC_PLATE_V4-EDGE_CUTS_GBR
 10
99.19506
 20
-92.053332
 30
0.00
  0
VERTEX
  8
ME_EC_PLATE_V4-EDGE_CUTS_GBR
 10
86.49506
 20
-92.053332
 30
0.00
  0
SEQEND
  0
POLYLINE
  8
ME_EC_PLATE_V4-EDGE_CUTS_GBR
 66
1
 10
0.00
 20
0.00
 30
0.00
 40
0.20
 41
0.20
  0
VERTEX
  8
ME_EC_PLATE_V4-EDGE_CUTS_GBR
 10
100.19506
 20
-91.053332
 30
0.00
  0
VERTEX
  8
ME_EC_PLATE_V4-EDGE_CUTS_GBR
 10
99.19506
 20
-92.053332
 30
0.00
  0
SEQEND
  0
POLYLINE
  8
ME_EC_PLATE_V4-EDGE_CUTS_GBR
 66
1
 10
0.00
 20
0.00
 30
0.00
 40
0.20
 41
0.20
  0
VERTEX
  8
ME_EC_PLATE_V4-EDGE_CUTS_GBR
 10
100.19506
 20
-78.953332
 30
0.00
  0
VERTEX
  8
ME_EC_PLATE_V4-EDGE_CUTS_GBR
 10
100.19506
 20
-91.053332
 30
0.00
  0
SEQEND
  0
POLYLINE
  8
ME_EC_PLATE_V4-EDGE_CUTS_GBR
 66
1
 10
0.00
 20
0.00
 30
0.00
 40
0.20
 41
0.20
  0
VERTEX
  8
ME_EC_PLATE_V4-EDGE_CUTS_GBR
 10
99.19506
 20
-77.953332
 30
0.00
  0
VERTEX
  8
ME_EC_PLATE_V4-EDGE_CUTS_GBR
 10
100.19506
 20
-78.953332
 30
0.00
  0
SEQEND
  0
POLYLINE
  8
ME_EC_PLATE_V4-EDGE_CUTS_GBR
 66
1
 10
0.00
 20
0.00
 30
0.00
 40
0.20
 41
0.20
  0
VERTEX
  8
ME_EC_PLATE_V4-EDGE_CUTS_GBR
 10
86.49506
 20
-77.953332
 30
0.00
  0
VERTEX
  8
ME_EC_PLATE_V4-EDGE_CUTS_GBR
 10
99.19506
 20
-77.953332
 30
0.00
  0
SEQEND
  0
POLYLINE
  8
ME_EC_PLATE_V4-EDGE_CUTS_GBR
 66
1
 10
0.00
 20
0.00
 30
0.00
 40
0.20
 41
0.20
  0
VERTEX
  8
ME_EC_PLATE_V4-EDGE_CUTS_GBR
 10
47.52506
 20
-78.953332
 30
0.00
  0
VERTEX
  8
ME_EC_PLATE_V4-EDGE_CUTS_GBR
 10
48.52506
 20
-77.953332
 30
0.00
  0
SEQEND
  0
POLYLINE
  8
ME_EC_PLATE_V4-EDGE_CUTS_GBR
 66
1
 10
0.00
 20
0.00
 30
0.00
 40
0.20
 41
0.20
  0
VERTEX
  8
ME_EC_PLATE_V4-EDGE_CUTS_GBR
 10
47.52506
 20
-91.053332
 30
0.00
  0
VERTEX
  8
ME_EC_PLATE_V4-EDGE_CUTS_GBR
 10
47.52506
 20
-78.953332
 30
0.00
  0
SEQEND
  0
POLYLINE
  8
ME_EC_PLATE_V4-EDGE_CUTS_GBR
 66
1
 10
0.00
 20
0.00
 30
0.00
 40
0.20
 41
0.20
  0
VERTEX
  8
ME_EC_PLATE_V4-EDGE_CUTS_GBR
 10
48.52506
 20
-92.053332
 30
0.00
  0
VERTEX
  8
ME_EC_PLATE_V4-EDGE_CUTS_GBR
 10
47.52506
 20
-91.053332
 30
0.00
  0
SEQEND
  0
POLYLINE
  8
ME_EC_PLATE_V4-EDGE_CUTS_GBR
 66
1
 10
0.00
 20
0.00
 30
0.00
 40
0.20
 41
0.20
  0
VERTEX
  8
ME_EC_PLATE_V4-EDGE_CUTS_GBR
 10
61.22506
 20
-92.053332
 30
0.00
  0
VERTEX
  8
ME_EC_PLATE_V4-EDGE_CUTS_GBR
 10
48.52506
 20
-92.053332
 30
0.00
  0
SEQEND
  0
POLYLINE
  8
ME_EC_PLATE_V4-EDGE_CUTS_GBR
 66
1
 10
0.00
 20
0.00
 30
0.00
 40
0.20
 41
0.20
  0
VERTEX
  8
ME_EC_PLATE_V4-EDGE_CUTS_GBR
 10
62.22506
 20
-91.053332
 30
0.00
  0
VERTEX
  8
ME_EC_PLATE_V4-EDGE_CUTS_GBR
 10
61.22506
 20
-92.053332
 30
0.00
  0
SEQEND
  0
POLYLINE
  8
ME_EC_PLATE_V4-EDGE_CUTS_GBR
 66
1
 10
0.00
 20
0.00
 30
0.00
 40
0.20
 41
0.20
  0
VERTEX
  8
ME_EC_PLATE_V4-EDGE_CUTS_GBR
 10
62.22506
 20
-78.953332
 30
0.00
  0
VERTEX
  8
ME_EC_PLATE_V4-EDGE_CUTS_GBR
 10
62.22506
 20
-91.053332
 30
0.00
  0
SEQEND
  0
POLYLINE
  8
ME_EC_PLATE_V4-EDGE_CUTS_GBR
 66
1
 10
0.00
 20
0.00
 30
0.00
 40
0.20
 41
0.20
  0
VERTEX
  8
ME_EC_PLATE_V4-EDGE_CUTS_GBR
 10
61.22506
 20
-77.953332
 30
0.00
  0
VERTEX
  8
ME_EC_PLATE_V4-EDGE_CUTS_GBR
 10
62.22506
 20
-78.953332
 30
0.00
  0
SEQEND
  0
POLYLINE
  8
ME_EC_PLATE_V4-EDGE_CUTS_GBR
 66
1
 10
0.00
 20
0.00
 30
0.00
 40
0.20
 41
0.20
  0
VERTEX
  8
ME_EC_PLATE_V4-EDGE_CUTS_GBR
 10
48.52506
 20
-77.953332
 30
0.00
  0
VERTEX
  8
ME_EC_PLATE_V4-EDGE_CUTS_GBR
 10
61.22506
 20
-77.953332
 30
0.00
  0
SEQEND
  0
POLYLINE
  8
ME_EC_PLATE_V4-EDGE_CUTS_GBR
 66
1
 10
0.00
 20
0.00
 30
0.00
 40
0.20
 41
0.20
  0
VERTEX
  8
ME_EC_PLATE_V4-EDGE_CUTS_GBR
 10
99.568596
 20
-178.123332
 30
0.00
  0
VERTEX
  8
ME_EC_PLATE_V4-EDGE_CUTS_GBR
 10
100.568596
 20
-177.123332
 30
0.00
  0
SEQEND
  0
POLYLINE
  8
ME_EC_PLATE_V4-EDGE_CUTS_GBR
 66
1
 10
0.00
 20
0.00
 30
0.00
 40
0.20
 41
0.20
  0
VERTEX
  8
ME_EC_PLATE_V4-EDGE_CUTS_GBR
 10
99.568596
 20
-190.223332
 30
0.00
  0
VERTEX
  8
ME_EC_PLATE_V4-EDGE_CUTS_GBR
 10
99.568596
 20
-178.123332
 30
0.00
  0
SEQEND
  0
POLYLINE
  8
ME_EC_PLATE_V4-EDGE_CUTS_GBR
 66
1
 10
0.00
 20
0.00
 30
0.00
 40
0.20
 41
0.20
  0
VERTEX
  8
ME_EC_PLATE_V4-EDGE_CUTS_GBR
 10
100.568596
 20
-191.223332
 30
0.00
  0
VERTEX
  8
ME_EC_PLATE_V4-EDGE_CUTS_GBR
 10
99.568596
 20
-190.223332
 30
0.00
  0
SEQEND
  0
POLYLINE
  8
ME_EC_PLATE_V4-EDGE_CUTS_GBR
 66
1
 10
0.00
 20
0.00
 30
0.00
 40
0.20
 41
0.20
  0
VERTEX
  8
ME_EC_PLATE_V4-EDGE_CUTS_GBR
 10
113.268596
 20
-191.223332
 30
0.00
  0
VERTEX
  8
ME_EC_PLATE_V4-EDGE_CUTS_GBR
 10
100.568596
 20
-191.223332
 30
0.00
  0
SEQEND
  0
POLYLINE
  8
ME_EC_PLATE_V4-EDGE_CUTS_GBR
 66
1
 10
0.00
 20
0.00
 30
0.00
 40
0.20
 41
0.20
  0
VERTEX
  8
ME_EC_PLATE_V4-EDGE_CUTS_GBR
 10
114.268596
 20
-190.223332
 30
0.00
  0
VERTEX
  8
ME_EC_PLATE_V4-EDGE_CUTS_GBR
 10
113.268596
 20
-191.223332
 30
0.00
  0
SEQEND
  0
POLYLINE
  8
ME_EC_PLATE_V4-EDGE_CUTS_GBR
 66
1
 10
0.00
 20
0.00
 30
0.00
 40
0.20
 41
0.20
  0
VERTEX
  8
ME_EC_PLATE_V4-EDGE_CUTS_GBR
 10
114.268596
 20
-178.123332
 30
0.00
  0
VERTEX
  8
ME_EC_PLATE_V4-EDGE_CUTS_GBR
 10
114.268596
 20
-190.223332
 30
0.00
  0
SEQEND
  0
POLYLINE
  8
ME_EC_PLATE_V4-EDGE_CUTS_GBR
 66
1
 10
0.00
 20
0.00
 30
0.00
 40
0.20
 41
0.20
  0
VERTEX
  8
ME_EC_PLATE_V4-EDGE_CUTS_GBR
 10
113.268596
 20
-177.123332
 30
0.00
  0
VERTEX
  8
ME_EC_PLATE_V4-EDGE_CUTS_GBR
 10
114.268596
 20
-178.123332
 30
0.00
  0
SEQEND
  0
POLYLINE
  8
ME_EC_PLATE_V4-EDGE_CUTS_GBR
 66
1
 10
0.00
 20
0.00
 30
0.00
 40
0.20
 41
0.20
  0
VERTEX
  8
ME_EC_PLATE_V4-EDGE_CUTS_GBR
 10
100.568596
 20
-177.123332
 30
0.00
  0
VERTEX
  8
ME_EC_PLATE_V4-EDGE_CUTS_GBR
 10
113.268596
 20
-177.123332
 30
0.00
  0
SEQEND
  0
POLYLINE
  8
ME_EC_PLATE_V4-EDGE_CUTS_GBR
 66
1
 10
0.00
 20
0.00
 30
0.00
 40
0.20
 41
0.20
  0
VERTEX
  8
ME_EC_PLATE_V4-EDGE_CUTS_GBR
 10
75.981008
 20
-178.123332
 30
0.00
  0
VERTEX
  8
ME_EC_PLATE_V4-EDGE_CUTS_GBR
 10
76.981008
 20
-177.123332
 30
0.00
  0
SEQEND
  0
POLYLINE
  8
ME_EC_PLATE_V4-EDGE_CUTS_GBR
 66
1
 10
0.00
 20
0.00
 30
0.00
 40
0.20
 41
0.20
  0
VERTEX
  8
ME_EC_PLATE_V4-EDGE_CUTS_GBR
 10
75.981008
 20
-190.223332
 30
0.00
  0
VERTEX
  8
ME_EC_PLATE_V4-EDGE_CUTS_GBR
 10
75.981008
 20
-178.123332
 30
0.00
  0
SEQEND
  0
POLYLINE
  8
ME_EC_PLATE_V4-EDGE_CUTS_GBR
 66
1
 10
0.00
 20
0.00
 30
0.00
 40
0.20
 41
0.20
  0
VERTEX
  8
ME_EC_PLATE_V4-EDGE_CUTS_GBR
 10
76.981008
 20
-191.223332
 30
0.00
  0
VERTEX
  8
ME_EC_PLATE_V4-EDGE_CUTS_GBR
 10
75.981008
 20
-190.223332
 30
0.00
  0
SEQEND
  0
POLYLINE
  8
ME_EC_PLATE_V4-EDGE_CUTS_GBR
 66
1
 10
0.00
 20
0.00
 30
0.00
 40
0.20
 41
0.20
  0
VERTEX
  8
ME_EC_PLATE_V4-EDGE_CUTS_GBR
 10
89.681008
 20
-191.223332
 30
0.00
  0
VERTEX
  8
ME_EC_PLATE_V4-EDGE_CUTS_GBR
 10
76.981008
 20
-191.223332
 30
0.00
  0
SEQEND
  0
POLYLINE
  8
ME_EC_PLATE_V4-EDGE_CUTS_GBR
 66
1
 10
0.00
 20
0.00
 30
0.00
 40
0.20
 41
0.20
  0
VERTEX
  8
ME_EC_PLATE_V4-EDGE_CUTS_GBR
 10
90.681008
 20
-190.223332
 30
0.00
  0
VERTEX
  8
ME_EC_PLATE_V4-EDGE_CUTS_GBR
 10
89.681008
 20
-191.223332
 30
0.00
  0
SEQEND
  0
POLYLINE
  8
ME_EC_PLATE_V4-EDGE_CUTS_GBR
 66
1
 10
0.00
 20
0.00
 30
0.00
 40
0.20
 41
0.20
  0
VERTEX
  8
ME_EC_PLATE_V4-EDGE_CUTS_GBR
 10
90.681008
 20
-178.123332
 30
0.00
  0
VERTEX
  8
ME_EC_PLATE_V4-EDGE_CUTS_GBR
 10
90.681008
 20
-190.223332
 30
0.00
  0
SEQEND
  0
POLYLINE
  8
ME_EC_PLATE_V4-EDGE_CUTS_GBR
 66
1
 10
0.00
 20
0.00
 30
0.00
 40
0.20
 41
0.20
  0
VERTEX
  8
ME_EC_PLATE_V4-EDGE_CUTS_GBR
 10
89.681008
 20
-177.123332
 30
0.00
  0
VERTEX
  8
ME_EC_PLATE_V4-EDGE_CUTS_GBR
 10
90.681008
 20
-178.123332
 30
0.00
  0
SEQEND
  0
POLYLINE
  8
ME_EC_PLATE_V4-EDGE_CUTS_GBR
 66
1
 10
0.00
 20
0.00
 30
0.00
 40
0.20
 41
0.20
  0
VERTEX
  8
ME_EC_PLATE_V4-EDGE_CUTS_GBR
 10
76.981008
 20
-177.123332
 30
0.00
  0
VERTEX
  8
ME_EC_PLATE_V4-EDGE_CUTS_GBR
 10
89.681008
 20
-177.123332
 30
0.00
  0
SEQEND
  0
POLYLINE
  8
ME_EC_PLATE_V4-EDGE_CUTS_GBR
 66
1
 10
0.00
 20
0.00
 30
0.00
 40
0.20
 41
0.20
  0
VERTEX
  8
ME_EC_PLATE_V4-EDGE_CUTS_GBR
 10
52.236592
 20
-178.123332
 30
0.00
  0
VERTEX
  8
ME_EC_PLATE_V4-EDGE_CUTS_GBR
 10
53.236592
 20
-177.123332
 30
0.00
  0
SEQEND
  0
POLYLINE
  8
ME_EC_PLATE_V4-EDGE_CUTS_GBR
 66
1
 10
0.00
 20
0.00
 30
0.00
 40
0.20
 41
0.20
  0
VERTEX
  8
ME_EC_PLATE_V4-EDGE_CUTS_GBR
 10
52.236592
 20
-190.223332
 30
0.00
  0
VERTEX
  8
ME_EC_PLATE_V4-EDGE_CUTS_GBR
 10
52.236592
 20
-178.123332
 30
0.00
  0
SEQEND
  0
POLYLINE
  8
ME_EC_PLATE_V4-EDGE_CUTS_GBR
 66
1
 10
0.00
 20
0.00
 30
0.00
 40
0.20
 41
0.20
  0
VERTEX
  8
ME_EC_PLATE_V4-EDGE_CUTS_GBR
 10
53.236592
 20
-191.223332
 30
0.00
  0
VERTEX
  8
ME_EC_PLATE_V4-EDGE_CUTS_GBR
 10
52.236592
 20
-190.223332
 30
0.00
  0
SEQEND
  0
POLYLINE
  8
ME_EC_PLATE_V4-EDGE_CUTS_GBR
 66
1
 10
0.00
 20
0.00
 30
0.00
 40
0.20
 41
0.20
  0
VERTEX
  8
ME_EC_PLATE_V4-EDGE_CUTS_GBR
 10
65.936592
 20
-191.223332
 30
0.00
  0
VERTEX
  8
ME_EC_PLATE_V4-EDGE_CUTS_GBR
 10
53.236592
 20
-191.223332
 30
0.00
  0
SEQEND
  0
POLYLINE
  8
ME_EC_PLATE_V4-EDGE_CUTS_GBR
 66
1
 10
0.00
 20
0.00
 30
0.00
 40
0.20
 41
0.20
  0
VERTEX
  8
ME_EC_PLATE_V4-EDGE_CUTS_GBR
 10
66.936592
 20
-190.223332
 30
0.00
  0
VERTEX
  8
ME_EC_PLATE_V4-EDGE_CUTS_GBR
 10
65.936592
 20
-191.223332
 30
0.00
  0
SEQEND
  0
POLYLINE
  8
ME_EC_PLATE_V4-EDGE_CUTS_GBR
 66
1
 10
0.00
 20
0.00
 30
0.00
 40
0.20
 41
0.20
  0
VERTEX
  8
ME_EC_PLATE_V4-EDGE_CUTS_GBR
 10
66.936592
 20
-178.123332
 30
0.00
  0
VERTEX
  8
ME_EC_PLATE_V4-EDGE_CUTS_GBR
 10
66.936592
 20
-190.223332
 30
0.00
  0
SEQEND
  0
POLYLINE
  8
ME_EC_PLATE_V4-EDGE_CUTS_GBR
 66
1
 10
0.00
 20
0.00
 30
0.00
 40
0.20
 41
0.20
  0
VERTEX
  8
ME_EC_PLATE_V4-EDGE_CUTS_GBR
 10
65.936592
 20
-177.123332
 30
0.00
  0
VERTEX
  8
ME_EC_PLATE_V4-EDGE_CUTS_GBR
 10
66.936592
 20
-178.123332
 30
0.00
  0
SEQEND
  0
POLYLINE
  8
ME_EC_PLATE_V4-EDGE_CUTS_GBR
 66
1
 10
0.00
 20
0.00
 30
0.00
 40
0.20
 41
0.20
  0
VERTEX
  8
ME_EC_PLATE_V4-EDGE_CUTS_GBR
 10
53.236592
 20
-177.123332
 30
0.00
  0
VERTEX
  8
ME_EC_PLATE_V4-EDGE_CUTS_GBR
 10
65.936592
 20
-177.123332
 30
0.00
  0
SEQEND
  0
POLYLINE
  8
ME_EC_PLATE_V4-EDGE_CUTS_GBR
 66
1
 10
0.00
 20
0.00
 30
0.00
 40
0.20
 41
0.20
  0
VERTEX
  8
ME_EC_PLATE_V4-EDGE_CUTS_GBR
 10
204.34506
 20
-159.113332
 30
0.00
  0
VERTEX
  8
ME_EC_PLATE_V4-EDGE_CUTS_GBR
 10
205.34506
 20
-158.113332
 30
0.00
  0
SEQEND
  0
POLYLINE
  8
ME_EC_PLATE_V4-EDGE_CUTS_GBR
 66
1
 10
0.00
 20
0.00
 30
0.00
 40
0.20
 41
0.20
  0
VERTEX
  8
ME_EC_PLATE_V4-EDGE_CUTS_GBR
 10
204.34506
 20
-171.213332
 30
0.00
  0
VERTEX
  8
ME_EC_PLATE_V4-EDGE_CUTS_GBR
 10
204.34506
 20
-159.113332
 30
0.00
  0
SEQEND
  0
POLYLINE
  8
ME_EC_PLATE_V4-EDGE_CUTS_GBR
 66
1
 10
0.00
 20
0.00
 30
0.00
 40
0.20
 41
0.20
  0
VERTEX
  8
ME_EC_PLATE_V4-EDGE_CUTS_GBR
 10
205.34506
 20
-172.213332
 30
0.00
  0
VERTEX
  8
ME_EC_PLATE_V4-EDGE_CUTS_GBR
 10
204.34506
 20
-171.213332
 30
0.00
  0
SEQEND
  0
POLYLINE
  8
ME_EC_PLATE_V4-EDGE_CUTS_GBR
 66
1
 10
0.00
 20
0.00
 30
0.00
 40
0.20
 41
0.20
  0
VERTEX
  8
ME_EC_PLATE_V4-EDGE_CUTS_GBR
 10
218.04506
 20
-172.213332
 30
0.00
  0
VERTEX
  8
ME_EC_PLATE_V4-EDGE_CUTS_GBR
 10
205.34506
 20
-172.213332
 30
0.00
  0
SEQEND
  0
POLYLINE
  8
ME_EC_PLATE_V4-EDGE_CUTS_GBR
 66
1
 10
0.00
 20
0.00
 30
0.00
 40
0.20
 41
0.20
  0
VERTEX
  8
ME_EC_PLATE_V4-EDGE_CUTS_GBR
 10
219.04506
 20
-171.213332
 30
0.00
  0
VERTEX
  8
ME_EC_PLATE_V4-EDGE_CUTS_GBR
 10
218.04506
 20
-172.213332
 30
0.00
  0
SEQEND
  0
POLYLINE
  8
ME_EC_PLATE_V4-EDGE_CUTS_GBR
 66
1
 10
0.00
 20
0.00
 30
0.00
 40
0.20
 41
0.20
  0
VERTEX
  8
ME_EC_PLATE_V4-EDGE_CUTS_GBR
 10
219.04506
 20
-159.113332
 30
0.00
  0
VERTEX
  8
ME_EC_PLATE_V4-EDGE_CUTS_GBR
 10
219.04506
 20
-171.213332
 30
0.00
  0
SEQEND
  0
POLYLINE
  8
ME_EC_PLATE_V4-EDGE_CUTS_GBR
 66
1
 10
0.00
 20
0.00
 30
0.00
 40
0.20
 41
0.20
  0
VERTEX
  8
ME_EC_PLATE_V4-EDGE_CUTS_GBR
 10
218.04506
 20
-158.113332
 30
0.00
  0
VERTEX
  8
ME_EC_PLATE_V4-EDGE_CUTS_GBR
 10
219.04506
 20
-159.113332
 30
0.00
  0
SEQEND
  0
POLYLINE
  8
ME_EC_PLATE_V4-EDGE_CUTS_GBR
 66
1
 10
0.00
 20
0.00
 30
0.00
 40
0.20
 41
0.20
  0
VERTEX
  8
ME_EC_PLATE_V4-EDGE_CUTS_GBR
 10
205.34506
 20
-158.113332
 30
0.00
  0
VERTEX
  8
ME_EC_PLATE_V4-EDGE_CUTS_GBR
 10
218.04506
 20
-158.113332
 30
0.00
  0
SEQEND
  0
POLYLINE
  8
ME_EC_PLATE_V4-EDGE_CUTS_GBR
 66
1
 10
0.00
 20
0.00
 30
0.00
 40
0.20
 41
0.20
  0
VERTEX
  8
ME_EC_PLATE_V4-EDGE_CUTS_GBR
 10
185.34506
 20
-159.113332
 30
0.00
  0
VERTEX
  8
ME_EC_PLATE_V4-EDGE_CUTS_GBR
 10
186.34506
 20
-158.113332
 30
0.00
  0
SEQEND
  0
POLYLINE
  8
ME_EC_PLATE_V4-EDGE_CUTS_GBR
 66
1
 10
0.00
 20
0.00
 30
0.00
 40
0.20
 41
0.20
  0
VERTEX
  8
ME_EC_PLATE_V4-EDGE_CUTS_GBR
 10
185.34506
 20
-171.213332
 30
0.00
  0
VERTEX
  8
ME_EC_PLATE_V4-EDGE_CUTS_GBR
 10
185.34506
 20
-159.113332
 30
0.00
  0
SEQEND
  0
POLYLINE
  8
ME_EC_PLATE_V4-EDGE_CUTS_GBR
 66
1
 10
0.00
 20
0.00
 30
0.00
 40
0.20
 41
0.20
  0
VERTEX
  8
ME_EC_PLATE_V4-EDGE_CUTS_GBR
 10
186.34506
 20
-172.213332
 30
0.00
  0
VERTEX
  8
ME_EC_PLATE_V4-EDGE_CUTS_GBR
 10
185.34506
 20
-171.213332
 30
0.00
  0
SEQEND
  0
POLYLINE
  8
ME_EC_PLATE_V4-EDGE_CUTS_GBR
 66
1
 10
0.00
 20
0.00
 30
0.00
 40
0.20
 41
0.20
  0
VERTEX
  8
ME_EC_PLATE_V4-EDGE_CUTS_GBR
 10
199.04506
 20
-172.213332
 30
0.00
  0
VERTEX
  8
ME_EC_PLATE_V4-EDGE_CUTS_GBR
 10
186.34506
 20
-172.213332
 30
0.00
  0
SEQEND
  0
POLYLINE
  8
ME_EC_PLATE_V4-EDGE_CUTS_GBR
 66
1
 10
0.00
 20
0.00
 30
0.00
 40
0.20
 41
0.20
  0
VERTEX
  8
ME_EC_PLATE_V4-EDGE_CUTS_GBR
 10
200.04506
 20
-171.213332
 30
0.00
  0
VERTEX
  8
ME_EC_PLATE_V4-EDGE_CUTS_GBR
 10
199.04506
 20
-172.213332
 30
0.00
  0
SEQEND
  0
POLYLINE
  8
ME_EC_PLATE_V4-EDGE_CUTS_GBR
 66
1
 10
0.00
 20
0.00
 30
0.00
 40
0.20
 41
0.20
  0
VERTEX
  8
ME_EC_PLATE_V4-EDGE_CUTS_GBR
 10
200.04506
 20
-159.113332
 30
0.00
  0
VERTEX
  8
ME_EC_PLATE_V4-EDGE_CUTS_GBR
 10
200.04506
 20
-171.213332
 30
0.00
  0
SEQEND
  0
POLYLINE
  8
ME_EC_PLATE_V4-EDGE_CUTS_GBR
 66
1
 10
0.00
 20
0.00
 30
0.00
 40
0.20
 41
0.20
  0
VERTEX
  8
ME_EC_PLATE_V4-EDGE_CUTS_GBR
 10
199.04506
 20
-158.113332
 30
0.00
  0
VERTEX
  8
ME_EC_PLATE_V4-EDGE_CUTS_GBR
 10
200.04506
 20
-159.113332
 30
0.00
  0
SEQEND
  0
POLYLINE
  8
ME_EC_PLATE_V4-EDGE_CUTS_GBR
 66
1
 10
0.00
 20
0.00
 30
0.00
 40
0.20
 41
0.20
  0
VERTEX
  8
ME_EC_PLATE_V4-EDGE_CUTS_GBR
 10
186.34506
 20
-158.113332
 30
0.00
  0
VERTEX
  8
ME_EC_PLATE_V4-EDGE_CUTS_GBR
 10
199.04506
 20
-158.113332
 30
0.00
  0
SEQEND
  0
POLYLINE
  8
ME_EC_PLATE_V4-EDGE_CUTS_GBR
 66
1
 10
0.00
 20
0.00
 30
0.00
 40
0.20
 41
0.20
  0
VERTEX
  8
ME_EC_PLATE_V4-EDGE_CUTS_GBR
 10
166.34506
 20
-159.113332
 30
0.00
  0
VERTEX
  8
ME_EC_PLATE_V4-EDGE_CUTS_GBR
 10
167.34506
 20
-158.113332
 30
0.00
  0
SEQEND
  0
POLYLINE
  8
ME_EC_PLATE_V4-EDGE_CUTS_GBR
 66
1
 10
0.00
 20
0.00
 30
0.00
 40
0.20
 41
0.20
  0
VERTEX
  8
ME_EC_PLATE_V4-EDGE_CUTS_GBR
 10
166.34506
 20
-171.213332
 30
0.00
  0
VERTEX
  8
ME_EC_PLATE_V4-EDGE_CUTS_GBR
 10
166.34506
 20
-159.113332
 30
0.00
  0
SEQEND
  0
POLYLINE
  8
ME_EC_PLATE_V4-EDGE_CUTS_GBR
 66
1
 10
0.00
 20
0.00
 30
0.00
 40
0.20
 41
0.20
  0
VERTEX
  8
ME_EC_PLATE_V4-EDGE_CUTS_GBR
 10
167.34506
 20
-172.213332
 30
0.00
  0
VERTEX
  8
ME_EC_PLATE_V4-EDGE_CUTS_GBR
 10
166.34506
 20
-171.213332
 30
0.00
  0
SEQEND
  0
POLYLINE
  8
ME_EC_PLATE_V4-EDGE_CUTS_GBR
 66
1
 10
0.00
 20
0.00
 30
0.00
 40
0.20
 41
0.20
  0
VERTEX
  8
ME_EC_PLATE_V4-EDGE_CUTS_GBR
 10
180.04506
 20
-172.213332
 30
0.00
  0
VERTEX
  8
ME_EC_PLATE_V4-EDGE_CUTS_GBR
 10
167.34506
 20
-172.213332
 30
0.00
  0
SEQEND
  0
POLYLINE
  8
ME_EC_PLATE_V4-EDGE_CUTS_GBR
 66
1
 10
0.00
 20
0.00
 30
0.00
 40
0.20
 41
0.20
  0
VERTEX
  8
ME_EC_PLATE_V4-EDGE_CUTS_GBR
 10
181.04506
 20
-171.213332
 30
0.00
  0
VERTEX
  8
ME_EC_PLATE_V4-EDGE_CUTS_GBR
 10
180.04506
 20
-172.213332
 30
0.00
  0
SEQEND
  0
POLYLINE
  8
ME_EC_PLATE_V4-EDGE_CUTS_GBR
 66
1
 10
0.00
 20
0.00
 30
0.00
 40
0.20
 41
0.20
  0
VERTEX
  8
ME_EC_PLATE_V4-EDGE_CUTS_GBR
 10
181.04506
 20
-159.113332
 30
0.00
  0
VERTEX
  8
ME_EC_PLATE_V4-EDGE_CUTS_GBR
 10
181.04506
 20
-171.213332
 30
0.00
  0
SEQEND
  0
POLYLINE
  8
ME_EC_PLATE_V4-EDGE_CUTS_GBR
 66
1
 10
0.00
 20
0.00
 30
0.00
 40
0.20
 41
0.20
  0
VERTEX
  8
ME_EC_PLATE_V4-EDGE_CUTS_GBR
 10
180.04506
 20
-158.113332
 30
0.00
  0
VERTEX
  8
ME_EC_PLATE_V4-EDGE_CUTS_GBR
 10
181.04506
 20
-159.113332
 30
0.00
  0
SEQEND
  0
POLYLINE
  8
ME_EC_PLATE_V4-EDGE_CUTS_GBR
 66
1
 10
0.00
 20
0.00
 30
0.00
 40
0.20
 41
0.20
  0
VERTEX
  8
ME_EC_PLATE_V4-EDGE_CUTS_GBR
 10
167.34506
 20
-158.113332
 30
0.00
  0
VERTEX
  8
ME_EC_PLATE_V4-EDGE_CUTS_GBR
 10
180.04506
 20
-158.113332
 30
0.00
  0
SEQEND
  0
POLYLINE
  8
ME_EC_PLATE_V4-EDGE_CUTS_GBR
 66
1
 10
0.00
 20
0.00
 30
0.00
 40
0.20
 41
0.20
  0
VERTEX
  8
ME_EC_PLATE_V4-EDGE_CUTS_GBR
 10
147.34506
 20
-159.113332
 30
0.00
  0
VERTEX
  8
ME_EC_PLATE_V4-EDGE_CUTS_GBR
 10
148.34506
 20
-158.113332
 30
0.00
  0
SEQEND
  0
POLYLINE
  8
ME_EC_PLATE_V4-EDGE_CUTS_GBR
 66
1
 10
0.00
 20
0.00
 30
0.00
 40
0.20
 41
0.20
  0
VERTEX
  8
ME_EC_PLATE_V4-EDGE_CUTS_GBR
 10
147.34506
 20
-171.213332
 30
0.00
  0
VERTEX
  8
ME_EC_PLATE_V4-EDGE_CUTS_GBR
 10
147.34506
 20
-159.113332
 30
0.00
  0
SEQEND
  0
POLYLINE
  8
ME_EC_PLATE_V4-EDGE_CUTS_GBR
 66
1
 10
0.00
 20
0.00
 30
0.00
 40
0.20
 41
0.20
  0
VERTEX
  8
ME_EC_PLATE_V4-EDGE_CUTS_GBR
 10
148.34506
 20
-172.213332
 30
0.00
  0
VERTEX
  8
ME_EC_PLATE_V4-EDGE_CUTS_GBR
 10
147.34506
 20
-171.213332
 30
0.00
  0
SEQEND
  0
POLYLINE
  8
ME_EC_PLATE_V4-EDGE_CUTS_GBR
 66
1
 10
0.00
 20
0.00
 30
0.00
 40
0.20
 41
0.20
  0
VERTEX
  8
ME_EC_PLATE_V4-EDGE_CUTS_GBR
 10
161.04506
 20
-172.213332
 30
0.00
  0
VERTEX
  8
ME_EC_PLATE_V4-EDGE_CUTS_GBR
 10
148.34506
 20
-172.213332
 30
0.00
  0
SEQEND
  0
POLYLINE
  8
ME_EC_PLATE_V4-EDGE_CUTS_GBR
 66
1
 10
0.00
 20
0.00
 30
0.00
 40
0.20
 41
0.20
  0
VERTEX
  8
ME_EC_PLATE_V4-EDGE_CUTS_GBR
 10
162.04506
 20
-171.213332
 30
0.00
  0
VERTEX
  8
ME_EC_PLATE_V4-EDGE_CUTS_GBR
 10
161.04506
 20
-172.213332
 30
0.00
  0
SEQEND
  0
POLYLINE
  8
ME_EC_PLATE_V4-EDGE_CUTS_GBR
 66
1
 10
0.00
 20
0.00
 30
0.00
 40
0.20
 41
0.20
  0
VERTEX
  8
ME_EC_PLATE_V4-EDGE_CUTS_GBR
 10
162.04506
 20
-159.113332
 30
0.00
  0
VERTEX
  8
ME_EC_PLATE_V4-EDGE_CUTS_GBR
 10
162.04506
 20
-171.213332
 30
0.00
  0
SEQEND
  0
POLYLINE
  8
ME_EC_PLATE_V4-EDGE_CUTS_GBR
 66
1
 10
0.00
 20
0.00
 30
0.00
 40
0.20
 41
0.20
  0
VERTEX
  8
ME_EC_PLATE_V4-EDGE_CUTS_GBR
 10
161.04506
 20
-158.113332
 30
0.00
  0
VERTEX
  8
ME_EC_PLATE_V4-EDGE_CUTS_GBR
 10
162.04506
 20
-159.113332
 30
0.00
  0
SEQEND
  0
POLYLINE
  8
ME_EC_PLATE_V4-EDGE_CUTS_GBR
 66
1
 10
0.00
 20
0.00
 30
0.00
 40
0.20
 41
0.20
  0
VERTEX
  8
ME_EC_PLATE_V4-EDGE_CUTS_GBR
 10
148.34506
 20
-158.113332
 30
0.00
  0
VERTEX
  8
ME_EC_PLATE_V4-EDGE_CUTS_GBR
 10
161.04506
 20
-158.113332
 30
0.00
  0
SEQEND
  0
POLYLINE
  8
ME_EC_PLATE_V4-EDGE_CUTS_GBR
 66
1
 10
0.00
 20
0.00
 30
0.00
 40
0.20
 41
0.20
  0
VERTEX
  8
ME_EC_PLATE_V4-EDGE_CUTS_GBR
 10
128.34506
 20
-159.113332
 30
0.00
  0
VERTEX
  8
ME_EC_PLATE_V4-EDGE_CUTS_GBR
 10
129.34506
 20
-158.113332
 30
0.00
  0
SEQEND
  0
POLYLINE
  8
ME_EC_PLATE_V4-EDGE_CUTS_GBR
 66
1
 10
0.00
 20
0.00
 30
0.00
 40
0.20
 41
0.20
  0
VERTEX
  8
ME_EC_PLATE_V4-EDGE_CUTS_GBR
 10
128.34506
 20
-171.213332
 30
0.00
  0
VERTEX
  8
ME_EC_PLATE_V4-EDGE_CUTS_GBR
 10
128.34506
 20
-159.113332
 30
0.00
  0
SEQEND
  0
POLYLINE
  8
ME_EC_PLATE_V4-EDGE_CUTS_GBR
 66
1
 10
0.00
 20
0.00
 30
0.00
 40
0.20
 41
0.20
  0
VERTEX
  8
ME_EC_PLATE_V4-EDGE_CUTS_GBR
 10
129.34506
 20
-172.213332
 30
0.00
  0
VERTEX
  8
ME_EC_PLATE_V4-EDGE_CUTS_GBR
 10
128.34506
 20
-171.213332
 30
0.00
  0
SEQEND
  0
POLYLINE
  8
ME_EC_PLATE_V4-EDGE_CUTS_GBR
 66
1
 10
0.00
 20
0.00
 30
0.00
 40
0.20
 41
0.20
  0
VERTEX
  8
ME_EC_PLATE_V4-EDGE_CUTS_GBR
 10
142.04506
 20
-172.213332
 30
0.00
  0
VERTEX
  8
ME_EC_PLATE_V4-EDGE_CUTS_GBR
 10
129.34506
 20
-172.213332
 30
0.00
  0
SEQEND
  0
POLYLINE
  8
ME_EC_PLATE_V4-EDGE_CUTS_GBR
 66
1
 10
0.00
 20
0.00
 30
0.00
 40
0.20
 41
0.20
  0
VERTEX
  8
ME_EC_PLATE_V4-EDGE_CUTS_GBR
 10
143.04506
 20
-171.213332
 30
0.00
  0
VERTEX
  8
ME_EC_PLATE_V4-EDGE_CUTS_GBR
 10
142.04506
 20
-172.213332
 30
0.00
  0
SEQEND
  0
POLYLINE
  8
ME_EC_PLATE_V4-EDGE_CUTS_GBR
 66
1
 10
0.00
 20
0.00
 30
0.00
 40
0.20
 41
0.20
  0
VERTEX
  8
ME_EC_PLATE_V4-EDGE_CUTS_GBR
 10
143.04506
 20
-159.113332
 30
0.00
  0
VERTEX
  8
ME_EC_PLATE_V4-EDGE_CUTS_GBR
 10
143.04506
 20
-171.213332
 30
0.00
  0
SEQEND
  0
POLYLINE
  8
ME_EC_PLATE_V4-EDGE_CUTS_GBR
 66
1
 10
0.00
 20
0.00
 30
0.00
 40
0.20
 41
0.20
  0
VERTEX
  8
ME_EC_PLATE_V4-EDGE_CUTS_GBR
 10
142.04506
 20
-158.113332
 30
0.00
  0
VERTEX
  8
ME_EC_PLATE_V4-EDGE_CUTS_GBR
 10
143.04506
 20
-159.113332
 30
0.00
  0
SEQEND
  0
POLYLINE
  8
ME_EC_PLATE_V4-EDGE_CUTS_GBR
 66
1
 10
0.00
 20
0.00
 30
0.00
 40
0.20
 41
0.20
  0
VERTEX
  8
ME_EC_PLATE_V4-EDGE_CUTS_GBR
 10
129.34506
 20
-158.113332
 30
0.00
  0
VERTEX
  8
ME_EC_PLATE_V4-EDGE_CUTS_GBR
 10
142.04506
 20
-158.113332
 30
0.00
  0
SEQEND
  0
POLYLINE
  8
ME_EC_PLATE_V4-EDGE_CUTS_GBR
 66
1
 10
0.00
 20
0.00
 30
0.00
 40
0.20
 41
0.20
  0
VERTEX
  8
ME_EC_PLATE_V4-EDGE_CUTS_GBR
 10
109.34506
 20
-159.113332
 30
0.00
  0
VERTEX
  8
ME_EC_PLATE_V4-EDGE_CUTS_GBR
 10
110.34506
 20
-158.113332
 30
0.00
  0
SEQEND
  0
POLYLINE
  8
ME_EC_PLATE_V4-EDGE_CUTS_GBR
 66
1
 10
0.00
 20
0.00
 30
0.00
 40
0.20
 41
0.20
  0
VERTEX
  8
ME_EC_PLATE_V4-EDGE_CUTS_GBR
 10
109.34506
 20
-171.213332
 30
0.00
  0
VERTEX
  8
ME_EC_PLATE_V4-EDGE_CUTS_GBR
 10
109.34506
 20
-159.113332
 30
0.00
  0
SEQEND
  0
POLYLINE
  8
ME_EC_PLATE_V4-EDGE_CUTS_GBR
 66
1
 10
0.00
 20
0.00
 30
0.00
 40
0.20
 41
0.20
  0
VERTEX
  8
ME_EC_PLATE_V4-EDGE_CUTS_GBR
 10
110.34506
 20
-172.213332
 30
0.00
  0
VERTEX
  8
ME_EC_PLATE_V4-EDGE_CUTS_GBR
 10
109.34506
 20
-171.213332
 30
0.00
  0
SEQEND
  0
POLYLINE
  8
ME_EC_PLATE_V4-EDGE_CUTS_GBR
 66
1
 10
0.00
 20
0.00
 30
0.00
 40
0.20
 41
0.20
  0
VERTEX
  8
ME_EC_PLATE_V4-EDGE_CUTS_GBR
 10
123.04506
 20
-172.213332
 30
0.00
  0
VERTEX
  8
ME_EC_PLATE_V4-EDGE_CUTS_GBR
 10
110.34506
 20
-172.213332
 30
0.00
  0
SEQEND
  0
POLYLINE
  8
ME_EC_PLATE_V4-EDGE_CUTS_GBR
 66
1
 10
0.00
 20
0.00
 30
0.00
 40
0.20
 41
0.20
  0
VERTEX
  8
ME_EC_PLATE_V4-EDGE_CUTS_GBR
 10
124.04506
 20
-171.213332
 30
0.00
  0
VERTEX
  8
ME_EC_PLATE_V4-EDGE_CUTS_GBR
 10
123.04506
 20
-172.213332
 30
0.00
  0
SEQEND
  0
POLYLINE
  8
ME_EC_PLATE_V4-EDGE_CUTS_GBR
 66
1
 10
0.00
 20
0.00
 30
0.00
 40
0.20
 41
0.20
  0
VERTEX
  8
ME_EC_PLATE_V4-EDGE_CUTS_GBR
 10
124.04506
 20
-159.113332
 30
0.00
  0
VERTEX
  8
ME_EC_PLATE_V4-EDGE_CUTS_GBR
 10
124.04506
 20
-171.213332
 30
0.00
  0
SEQEND
  0
POLYLINE
  8
ME_EC_PLATE_V4-EDGE_CUTS_GBR
 66
1
 10
0.00
 20
0.00
 30
0.00
 40
0.20
 41
0.20
  0
VERTEX
  8
ME_EC_PLATE_V4-EDGE_CUTS_GBR
 10
123.04506
 20
-158.113332
 30
0.00
  0
VERTEX
  8
ME_EC_PLATE_V4-EDGE_CUTS_GBR
 10
124.04506
 20
-159.113332
 30
0.00
  0
SEQEND
  0
POLYLINE
  8
ME_EC_PLATE_V4-EDGE_CUTS_GBR
 66
1
 10
0.00
 20
0.00
 30
0.00
 40
0.20
 41
0.20
  0
VERTEX
  8
ME_EC_PLATE_V4-EDGE_CUTS_GBR
 10
110.34506
 20
-158.113332
 30
0.00
  0
VERTEX
  8
ME_EC_PLATE_V4-EDGE_CUTS_GBR
 10
123.04506
 20
-158.113332
 30
0.00
  0
SEQEND
  0
POLYLINE
  8
ME_EC_PLATE_V4-EDGE_CUTS_GBR
 66
1
 10
0.00
 20
0.00
 30
0.00
 40
0.20
 41
0.20
  0
VERTEX
  8
ME_EC_PLATE_V4-EDGE_CUTS_GBR
 10
90.34506
 20
-159.113332
 30
0.00
  0
VERTEX
  8
ME_EC_PLATE_V4-EDGE_CUTS_GBR
 10
91.34506
 20
-158.113332
 30
0.00
  0
SEQEND
  0
POLYLINE
  8
ME_EC_PLATE_V4-EDGE_CUTS_GBR
 66
1
 10
0.00
 20
0.00
 30
0.00
 40
0.20
 41
0.20
  0
VERTEX
  8
ME_EC_PLATE_V4-EDGE_CUTS_GBR
 10
90.34506
 20
-171.213332
 30
0.00
  0
VERTEX
  8
ME_EC_PLATE_V4-EDGE_CUTS_GBR
 10
90.34506
 20
-159.113332
 30
0.00
  0
SEQEND
  0
POLYLINE
  8
ME_EC_PLATE_V4-EDGE_CUTS_GBR
 66
1
 10
0.00
 20
0.00
 30
0.00
 40
0.20
 41
0.20
  0
VERTEX
  8
ME_EC_PLATE_V4-EDGE_CUTS_GBR
 10
91.34506
 20
-172.213332
 30
0.00
  0
VERTEX
  8
ME_EC_PLATE_V4-EDGE_CUTS_GBR
 10
90.34506
 20
-171.213332
 30
0.00
  0
SEQEND
  0
POLYLINE
  8
ME_EC_PLATE_V4-EDGE_CUTS_GBR
 66
1
 10
0.00
 20
0.00
 30
0.00
 40
0.20
 41
0.20
  0
VERTEX
  8
ME_EC_PLATE_V4-EDGE_CUTS_GBR
 10
104.04506
 20
-172.213332
 30
0.00
  0
VERTEX
  8
ME_EC_PLATE_V4-EDGE_CUTS_GBR
 10
91.34506
 20
-172.213332
 30
0.00
  0
SEQEND
  0
POLYLINE
  8
ME_EC_PLATE_V4-EDGE_CUTS_GBR
 66
1
 10
0.00
 20
0.00
 30
0.00
 40
0.20
 41
0.20
  0
VERTEX
  8
ME_EC_PLATE_V4-EDGE_CUTS_GBR
 10
105.04506
 20
-171.213332
 30
0.00
  0
VERTEX
  8
ME_EC_PLATE_V4-EDGE_CUTS_GBR
 10
104.04506
 20
-172.213332
 30
0.00
  0
SEQEND
  0
POLYLINE
  8
ME_EC_PLATE_V4-EDGE_CUTS_GBR
 66
1
 10
0.00
 20
0.00
 30
0.00
 40
0.20
 41
0.20
  0
VERTEX
  8
ME_EC_PLATE_V4-EDGE_CUTS_GBR
 10
105.04506
 20
-159.113332
 30
0.00
  0
VERTEX
  8
ME_EC_PLATE_V4-EDGE_CUTS_GBR
 10
105.04506
 20
-171.213332
 30
0.00
  0
SEQEND
  0
POLYLINE
  8
ME_EC_PLATE_V4-EDGE_CUTS_GBR
 66
1
 10
0.00
 20
0.00
 30
0.00
 40
0.20
 41
0.20
  0
VERTEX
  8
ME_EC_PLATE_V4-EDGE_CUTS_GBR
 10
104.04506
 20
-158.113332
 30
0.00
  0
VERTEX
  8
ME_EC_PLATE_V4-EDGE_CUTS_GBR
 10
105.04506
 20
-159.113332
 30
0.00
  0
SEQEND
  0
POLYLINE
  8
ME_EC_PLATE_V4-EDGE_CUTS_GBR
 66
1
 10
0.00
 20
0.00
 30
0.00
 40
0.20
 41
0.20
  0
VERTEX
  8
ME_EC_PLATE_V4-EDGE_CUTS_GBR
 10
91.34506
 20
-158.113332
 30
0.00
  0
VERTEX
  8
ME_EC_PLATE_V4-EDGE_CUTS_GBR
 10
104.04506
 20
-158.113332
 30
0.00
  0
SEQEND
  0
POLYLINE
  8
ME_EC_PLATE_V4-EDGE_CUTS_GBR
 66
1
 10
0.00
 20
0.00
 30
0.00
 40
0.20
 41
0.20
  0
VERTEX
  8
ME_EC_PLATE_V4-EDGE_CUTS_GBR
 10
50.67506
 20
-159.113332
 30
0.00
  0
VERTEX
  8
ME_EC_PLATE_V4-EDGE_CUTS_GBR
 10
51.67506
 20
-158.113332
 30
0.00
  0
SEQEND
  0
POLYLINE
  8
ME_EC_PLATE_V4-EDGE_CUTS_GBR
 66
1
 10
0.00
 20
0.00
 30
0.00
 40
0.20
 41
0.20
  0
VERTEX
  8
ME_EC_PLATE_V4-EDGE_CUTS_GBR
 10
50.67506
 20
-170.483332
 30
0.00
  0
VERTEX
  8
ME_EC_PLATE_V4-EDGE_CUTS_GBR
 10
50.67506
 20
-159.113332
 30
0.00
  0
SEQEND
  0
POLYLINE
  8
ME_EC_PLATE_V4-EDGE_CUTS_GBR
 66
1
 10
0.00
 20
0.00
 30
0.00
 40
0.20
 41
0.20
  0
VERTEX
  8
ME_EC_PLATE_V4-EDGE_CUTS_GBR
 10
53.67506
 20
-172.213332
 30
0.00
  0
VERTEX
  8
ME_EC_PLATE_V4-EDGE_CUTS_GBR
 10
50.67506
 20
-170.483332
 30
0.00
  0
SEQEND
  0
POLYLINE
  8
ME_EC_PLATE_V4-EDGE_CUTS_GBR
 66
1
 10
0.00
 20
0.00
 30
0.00
 40
0.20
 41
0.20
  0
VERTEX
  8
ME_EC_PLATE_V4-EDGE_CUTS_GBR
 10
79.87506
 20
-172.213332
 30
0.00
  0
VERTEX
  8
ME_EC_PLATE_V4-EDGE_CUTS_GBR
 10
53.67506
 20
-172.213332
 30
0.00
  0
SEQEND
  0
POLYLINE
  8
ME_EC_PLATE_V4-EDGE_CUTS_GBR
 66
1
 10
0.00
 20
0.00
 30
0.00
 40
0.20
 41
0.20
  0
VERTEX
  8
ME_EC_PLATE_V4-EDGE_CUTS_GBR
 10
82.87506
 20
-170.483332
 30
0.00
  0
VERTEX
  8
ME_EC_PLATE_V4-EDGE_CUTS_GBR
 10
79.87506
 20
-172.213332
 30
0.00
  0
SEQEND
  0
POLYLINE
  8
ME_EC_PLATE_V4-EDGE_CUTS_GBR
 66
1
 10
0.00
 20
0.00
 30
0.00
 40
0.20
 41
0.20
  0
VERTEX
  8
ME_EC_PLATE_V4-EDGE_CUTS_GBR
 10
82.87506
 20
-159.113332
 30
0.00
  0
VERTEX
  8
ME_EC_PLATE_V4-EDGE_CUTS_GBR
 10
82.87506
 20
-170.483332
 30
0.00
  0
SEQEND
  0
POLYLINE
  8
ME_EC_PLATE_V4-EDGE_CUTS_GBR
 66
1
 10
0.00
 20
0.00
 30
0.00
 40
0.20
 41
0.20
  0
VERTEX
  8
ME_EC_PLATE_V4-EDGE_CUTS_GBR
 10
81.87506
 20
-158.113332
 30
0.00
  0
VERTEX
  8
ME_EC_PLATE_V4-EDGE_CUTS_GBR
 10
82.87506
 20
-159.113332
 30
0.00
  0
SEQEND
  0
POLYLINE
  8
ME_EC_PLATE_V4-EDGE_CUTS_GBR
 66
1
 10
0.00
 20
0.00
 30
0.00
 40
0.20
 41
0.20
  0
VERTEX
  8
ME_EC_PLATE_V4-EDGE_CUTS_GBR
 10
51.67506
 20
-158.113332
 30
0.00
  0
VERTEX
  8
ME_EC_PLATE_V4-EDGE_CUTS_GBR
 10
81.87506
 20
-158.113332
 30
0.00
  0
SEQEND
  0
POLYLINE
  8
ME_EC_PLATE_V4-EDGE_CUTS_GBR
 66
1
 10
0.00
 20
0.00
 30
0.00
 40
0.20
 41
0.20
  0
VERTEX
  8
ME_EC_PLATE_V4-EDGE_CUTS_GBR
 10
213.93506
 20
-140.093332
 30
0.00
  0
VERTEX
  8
ME_EC_PLATE_V4-EDGE_CUTS_GBR
 10
214.93506
 20
-139.093332
 30
0.00
  0
SEQEND
  0
POLYLINE
  8
ME_EC_PLATE_V4-EDGE_CUTS_GBR
 66
1
 10
0.00
 20
0.00
 30
0.00
 40
0.20
 41
0.20
  0
VERTEX
  8
ME_EC_PLATE_V4-EDGE_CUTS_GBR
 10
213.93506
 20
-152.193332
 30
0.00
  0
VERTEX
  8
ME_EC_PLATE_V4-EDGE_CUTS_GBR
 10
213.93506
 20
-140.093332
 30
0.00
  0
SEQEND
  0
POLYLINE
  8
ME_EC_PLATE_V4-EDGE_CUTS_GBR
 66
1
 10
0.00
 20
0.00
 30
0.00
 40
0.20
 41
0.20
  0
VERTEX
  8
ME_EC_PLATE_V4-EDGE_CUTS_GBR
 10
214.93506
 20
-153.193332
 30
0.00
  0
VERTEX
  8
ME_EC_PLATE_V4-EDGE_CUTS_GBR
 10
213.93506
 20
-152.193332
 30
0.00
  0
SEQEND
  0
POLYLINE
  8
ME_EC_PLATE_V4-EDGE_CUTS_GBR
 66
1
 10
0.00
 20
0.00
 30
0.00
 40
0.20
 41
0.20
  0
VERTEX
  8
ME_EC_PLATE_V4-EDGE_CUTS_GBR
 10
227.63506
 20
-153.193332
 30
0.00
  0
VERTEX
  8
ME_EC_PLATE_V4-EDGE_CUTS_GBR
 10
214.93506
 20
-153.193332
 30
0.00
  0
SEQEND
  0
POLYLINE
  8
ME_EC_PLATE_V4-EDGE_CUTS_GBR
 66
1
 10
0.00
 20
0.00
 30
0.00
 40
0.20
 41
0.20
  0
VERTEX
  8
ME_EC_PLATE_V4-EDGE_CUTS_GBR
 10
228.63506
 20
-152.193332
 30
0.00
  0
VERTEX
  8
ME_EC_PLATE_V4-EDGE_CUTS_GBR
 10
227.63506
 20
-153.193332
 30
0.00
  0
SEQEND
  0
POLYLINE
  8
ME_EC_PLATE_V4-EDGE_CUTS_GBR
 66
1
 10
0.00
 20
0.00
 30
0.00
 40
0.20
 41
0.20
  0
VERTEX
  8
ME_EC_PLATE_V4-EDGE_CUTS_GBR
 10
228.63506
 20
-140.093332
 30
0.00
  0
VERTEX
  8
ME_EC_PLATE_V4-EDGE_CUTS_GBR
 10
228.63506
 20
-152.193332
 30
0.00
  0
SEQEND
  0
POLYLINE
  8
ME_EC_PLATE_V4-EDGE_CUTS_GBR
 66
1
 10
0.00
 20
0.00
 30
0.00
 40
0.20
 41
0.20
  0
VERTEX
  8
ME_EC_PLATE_V4-EDGE_CUTS_GBR
 10
227.63506
 20
-139.093332
 30
0.00
  0
VERTEX
  8
ME_EC_PLATE_V4-EDGE_CUTS_GBR
 10
228.63506
 20
-140.093332
 30
0.00
  0
SEQEND
  0
POLYLINE
  8
ME_EC_PLATE_V4-EDGE_CUTS_GBR
 66
1
 10
0.00
 20
0.00
 30
0.00
 40
0.20
 41
0.20
  0
VERTEX
  8
ME_EC_PLATE_V4-EDGE_CUTS_GBR
 10
214.93506
 20
-139.093332
 30
0.00
  0
VERTEX
  8
ME_EC_PLATE_V4-EDGE_CUTS_GBR
 10
227.63506
 20
-139.093332
 30
0.00
  0
SEQEND
  0
POLYLINE
  8
ME_EC_PLATE_V4-EDGE_CUTS_GBR
 66
1
 10
0.00
 20
0.00
 30
0.00
 40
0.20
 41
0.20
  0
VERTEX
  8
ME_EC_PLATE_V4-EDGE_CUTS_GBR
 10
194.91506
 20
-140.093332
 30
0.00
  0
VERTEX
  8
ME_EC_PLATE_V4-EDGE_CUTS_GBR
 10
195.91506
 20
-139.093332
 30
0.00
  0
SEQEND
  0
POLYLINE
  8
ME_EC_PLATE_V4-EDGE_CUTS_GBR
 66
1
 10
0.00
 20
0.00
 30
0.00
 40
0.20
 41
0.20
  0
VERTEX
  8
ME_EC_PLATE_V4-EDGE_CUTS_GBR
 10
194.91506
 20
-152.193332
 30
0.00
  0
VERTEX
  8
ME_EC_PLATE_V4-EDGE_CUTS_GBR
 10
194.91506
 20
-140.093332
 30
0.00
  0
SEQEND
  0
POLYLINE
  8
ME_EC_PLATE_V4-EDGE_CUTS_GBR
 66
1
 10
0.00
 20
0.00
 30
0.00
 40
0.20
 41
0.20
  0
VERTEX
  8
ME_EC_PLATE_V4-EDGE_CUTS_GBR
 10
195.91506
 20
-153.193332
 30
0.00
  0
VERTEX
  8
ME_EC_PLATE_V4-EDGE_CUTS_GBR
 10
194.91506
 20
-152.193332
 30
0.00
  0
SEQEND
  0
POLYLINE
  8
ME_EC_PLATE_V4-EDGE_CUTS_GBR
 66
1
 10
0.00
 20
0.00
 30
0.00
 40
0.20
 41
0.20
  0
VERTEX
  8
ME_EC_PLATE_V4-EDGE_CUTS_GBR
 10
208.61506
 20
-153.193332
 30
0.00
  0
VERTEX
  8
ME_EC_PLATE_V4-EDGE_CUTS_GBR
 10
195.91506
 20
-153.193332
 30
0.00
  0
SEQEND
  0
POLYLINE
  8
ME_EC_PLATE_V4-EDGE_CUTS_GBR
 66
1
 10
0.00
 20
0.00
 30
0.00
 40
0.20
 41
0.20
  0
VERTEX
  8
ME_EC_PLATE_V4-EDGE_CUTS_GBR
 10
209.61506
 20
-152.193332
 30
0.00
  0
VERTEX
  8
ME_EC_PLATE_V4-EDGE_CUTS_GBR
 10
208.61506
 20
-153.193332
 30
0.00
  0
SEQEND
  0
POLYLINE
  8
ME_EC_PLATE_V4-EDGE_CUTS_GBR
 66
1
 10
0.00
 20
0.00
 30
0.00
 40
0.20
 41
0.20
  0
VERTEX
  8
ME_EC_PLATE_V4-EDGE_CUTS_GBR
 10
209.61506
 20
-140.093332
 30
0.00
  0
VERTEX
  8
ME_EC_PLATE_V4-EDGE_CUTS_GBR
 10
209.61506
 20
-152.193332
 30
0.00
  0
SEQEND
  0
POLYLINE
  8
ME_EC_PLATE_V4-EDGE_CUTS_GBR
 66
1
 10
0.00
 20
0.00
 30
0.00
 40
0.20
 41
0.20
  0
VERTEX
  8
ME_EC_PLATE_V4-EDGE_CUTS_GBR
 10
208.61506
 20
-139.093332
 30
0.00
  0
VERTEX
  8
ME_EC_PLATE_V4-EDGE_CUTS_GBR
 10
209.61506
 20
-140.093332
 30
0.00
  0
SEQEND
  0
POLYLINE
  8
ME_EC_PLATE_V4-EDGE_CUTS_GBR
 66
1
 10
0.00
 20
0.00
 30
0.00
 40
0.20
 41
0.20
  0
VERTEX
  8
ME_EC_PLATE_V4-EDGE_CUTS_GBR
 10
195.91506
 20
-139.093332
 30
0.00
  0
VERTEX
  8
ME_EC_PLATE_V4-EDGE_CUTS_GBR
 10
208.61506
 20
-139.093332
 30
0.00
  0
SEQEND
  0
POLYLINE
  8
ME_EC_PLATE_V4-EDGE_CUTS_GBR
 66
1
 10
0.00
 20
0.00
 30
0.00
 40
0.20
 41
0.20
  0
VERTEX
  8
ME_EC_PLATE_V4-EDGE_CUTS_GBR
 10
175.89506
 20
-140.093332
 30
0.00
  0
VERTEX
  8
ME_EC_PLATE_V4-EDGE_CUTS_GBR
 10
176.89506
 20
-139.093332
 30
0.00
  0
SEQEND
  0
POLYLINE
  8
ME_EC_PLATE_V4-EDGE_CUTS_GBR
 66
1
 10
0.00
 20
0.00
 30
0.00
 40
0.20
 41
0.20
  0
VERTEX
  8
ME_EC_PLATE_V4-EDGE_CUTS_GBR
 10
175.89506
 20
-152.193332
 30
0.00
  0
VERTEX
  8
ME_EC_PLATE_V4-EDGE_CUTS_GBR
 10
175.89506
 20
-140.093332
 30
0.00
  0
SEQEND
  0
POLYLINE
  8
ME_EC_PLATE_V4-EDGE_CUTS_GBR
 66
1
 10
0.00
 20
0.00
 30
0.00
 40
0.20
 41
0.20
  0
VERTEX
  8
ME_EC_PLATE_V4-EDGE_CUTS_GBR
 10
176.89506
 20
-153.193332
 30
0.00
  0
VERTEX
  8
ME_EC_PLATE_V4-EDGE_CUTS_GBR
 10
175.89506
 20
-152.193332
 30
0.00
  0
SEQEND
  0
POLYLINE
  8
ME_EC_PLATE_V4-EDGE_CUTS_GBR
 66
1
 10
0.00
 20
0.00
 30
0.00
 40
0.20
 41
0.20
  0
VERTEX
  8
ME_EC_PLATE_V4-EDGE_CUTS_GBR
 10
189.59506
 20
-153.193332
 30
0.00
  0
VERTEX
  8
ME_EC_PLATE_V4-EDGE_CUTS_GBR
 10
176.89506
 20
-153.193332
 30
0.00
  0
SEQEND
  0
POLYLINE
  8
ME_EC_PLATE_V4-EDGE_CUTS_GBR
 66
1
 10
0.00
 20
0.00
 30
0.00
 40
0.20
 41
0.20
  0
VERTEX
  8
ME_EC_PLATE_V4-EDGE_CUTS_GBR
 10
190.59506
 20
-152.193332
 30
0.00
  0
VERTEX
  8
ME_EC_PLATE_V4-EDGE_CUTS_GBR
 10
189.59506
 20
-153.193332
 30
0.00
  0
SEQEND
  0
POLYLINE
  8
ME_EC_PLATE_V4-EDGE_CUTS_GBR
 66
1
 10
0.00
 20
0.00
 30
0.00
 40
0.20
 41
0.20
  0
VERTEX
  8
ME_EC_PLATE_V4-EDGE_CUTS_GBR
 10
190.59506
 20
-140.093332
 30
0.00
  0
VERTEX
  8
ME_EC_PLATE_V4-EDGE_CUTS_GBR
 10
190.59506
 20
-152.193332
 30
0.00
  0
SEQEND
  0
POLYLINE
  8
ME_EC_PLATE_V4-EDGE_CUTS_GBR
 66
1
 10
0.00
 20
0.00
 30
0.00
 40
0.20
 41
0.20
  0
VERTEX
  8
ME_EC_PLATE_V4-EDGE_CUTS_GBR
 10
189.59506
 20
-139.093332
 30
0.00
  0
VERTEX
  8
ME_EC_PLATE_V4-EDGE_CUTS_GBR
 10
190.59506
 20
-140.093332
 30
0.00
  0
SEQEND
  0
POLYLINE
  8
ME_EC_PLATE_V4-EDGE_CUTS_GBR
 66
1
 10
0.00
 20
0.00
 30
0.00
 40
0.20
 41
0.20
  0
VERTEX
  8
ME_EC_PLATE_V4-EDGE_CUTS_GBR
 10
176.89506
 20
-139.093332
 30
0.00
  0
VERTEX
  8
ME_EC_PLATE_V4-EDGE_CUTS_GBR
 10
189.59506
 20
-139.093332
 30
0.00
  0
SEQEND
  0
POLYLINE
  8
ME_EC_PLATE_V4-EDGE_CUTS_GBR
 66
1
 10
0.00
 20
0.00
 30
0.00
 40
0.20
 41
0.20
  0
VERTEX
  8
ME_EC_PLATE_V4-EDGE_CUTS_GBR
 10
156.89506
 20
-140.093332
 30
0.00
  0
VERTEX
  8
ME_EC_PLATE_V4-EDGE_CUTS_GBR
 10
157.89506
 20
-139.093332
 30
0.00
  0
SEQEND
  0
POLYLINE
  8
ME_EC_PLATE_V4-EDGE_CUTS_GBR
 66
1
 10
0.00
 20
0.00
 30
0.00
 40
0.20
 41
0.20
  0
VERTEX
  8
ME_EC_PLATE_V4-EDGE_CUTS_GBR
 10
156.89506
 20
-152.193332
 30
0.00
  0
VERTEX
  8
ME_EC_PLATE_V4-EDGE_CUTS_GBR
 10
156.89506
 20
-140.093332
 30
0.00
  0
SEQEND
  0
POLYLINE
  8
ME_EC_PLATE_V4-EDGE_CUTS_GBR
 66
1
 10
0.00
 20
0.00
 30
0.00
 40
0.20
 41
0.20
  0
VERTEX
  8
ME_EC_PLATE_V4-EDGE_CUTS_GBR
 10
157.89506
 20
-153.193332
 30
0.00
  0
VERTEX
  8
ME_EC_PLATE_V4-EDGE_CUTS_GBR
 10
156.89506
 20
-152.193332
 30
0.00
  0
SEQEND
  0
POLYLINE
  8
ME_EC_PLATE_V4-EDGE_CUTS_GBR
 66
1
 10
0.00
 20
0.00
 30
0.00
 40
0.20
 41
0.20
  0
VERTEX
  8
ME_EC_PLATE_V4-EDGE_CUTS_GBR
 10
170.59506
 20
-153.193332
 30
0.00
  0
VERTEX
  8
ME_EC_PLATE_V4-EDGE_CUTS_GBR
 10
157.89506
 20
-153.193332
 30
0.00
  0
SEQEND
  0
POLYLINE
  8
ME_EC_PLATE_V4-EDGE_CUTS_GBR
 66
1
 10
0.00
 20
0.00
 30
0.00
 40
0.20
 41
0.20
  0
VERTEX
  8
ME_EC_PLATE_V4-EDGE_CUTS_GBR
 10
171.59506
 20
-152.193332
 30
0.00
  0
VERTEX
  8
ME_EC_PLATE_V4-EDGE_CUTS_GBR
 10
170.59506
 20
-153.193332
 30
0.00
  0
SEQEND
  0
POLYLINE
  8
ME_EC_PLATE_V4-EDGE_CUTS_GBR
 66
1
 10
0.00
 20
0.00
 30
0.00
 40
0.20
 41
0.20
  0
VERTEX
  8
ME_EC_PLATE_V4-EDGE_CUTS_GBR
 10
171.59506
 20
-140.093332
 30
0.00
  0
VERTEX
  8
ME_EC_PLATE_V4-EDGE_CUTS_GBR
 10
171.59506
 20
-152.193332
 30
0.00
  0
SEQEND
  0
POLYLINE
  8
ME_EC_PLATE_V4-EDGE_CUTS_GBR
 66
1
 10
0.00
 20
0.00
 30
0.00
 40
0.20
 41
0.20
  0
VERTEX
  8
ME_EC_PLATE_V4-EDGE_CUTS_GBR
 10
170.59506
 20
-139.093332
 30
0.00
  0
VERTEX
  8
ME_EC_PLATE_V4-EDGE_CUTS_GBR
 10
171.59506
 20
-140.093332
 30
0.00
  0
SEQEND
  0
POLYLINE
  8
ME_EC_PLATE_V4-EDGE_CUTS_GBR
 66
1
 10
0.00
 20
0.00
 30
0.00
 40
0.20
 41
0.20
  0
VERTEX
  8
ME_EC_PLATE_V4-EDGE_CUTS_GBR
 10
157.89506
 20
-139.093332
 30
0.00
  0
VERTEX
  8
ME_EC_PLATE_V4-EDGE_CUTS_GBR
 10
170.59506
 20
-139.093332
 30
0.00
  0
SEQEND
  0
POLYLINE
  8
ME_EC_PLATE_V4-EDGE_CUTS_GBR
 66
1
 10
0.00
 20
0.00
 30
0.00
 40
0.20
 41
0.20
  0
VERTEX
  8
ME_EC_PLATE_V4-EDGE_CUTS_GBR
 10
137.89506
 20
-140.093332
 30
0.00
  0
VERTEX
  8
ME_EC_PLATE_V4-EDGE_CUTS_GBR
 10
138.89506
 20
-139.093332
 30
0.00
  0
SEQEND
  0
POLYLINE
  8
ME_EC_PLATE_V4-EDGE_CUTS_GBR
 66
1
 10
0.00
 20
0.00
 30
0.00
 40
0.20
 41
0.20
  0
VERTEX
  8
ME_EC_PLATE_V4-EDGE_CUTS_GBR
 10
137.89506
 20
-152.193332
 30
0.00
  0
VERTEX
  8
ME_EC_PLATE_V4-EDGE_CUTS_GBR
 10
137.89506
 20
-140.093332
 30
0.00
  0
SEQEND
  0
POLYLINE
  8
ME_EC_PLATE_V4-EDGE_CUTS_GBR
 66
1
 10
0.00
 20
0.00
 30
0.00
 40
0.20
 41
0.20
  0
VERTEX
  8
ME_EC_PLATE_V4-EDGE_CUTS_GBR
 10
138.89506
 20
-153.193332
 30
0.00
  0
VERTEX
  8
ME_EC_PLATE_V4-EDGE_CUTS_GBR
 10
137.89506
 20
-152.193332
 30
0.00
  0
SEQEND
  0
POLYLINE
  8
ME_EC_PLATE_V4-EDGE_CUTS_GBR
 66
1
 10
0.00
 20
0.00
 30
0.00
 40
0.20
 41
0.20
  0
VERTEX
  8
ME_EC_PLATE_V4-EDGE_CUTS_GBR
 10
151.59506
 20
-153.193332
 30
0.00
  0
VERTEX
  8
ME_EC_PLATE_V4-EDGE_CUTS_GBR
 10
138.89506
 20
-153.193332
 30
0.00
  0
SEQEND
  0
POLYLINE
  8
ME_EC_PLATE_V4-EDGE_CUTS_GBR
 66
1
 10
0.00
 20
0.00
 30
0.00
 40
0.20
 41
0.20
  0
VERTEX
  8
ME_EC_PLATE_V4-EDGE_CUTS_GBR
 10
152.59506
 20
-152.193332
 30
0.00
  0
VERTEX
  8
ME_EC_PLATE_V4-EDGE_CUTS_GBR
 10
151.59506
 20
-153.193332
 30
0.00
  0
SEQEND
  0
POLYLINE
  8
ME_EC_PLATE_V4-EDGE_CUTS_GBR
 66
1
 10
0.00
 20
0.00
 30
0.00
 40
0.20
 41
0.20
  0
VERTEX
  8
ME_EC_PLATE_V4-EDGE_CUTS_GBR
 10
152.59506
 20
-140.093332
 30
0.00
  0
VERTEX
  8
ME_EC_PLATE_V4-EDGE_CUTS_GBR
 10
152.59506
 20
-152.193332
 30
0.00
  0
SEQEND
  0
POLYLINE
  8
ME_EC_PLATE_V4-EDGE_CUTS_GBR
 66
1
 10
0.00
 20
0.00
 30
0.00
 40
0.20
 41
0.20
  0
VERTEX
  8
ME_EC_PLATE_V4-EDGE_CUTS_GBR
 10
151.59506
 20
-139.093332
 30
0.00
  0
VERTEX
  8
ME_EC_PLATE_V4-EDGE_CUTS_GBR
 10
152.59506
 20
-140.093332
 30
0.00
  0
SEQEND
  0
POLYLINE
  8
ME_EC_PLATE_V4-EDGE_CUTS_GBR
 66
1
 10
0.00
 20
0.00
 30
0.00
 40
0.20
 41
0.20
  0
VERTEX
  8
ME_EC_PLATE_V4-EDGE_CUTS_GBR
 10
138.89506
 20
-139.093332
 30
0.00
  0
VERTEX
  8
ME_EC_PLATE_V4-EDGE_CUTS_GBR
 10
151.59506
 20
-139.093332
 30
0.00
  0
SEQEND
  0
POLYLINE
  8
ME_EC_PLATE_V4-EDGE_CUTS_GBR
 66
1
 10
0.00
 20
0.00
 30
0.00
 40
0.20
 41
0.20
  0
VERTEX
  8
ME_EC_PLATE_V4-EDGE_CUTS_GBR
 10
118.89506
 20
-140.093332
 30
0.00
  0
VERTEX
  8
ME_EC_PLATE_V4-EDGE_CUTS_GBR
 10
119.89506
 20
-139.093332
 30
0.00
  0
SEQEND
  0
POLYLINE
  8
ME_EC_PLATE_V4-EDGE_CUTS_GBR
 66
1
 10
0.00
 20
0.00
 30
0.00
 40
0.20
 41
0.20
  0
VERTEX
  8
ME_EC_PLATE_V4-EDGE_CUTS_GBR
 10
118.89506
 20
-152.193332
 30
0.00
  0
VERTEX
  8
ME_EC_PLATE_V4-EDGE_CUTS_GBR
 10
118.89506
 20
-140.093332
 30
0.00
  0
SEQEND
  0
POLYLINE
  8
ME_EC_PLATE_V4-EDGE_CUTS_GBR
 66
1
 10
0.00
 20
0.00
 30
0.00
 40
0.20
 41
0.20
  0
VERTEX
  8
ME_EC_PLATE_V4-EDGE_CUTS_GBR
 10
119.89506
 20
-153.193332
 30
0.00
  0
VERTEX
  8
ME_EC_PLATE_V4-EDGE_CUTS_GBR
 10
118.89506
 20
-152.193332
 30
0.00
  0
SEQEND
  0
POLYLINE
  8
ME_EC_PLATE_V4-EDGE_CUTS_GBR
 66
1
 10
0.00
 20
0.00
 30
0.00
 40
0.20
 41
0.20
  0
VERTEX
  8
ME_EC_PLATE_V4-EDGE_CUTS_GBR
 10
132.59506
 20
-153.193332
 30
0.00
  0
VERTEX
  8
ME_EC_PLATE_V4-EDGE_CUTS_GBR
 10
119.89506
 20
-153.193332
 30
0.00
  0
SEQEND
  0
POLYLINE
  8
ME_EC_PLATE_V4-EDGE_CUTS_GBR
 66
1
 10
0.00
 20
0.00
 30
0.00
 40
0.20
 41
0.20
  0
VERTEX
  8
ME_EC_PLATE_V4-EDGE_CUTS_GBR
 10
133.59506
 20
-152.193332
 30
0.00
  0
VERTEX
  8
ME_EC_PLATE_V4-EDGE_CUTS_GBR
 10
132.59506
 20
-153.193332
 30
0.00
  0
SEQEND
  0
POLYLINE
  8
ME_EC_PLATE_V4-EDGE_CUTS_GBR
 66
1
 10
0.00
 20
0.00
 30
0.00
 40
0.20
 41
0.20
  0
VERTEX
  8
ME_EC_PLATE_V4-EDGE_CUTS_GBR
 10
133.59506
 20
-140.093332
 30
0.00
  0
VERTEX
  8
ME_EC_PLATE_V4-EDGE_CUTS_GBR
 10
133.59506
 20
-152.193332
 30
0.00
  0
SEQEND
  0
POLYLINE
  8
ME_EC_PLATE_V4-EDGE_CUTS_GBR
 66
1
 10
0.00
 20
0.00
 30
0.00
 40
0.20
 41
0.20
  0
VERTEX
  8
ME_EC_PLATE_V4-EDGE_CUTS_GBR
 10
132.59506
 20
-139.093332
 30
0.00
  0
VERTEX
  8
ME_EC_PLATE_V4-EDGE_CUTS_GBR
 10
133.59506
 20
-140.093332
 30
0.00
  0
SEQEND
  0
POLYLINE
  8
ME_EC_PLATE_V4-EDGE_CUTS_GBR
 66
1
 10
0.00
 20
0.00
 30
0.00
 40
0.20
 41
0.20
  0
VERTEX
  8
ME_EC_PLATE_V4-EDGE_CUTS_GBR
 10
119.89506
 20
-139.093332
 30
0.00
  0
VERTEX
  8
ME_EC_PLATE_V4-EDGE_CUTS_GBR
 10
132.59506
 20
-139.093332
 30
0.00
  0
SEQEND
  0
POLYLINE
  8
ME_EC_PLATE_V4-EDGE_CUTS_GBR
 66
1
 10
0.00
 20
0.00
 30
0.00
 40
0.20
 41
0.20
  0
VERTEX
  8
ME_EC_PLATE_V4-EDGE_CUTS_GBR
 10
99.89506
 20
-140.093332
 30
0.00
  0
VERTEX
  8
ME_EC_PLATE_V4-EDGE_CUTS_GBR
 10
100.89506
 20
-139.093332
 30
0.00
  0
SEQEND
  0
POLYLINE
  8
ME_EC_PLATE_V4-EDGE_CUTS_GBR
 66
1
 10
0.00
 20
0.00
 30
0.00
 40
0.20
 41
0.20
  0
VERTEX
  8
ME_EC_PLATE_V4-EDGE_CUTS_GBR
 10
99.89506
 20
-152.193332
 30
0.00
  0
VERTEX
  8
ME_EC_PLATE_V4-EDGE_CUTS_GBR
 10
99.89506
 20
-140.093332
 30
0.00
  0
SEQEND
  0
POLYLINE
  8
ME_EC_PLATE_V4-EDGE_CUTS_GBR
 66
1
 10
0.00
 20
0.00
 30
0.00
 40
0.20
 41
0.20
  0
VERTEX
  8
ME_EC_PLATE_V4-EDGE_CUTS_GBR
 10
100.89506
 20
-153.193332
 30
0.00
  0
VERTEX
  8
ME_EC_PLATE_V4-EDGE_CUTS_GBR
 10
99.89506
 20
-152.193332
 30
0.00
  0
SEQEND
  0
POLYLINE
  8
ME_EC_PLATE_V4-EDGE_CUTS_GBR
 66
1
 10
0.00
 20
0.00
 30
0.00
 40
0.20
 41
0.20
  0
VERTEX
  8
ME_EC_PLATE_V4-EDGE_CUTS_GBR
 10
113.59506
 20
-153.193332
 30
0.00
  0
VERTEX
  8
ME_EC_PLATE_V4-EDGE_CUTS_GBR
 10
100.89506
 20
-153.193332
 30
0.00
  0
SEQEND
  0
POLYLINE
  8
ME_EC_PLATE_V4-EDGE_CUTS_GBR
 66
1
 10
0.00
 20
0.00
 30
0.00
 40
0.20
 41
0.20
  0
VERTEX
  8
ME_EC_PLATE_V4-EDGE_CUTS_GBR
 10
114.59506
 20
-152.193332
 30
0.00
  0
VERTEX
  8
ME_EC_PLATE_V4-EDGE_CUTS_GBR
 10
113.59506
 20
-153.193332
 30
0.00
  0
SEQEND
  0
POLYLINE
  8
ME_EC_PLATE_V4-EDGE_CUTS_GBR
 66
1
 10
0.00
 20
0.00
 30
0.00
 40
0.20
 41
0.20
  0
VERTEX
  8
ME_EC_PLATE_V4-EDGE_CUTS_GBR
 10
114.59506
 20
-140.093332
 30
0.00
  0
VERTEX
  8
ME_EC_PLATE_V4-EDGE_CUTS_GBR
 10
114.59506
 20
-152.193332
 30
0.00
  0
SEQEND
  0
POLYLINE
  8
ME_EC_PLATE_V4-EDGE_CUTS_GBR
 66
1
 10
0.00
 20
0.00
 30
0.00
 40
0.20
 41
0.20
  0
VERTEX
  8
ME_EC_PLATE_V4-EDGE_CUTS_GBR
 10
113.59506
 20
-139.093332
 30
0.00
  0
VERTEX
  8
ME_EC_PLATE_V4-EDGE_CUTS_GBR
 10
114.59506
 20
-140.093332
 30
0.00
  0
SEQEND
  0
POLYLINE
  8
ME_EC_PLATE_V4-EDGE_CUTS_GBR
 66
1
 10
0.00
 20
0.00
 30
0.00
 40
0.20
 41
0.20
  0
VERTEX
  8
ME_EC_PLATE_V4-EDGE_CUTS_GBR
 10
100.89506
 20
-139.093332
 30
0.00
  0
VERTEX
  8
ME_EC_PLATE_V4-EDGE_CUTS_GBR
 10
113.59506
 20
-139.093332
 30
0.00
  0
SEQEND
  0
POLYLINE
  8
ME_EC_PLATE_V4-EDGE_CUTS_GBR
 66
1
 10
0.00
 20
0.00
 30
0.00
 40
0.20
 41
0.20
  0
VERTEX
  8
ME_EC_PLATE_V4-EDGE_CUTS_GBR
 10
80.89506
 20
-140.093332
 30
0.00
  0
VERTEX
  8
ME_EC_PLATE_V4-EDGE_CUTS_GBR
 10
81.89506
 20
-139.093332
 30
0.00
  0
SEQEND
  0
POLYLINE
  8
ME_EC_PLATE_V4-EDGE_CUTS_GBR
 66
1
 10
0.00
 20
0.00
 30
0.00
 40
0.20
 41
0.20
  0
VERTEX
  8
ME_EC_PLATE_V4-EDGE_CUTS_GBR
 10
80.89506
 20
-152.193332
 30
0.00
  0
VERTEX
  8
ME_EC_PLATE_V4-EDGE_CUTS_GBR
 10
80.89506
 20
-140.093332
 30
0.00
  0
SEQEND
  0
POLYLINE
  8
ME_EC_PLATE_V4-EDGE_CUTS_GBR
 66
1
 10
0.00
 20
0.00
 30
0.00
 40
0.20
 41
0.20
  0
VERTEX
  8
ME_EC_PLATE_V4-EDGE_CUTS_GBR
 10
81.89506
 20
-153.193332
 30
0.00
  0
VERTEX
  8
ME_EC_PLATE_V4-EDGE_CUTS_GBR
 10
80.89506
 20
-152.193332
 30
0.00
  0
SEQEND
  0
POLYLINE
  8
ME_EC_PLATE_V4-EDGE_CUTS_GBR
 66
1
 10
0.00
 20
0.00
 30
0.00
 40
0.20
 41
0.20
  0
VERTEX
  8
ME_EC_PLATE_V4-EDGE_CUTS_GBR
 10
94.59506
 20
-153.193332
 30
0.00
  0
VERTEX
  8
ME_EC_PLATE_V4-EDGE_CUTS_GBR
 10
81.89506
 20
-153.193332
 30
0.00
  0
SEQEND
  0
POLYLINE
  8
ME_EC_PLATE_V4-EDGE_CUTS_GBR
 66
1
 10
0.00
 20
0.00
 30
0.00
 40
0.20
 41
0.20
  0
VERTEX
  8
ME_EC_PLATE_V4-EDGE_CUTS_GBR
 10
95.59506
 20
-152.193332
 30
0.00
  0
VERTEX
  8
ME_EC_PLATE_V4-EDGE_CUTS_GBR
 10
94.59506
 20
-153.193332
 30
0.00
  0
SEQEND
  0
POLYLINE
  8
ME_EC_PLATE_V4-EDGE_CUTS_GBR
 66
1
 10
0.00
 20
0.00
 30
0.00
 40
0.20
 41
0.20
  0
VERTEX
  8
ME_EC_PLATE_V4-EDGE_CUTS_GBR
 10
95.59506
 20
-140.093332
 30
0.00
  0
VERTEX
  8
ME_EC_PLATE_V4-EDGE_CUTS_GBR
 10
95.59506
 20
-152.193332
 30
0.00
  0
SEQEND
  0
POLYLINE
  8
ME_EC_PLATE_V4-EDGE_CUTS_GBR
 66
1
 10
0.00
 20
0.00
 30
0.00
 40
0.20
 41
0.20
  0
VERTEX
  8
ME_EC_PLATE_V4-EDGE_CUTS_GBR
 10
94.59506
 20
-139.093332
 30
0.00
  0
VERTEX
  8
ME_EC_PLATE_V4-EDGE_CUTS_GBR
 10
95.59506
 20
-140.093332
 30
0.00
  0
SEQEND
  0
POLYLINE
  8
ME_EC_PLATE_V4-EDGE_CUTS_GBR
 66
1
 10
0.00
 20
0.00
 30
0.00
 40
0.20
 41
0.20
  0
VERTEX
  8
ME_EC_PLATE_V4-EDGE_CUTS_GBR
 10
81.89506
 20
-139.093332
 30
0.00
  0
VERTEX
  8
ME_EC_PLATE_V4-EDGE_CUTS_GBR
 10
94.59506
 20
-139.093332
 30
0.00
  0
SEQEND
  0
POLYLINE
  8
ME_EC_PLATE_V4-EDGE_CUTS_GBR
 66
1
 10
0.00
 20
0.00
 30
0.00
 40
0.20
 41
0.20
  0
VERTEX
  8
ME_EC_PLATE_V4-EDGE_CUTS_GBR
 10
54.44756
 20
-140.093332
 30
0.00
  0
VERTEX
  8
ME_EC_PLATE_V4-EDGE_CUTS_GBR
 10
55.44756
 20
-139.093332
 30
0.00
  0
SEQEND
  0
POLYLINE
  8
ME_EC_PLATE_V4-EDGE_CUTS_GBR
 66
1
 10
0.00
 20
0.00
 30
0.00
 40
0.20
 41
0.20
  0
VERTEX
  8
ME_EC_PLATE_V4-EDGE_CUTS_GBR
 10
54.44756
 20
-152.193332
 30
0.00
  0
VERTEX
  8
ME_EC_PLATE_V4-EDGE_CUTS_GBR
 10
54.44756
 20
-140.093332
 30
0.00
  0
SEQEND
  0
POLYLINE
  8
ME_EC_PLATE_V4-EDGE_CUTS_GBR
 66
1
 10
0.00
 20
0.00
 30
0.00
 40
0.20
 41
0.20
  0
VERTEX
  8
ME_EC_PLATE_V4-EDGE_CUTS_GBR
 10
55.44756
 20
-153.193332
 30
0.00
  0
VERTEX
  8
ME_EC_PLATE_V4-EDGE_CUTS_GBR
 10
54.44756
 20
-152.193332
 30
0.00
  0
SEQEND
  0
POLYLINE
  8
ME_EC_PLATE_V4-EDGE_CUTS_GBR
 66
1
 10
0.00
 20
0.00
 30
0.00
 40
0.20
 41
0.20
  0
VERTEX
  8
ME_EC_PLATE_V4-EDGE_CUTS_GBR
 10
68.14756
 20
-153.193332
 30
0.00
  0
VERTEX
  8
ME_EC_PLATE_V4-EDGE_CUTS_GBR
 10
55.44756
 20
-153.193332
 30
0.00
  0
SEQEND
  0
POLYLINE
  8
ME_EC_PLATE_V4-EDGE_CUTS_GBR
 66
1
 10
0.00
 20
0.00
 30
0.00
 40
0.20
 41
0.20
  0
VERTEX
  8
ME_EC_PLATE_V4-EDGE_CUTS_GBR
 10
69.14756
 20
-152.193332
 30
0.00
  0
VERTEX
  8
ME_EC_PLATE_V4-EDGE_CUTS_GBR
 10
68.14756
 20
-153.193332
 30
0.00
  0
SEQEND
  0
POLYLINE
  8
ME_EC_PLATE_V4-EDGE_CUTS_GBR
 66
1
 10
0.00
 20
0.00
 30
0.00
 40
0.20
 41
0.20
  0
VERTEX
  8
ME_EC_PLATE_V4-EDGE_CUTS_GBR
 10
69.14756
 20
-140.093332
 30
0.00
  0
VERTEX
  8
ME_EC_PLATE_V4-EDGE_CUTS_GBR
 10
69.14756
 20
-152.193332
 30
0.00
  0
SEQEND
  0
POLYLINE
  8
ME_EC_PLATE_V4-EDGE_CUTS_GBR
 66
1
 10
0.00
 20
0.00
 30
0.00
 40
0.20
 41
0.20
  0
VERTEX
  8
ME_EC_PLATE_V4-EDGE_CUTS_GBR
 10
68.14756
 20
-139.093332
 30
0.00
  0
VERTEX
  8
ME_EC_PLATE_V4-EDGE_CUTS_GBR
 10
69.14756
 20
-140.093332
 30
0.00
  0
SEQEND
  0
POLYLINE
  8
ME_EC_PLATE_V4-EDGE_CUTS_GBR
 66
1
 10
0.00
 20
0.00
 30
0.00
 40
0.20
 41
0.20
  0
VERTEX
  8
ME_EC_PLATE_V4-EDGE_CUTS_GBR
 10
55.44756
 20
-139.093332
 30
0.00
  0
VERTEX
  8
ME_EC_PLATE_V4-EDGE_CUTS_GBR
 10
68.14756
 20
-139.093332
 30
0.00
  0
SEQEND
  0
POLYLINE
  8
ME_EC_PLATE_V4-EDGE_CUTS_GBR
 66
1
 10
0.00
 20
0.00
 30
0.00
 40
0.20
 41
0.20
  0
VERTEX
  8
ME_EC_PLATE_V4-EDGE_CUTS_GBR
 10
209.14506
 20
-121.073332
 30
0.00
  0
VERTEX
  8
ME_EC_PLATE_V4-EDGE_CUTS_GBR
 10
210.14506
 20
-120.073332
 30
0.00
  0
SEQEND
  0
POLYLINE
  8
ME_EC_PLATE_V4-EDGE_CUTS_GBR
 66
1
 10
0.00
 20
0.00
 30
0.00
 40
0.20
 41
0.20
  0
VERTEX
  8
ME_EC_PLATE_V4-EDGE_CUTS_GBR
 10
209.14506
 20
-133.173332
 30
0.00
  0
VERTEX
  8
ME_EC_PLATE_V4-EDGE_CUTS_GBR
 10
209.14506
 20
-121.073332
 30
0.00
  0
SEQEND
  0
POLYLINE
  8
ME_EC_PLATE_V4-EDGE_CUTS_GBR
 66
1
 10
0.00
 20
0.00
 30
0.00
 40
0.20
 41
0.20
  0
VERTEX
  8
ME_EC_PLATE_V4-EDGE_CUTS_GBR
 10
210.14506
 20
-134.173332
 30
0.00
  0
VERTEX
  8
ME_EC_PLATE_V4-EDGE_CUTS_GBR
 10
209.14506
 20
-133.173332
 30
0.00
  0
SEQEND
  0
POLYLINE
  8
ME_EC_PLATE_V4-EDGE_CUTS_GBR
 66
1
 10
0.00
 20
0.00
 30
0.00
 40
0.20
 41
0.20
  0
VERTEX
  8
ME_EC_PLATE_V4-EDGE_CUTS_GBR
 10
222.84506
 20
-134.173332
 30
0.00
  0
VERTEX
  8
ME_EC_PLATE_V4-EDGE_CUTS_GBR
 10
210.14506
 20
-134.173332
 30
0.00
  0
SEQEND
  0
POLYLINE
  8
ME_EC_PLATE_V4-EDGE_CUTS_GBR
 66
1
 10
0.00
 20
0.00
 30
0.00
 40
0.20
 41
0.20
  0
VERTEX
  8
ME_EC_PLATE_V4-EDGE_CUTS_GBR
 10
223.84506
 20
-133.173332
 30
0.00
  0
VERTEX
  8
ME_EC_PLATE_V4-EDGE_CUTS_GBR
 10
222.84506
 20
-134.173332
 30
0.00
  0
SEQEND
  0
POLYLINE
  8
ME_EC_PLATE_V4-EDGE_CUTS_GBR
 66
1
 10
0.00
 20
0.00
 30
0.00
 40
0.20
 41
0.20
  0
VERTEX
  8
ME_EC_PLATE_V4-EDGE_CUTS_GBR
 10
223.84506
 20
-121.073332
 30
0.00
  0
VERTEX
  8
ME_EC_PLATE_V4-EDGE_CUTS_GBR
 10
223.84506
 20
-133.173332
 30
0.00
  0
SEQEND
  0
POLYLINE
  8
ME_EC_PLATE_V4-EDGE_CUTS_GBR
 66
1
 10
0.00
 20
0.00
 30
0.00
 40
0.20
 41
0.20
  0
VERTEX
  8
ME_EC_PLATE_V4-EDGE_CUTS_GBR
 10
222.84506
 20
-120.073332
 30
0.00
  0
VERTEX
  8
ME_EC_PLATE_V4-EDGE_CUTS_GBR
 10
223.84506
 20
-121.073332
 30
0.00
  0
SEQEND
  0
POLYLINE
  8
ME_EC_PLATE_V4-EDGE_CUTS_GBR
 66
1
 10
0.00
 20
0.00
 30
0.00
 40
0.20
 41
0.20
  0
VERTEX
  8
ME_EC_PLATE_V4-EDGE_CUTS_GBR
 10
210.14506
 20
-120.073332
 30
0.00
  0
VERTEX
  8
ME_EC_PLATE_V4-EDGE_CUTS_GBR
 10
222.84506
 20
-120.073332
 30
0.00
  0
SEQEND
  0
POLYLINE
  8
ME_EC_PLATE_V4-EDGE_CUTS_GBR
 66
1
 10
0.00
 20
0.00
 30
0.00
 40
0.20
 41
0.20
  0
VERTEX
  8
ME_EC_PLATE_V4-EDGE_CUTS_GBR
 10
190.12506
 20
-121.073332
 30
0.00
  0
VERTEX
  8
ME_EC_PLATE_V4-EDGE_CUTS_GBR
 10
191.12506
 20
-120.073332
 30
0.00
  0
SEQEND
  0
POLYLINE
  8
ME_EC_PLATE_V4-EDGE_CUTS_GBR
 66
1
 10
0.00
 20
0.00
 30
0.00
 40
0.20
 41
0.20
  0
VERTEX
  8
ME_EC_PLATE_V4-EDGE_CUTS_GBR
 10
190.12506
 20
-133.173332
 30
0.00
  0
VERTEX
  8
ME_EC_PLATE_V4-EDGE_CUTS_GBR
 10
190.12506
 20
-121.073332
 30
0.00
  0
SEQEND
  0
POLYLINE
  8
ME_EC_PLATE_V4-EDGE_CUTS_GBR
 66
1
 10
0.00
 20
0.00
 30
0.00
 40
0.20
 41
0.20
  0
VERTEX
  8
ME_EC_PLATE_V4-EDGE_CUTS_GBR
 10
191.12506
 20
-134.173332
 30
0.00
  0
VERTEX
  8
ME_EC_PLATE_V4-EDGE_CUTS_GBR
 10
190.12506
 20
-133.173332
 30
0.00
  0
SEQEND
  0
POLYLINE
  8
ME_EC_PLATE_V4-EDGE_CUTS_GBR
 66
1
 10
0.00
 20
0.00
 30
0.00
 40
0.20
 41
0.20
  0
VERTEX
  8
ME_EC_PLATE_V4-EDGE_CUTS_GBR
 10
203.82506
 20
-134.173332
 30
0.00
  0
VERTEX
  8
ME_EC_PLATE_V4-EDGE_CUTS_GBR
 10
191.12506
 20
-134.173332
 30
0.00
  0
SEQEND
  0
POLYLINE
  8
ME_EC_PLATE_V4-EDGE_CUTS_GBR
 66
1
 10
0.00
 20
0.00
 30
0.00
 40
0.20
 41
0.20
  0
VERTEX
  8
ME_EC_PLATE_V4-EDGE_CUTS_GBR
 10
204.82506
 20
-133.173332
 30
0.00
  0
VERTEX
  8
ME_EC_PLATE_V4-EDGE_CUTS_GBR
 10
203.82506
 20
-134.173332
 30
0.00
  0
SEQEND
  0
POLYLINE
  8
ME_EC_PLATE_V4-EDGE_CUTS_GBR
 66
1
 10
0.00
 20
0.00
 30
0.00
 40
0.20
 41
0.20
  0
VERTEX
  8
ME_EC_PLATE_V4-EDGE_CUTS_GBR
 10
204.82506
 20
-121.073332
 30
0.00
  0
VERTEX
  8
ME_EC_PLATE_V4-EDGE_CUTS_GBR
 10
204.82506
 20
-133.173332
 30
0.00
  0
SEQEND
  0
POLYLINE
  8
ME_EC_PLATE_V4-EDGE_CUTS_GBR
 66
1
 10
0.00
 20
0.00
 30
0.00
 40
0.20
 41
0.20
  0
VERTEX
  8
ME_EC_PLATE_V4-EDGE_CUTS_GBR
 10
203.82506
 20
-120.073332
 30
0.00
  0
VERTEX
  8
ME_EC_PLATE_V4-EDGE_CUTS_GBR
 10
204.82506
 20
-121.073332
 30
0.00
  0
SEQEND
  0
POLYLINE
  8
ME_EC_PLATE_V4-EDGE_CUTS_GBR
 66
1
 10
0.00
 20
0.00
 30
0.00
 40
0.20
 41
0.20
  0
VERTEX
  8
ME_EC_PLATE_V4-EDGE_CUTS_GBR
 10
191.12506
 20
-120.073332
 30
0.00
  0
VERTEX
  8
ME_EC_PLATE_V4-EDGE_CUTS_GBR
 10
203.82506
 20
-120.073332
 30
0.00
  0
SEQEND
  0
POLYLINE
  8
ME_EC_PLATE_V4-EDGE_CUTS_GBR
 66
1
 10
0.00
 20
0.00
 30
0.00
 40
0.20
 41
0.20
  0
VERTEX
  8
ME_EC_PLATE_V4-EDGE_CUTS_GBR
 10
171.10506
 20
-121.073332
 30
0.00
  0
VERTEX
  8
ME_EC_PLATE_V4-EDGE_CUTS_GBR
 10
172.10506
 20
-120.073332
 30
0.00
  0
SEQEND
  0
POLYLINE
  8
ME_EC_PLATE_V4-EDGE_CUTS_GBR
 66
1
 10
0.00
 20
0.00
 30
0.00
 40
0.20
 41
0.20
  0
VERTEX
  8
ME_EC_PLATE_V4-EDGE_CUTS_GBR
 10
171.10506
 20
-133.173332
 30
0.00
  0
VERTEX
  8
ME_EC_PLATE_V4-EDGE_CUTS_GBR
 10
171.10506
 20
-121.073332
 30
0.00
  0
SEQEND
  0
POLYLINE
  8
ME_EC_PLATE_V4-EDGE_CUTS_GBR
 66
1
 10
0.00
 20
0.00
 30
0.00
 40
0.20
 41
0.20
  0
VERTEX
  8
ME_EC_PLATE_V4-EDGE_CUTS_GBR
 10
172.10506
 20
-134.173332
 30
0.00
  0
VERTEX
  8
ME_EC_PLATE_V4-EDGE_CUTS_GBR
 10
171.10506
 20
-133.173332
 30
0.00
  0
SEQEND
  0
POLYLINE
  8
ME_EC_PLATE_V4-EDGE_CUTS_GBR
 66
1
 10
0.00
 20
0.00
 30
0.00
 40
0.20
 41
0.20
  0
VERTEX
  8
ME_EC_PLATE_V4-EDGE_CUTS_GBR
 10
184.80506
 20
-134.173332
 30
0.00
  0
VERTEX
  8
ME_EC_PLATE_V4-EDGE_CUTS_GBR
 10
172.10506
 20
-134.173332
 30
0.00
  0
SEQEND
  0
POLYLINE
  8
ME_EC_PLATE_V4-EDGE_CUTS_GBR
 66
1
 10
0.00
 20
0.00
 30
0.00
 40
0.20
 41
0.20
  0
VERTEX
  8
ME_EC_PLATE_V4-EDGE_CUTS_GBR
 10
185.80506
 20
-133.173332
 30
0.00
  0
VERTEX
  8
ME_EC_PLATE_V4-EDGE_CUTS_GBR
 10
184.80506
 20
-134.173332
 30
0.00
  0
SEQEND
  0
POLYLINE
  8
ME_EC_PLATE_V4-EDGE_CUTS_GBR
 66
1
 10
0.00
 20
0.00
 30
0.00
 40
0.20
 41
0.20
  0
VERTEX
  8
ME_EC_PLATE_V4-EDGE_CUTS_GBR
 10
185.80506
 20
-121.073332
 30
0.00
  0
VERTEX
  8
ME_EC_PLATE_V4-EDGE_CUTS_GBR
 10
185.80506
 20
-133.173332
 30
0.00
  0
SEQEND
  0
POLYLINE
  8
ME_EC_PLATE_V4-EDGE_CUTS_GBR
 66
1
 10
0.00
 20
0.00
 30
0.00
 40
0.20
 41
0.20
  0
VERTEX
  8
ME_EC_PLATE_V4-EDGE_CUTS_GBR
 10
184.80506
 20
-120.073332
 30
0.00
  0
VERTEX
  8
ME_EC_PLATE_V4-EDGE_CUTS_GBR
 10
185.80506
 20
-121.073332
 30
0.00
  0
SEQEND
  0
POLYLINE
  8
ME_EC_PLATE_V4-EDGE_CUTS_GBR
 66
1
 10
0.00
 20
0.00
 30
0.00
 40
0.20
 41
0.20
  0
VERTEX
  8
ME_EC_PLATE_V4-EDGE_CUTS_GBR
 10
172.10506
 20
-120.073332
 30
0.00
  0
VERTEX
  8
ME_EC_PLATE_V4-EDGE_CUTS_GBR
 10
184.80506
 20
-120.073332
 30
0.00
  0
SEQEND
  0
POLYLINE
  8
ME_EC_PLATE_V4-EDGE_CUTS_GBR
 66
1
 10
0.00
 20
0.00
 30
0.00
 40
0.20
 41
0.20
  0
VERTEX
  8
ME_EC_PLATE_V4-EDGE_CUTS_GBR
 10
152.08506
 20
-121.073332
 30
0.00
  0
VERTEX
  8
ME_EC_PLATE_V4-EDGE_CUTS_GBR
 10
153.08506
 20
-120.073332
 30
0.00
  0
SEQEND
  0
POLYLINE
  8
ME_EC_PLATE_V4-EDGE_CUTS_GBR
 66
1
 10
0.00
 20
0.00
 30
0.00
 40
0.20
 41
0.20
  0
VERTEX
  8
ME_EC_PLATE_V4-EDGE_CUTS_GBR
 10
152.08506
 20
-133.173332
 30
0.00
  0
VERTEX
  8
ME_EC_PLATE_V4-EDGE_CUTS_GBR
 10
152.08506
 20
-121.073332
 30
0.00
  0
SEQEND
  0
POLYLINE
  8
ME_EC_PLATE_V4-EDGE_CUTS_GBR
 66
1
 10
0.00
 20
0.00
 30
0.00
 40
0.20
 41
0.20
  0
VERTEX
  8
ME_EC_PLATE_V4-EDGE_CUTS_GBR
 10
153.08506
 20
-134.173332
 30
0.00
  0
VERTEX
  8
ME_EC_PLATE_V4-EDGE_CUTS_GBR
 10
152.08506
 20
-133.173332
 30
0.00
  0
SEQEND
  0
POLYLINE
  8
ME_EC_PLATE_V4-EDGE_CUTS_GBR
 66
1
 10
0.00
 20
0.00
 30
0.00
 40
0.20
 41
0.20
  0
VERTEX
  8
ME_EC_PLATE_V4-EDGE_CUTS_GBR
 10
165.78506
 20
-134.173332
 30
0.00
  0
VERTEX
  8
ME_EC_PLATE_V4-EDGE_CUTS_GBR
 10
153.08506
 20
-134.173332
 30
0.00
  0
SEQEND
  0
POLYLINE
  8
ME_EC_PLATE_V4-EDGE_CUTS_GBR
 66
1
 10
0.00
 20
0.00
 30
0.00
 40
0.20
 41
0.20
  0
VERTEX
  8
ME_EC_PLATE_V4-EDGE_CUTS_GBR
 10
166.78506
 20
-133.173332
 30
0.00
  0
VERTEX
  8
ME_EC_PLATE_V4-EDGE_CUTS_GBR
 10
165.78506
 20
-134.173332
 30
0.00
  0
SEQEND
  0
POLYLINE
  8
ME_EC_PLATE_V4-EDGE_CUTS_GBR
 66
1
 10
0.00
 20
0.00
 30
0.00
 40
0.20
 41
0.20
  0
VERTEX
  8
ME_EC_PLATE_V4-EDGE_CUTS_GBR
 10
166.78506
 20
-121.073332
 30
0.00
  0
VERTEX
  8
ME_EC_PLATE_V4-EDGE_CUTS_GBR
 10
166.78506
 20
-133.173332
 30
0.00
  0
SEQEND
  0
POLYLINE
  8
ME_EC_PLATE_V4-EDGE_CUTS_GBR
 66
1
 10
0.00
 20
0.00
 30
0.00
 40
0.20
 41
0.20
  0
VERTEX
  8
ME_EC_PLATE_V4-EDGE_CUTS_GBR
 10
165.78506
 20
-120.073332
 30
0.00
  0
VERTEX
  8
ME_EC_PLATE_V4-EDGE_CUTS_GBR
 10
166.78506
 20
-121.073332
 30
0.00
  0
SEQEND
  0
POLYLINE
  8
ME_EC_PLATE_V4-EDGE_CUTS_GBR
 66
1
 10
0.00
 20
0.00
 30
0.00
 40
0.20
 41
0.20
  0
VERTEX
  8
ME_EC_PLATE_V4-EDGE_CUTS_GBR
 10
153.08506
 20
-120.073332
 30
0.00
  0
VERTEX
  8
ME_EC_PLATE_V4-EDGE_CUTS_GBR
 10
165.78506
 20
-120.073332
 30
0.00
  0
SEQEND
  0
POLYLINE
  8
ME_EC_PLATE_V4-EDGE_CUTS_GBR
 66
1
 10
0.00
 20
0.00
 30
0.00
 40
0.20
 41
0.20
  0
VERTEX
  8
ME_EC_PLATE_V4-EDGE_CUTS_GBR
 10
133.06506
 20
-121.073332
 30
0.00
  0
VERTEX
  8
ME_EC_PLATE_V4-EDGE_CUTS_GBR
 10
134.06506
 20
-120.073332
 30
0.00
  0
SEQEND
  0
POLYLINE
  8
ME_EC_PLATE_V4-EDGE_CUTS_GBR
 66
1
 10
0.00
 20
0.00
 30
0.00
 40
0.20
 41
0.20
  0
VERTEX
  8
ME_EC_PLATE_V4-EDGE_CUTS_GBR
 10
133.06506
 20
-133.173332
 30
0.00
  0
VERTEX
  8
ME_EC_PLATE_V4-EDGE_CUTS_GBR
 10
133.06506
 20
-121.073332
 30
0.00
  0
SEQEND
  0
POLYLINE
  8
ME_EC_PLATE_V4-EDGE_CUTS_GBR
 66
1
 10
0.00
 20
0.00
 30
0.00
 40
0.20
 41
0.20
  0
VERTEX
  8
ME_EC_PLATE_V4-EDGE_CUTS_GBR
 10
134.06506
 20
-134.173332
 30
0.00
  0
VERTEX
  8
ME_EC_PLATE_V4-EDGE_CUTS_GBR
 10
133.06506
 20
-133.173332
 30
0.00
  0
SEQEND
  0
POLYLINE
  8
ME_EC_PLATE_V4-EDGE_CUTS_GBR
 66
1
 10
0.00
 20
0.00
 30
0.00
 40
0.20
 41
0.20
  0
VERTEX
  8
ME_EC_PLATE_V4-EDGE_CUTS_GBR
 10
146.76506
 20
-134.173332
 30
0.00
  0
VERTEX
  8
ME_EC_PLATE_V4-EDGE_CUTS_GBR
 10
134.06506
 20
-134.173332
 30
0.00
  0
SEQEND
  0
POLYLINE
  8
ME_EC_PLATE_V4-EDGE_CUTS_GBR
 66
1
 10
0.00
 20
0.00
 30
0.00
 40
0.20
 41
0.20
  0
VERTEX
  8
ME_EC_PLATE_V4-EDGE_CUTS_GBR
 10
147.76506
 20
-133.173332
 30
0.00
  0
VERTEX
  8
ME_EC_PLATE_V4-EDGE_CUTS_GBR
 10
146.76506
 20
-134.173332
 30
0.00
  0
SEQEND
  0
POLYLINE
  8
ME_EC_PLATE_V4-EDGE_CUTS_GBR
 66
1
 10
0.00
 20
0.00
 30
0.00
 40
0.20
 41
0.20
  0
VERTEX
  8
ME_EC_PLATE_V4-EDGE_CUTS_GBR
 10
147.76506
 20
-121.073332
 30
0.00
  0
VERTEX
  8
ME_EC_PLATE_V4-EDGE_CUTS_GBR
 10
147.76506
 20
-133.173332
 30
0.00
  0
SEQEND
  0
POLYLINE
  8
ME_EC_PLATE_V4-EDGE_CUTS_GBR
 66
1
 10
0.00
 20
0.00
 30
0.00
 40
0.20
 41
0.20
  0
VERTEX
  8
ME_EC_PLATE_V4-EDGE_CUTS_GBR
 10
146.76506
 20
-120.073332
 30
0.00
  0
VERTEX
  8
ME_EC_PLATE_V4-EDGE_CUTS_GBR
 10
147.76506
 20
-121.073332
 30
0.00
  0
SEQEND
  0
POLYLINE
  8
ME_EC_PLATE_V4-EDGE_CUTS_GBR
 66
1
 10
0.00
 20
0.00
 30
0.00
 40
0.20
 41
0.20
  0
VERTEX
  8
ME_EC_PLATE_V4-EDGE_CUTS_GBR
 10
134.06506
 20
-120.073332
 30
0.00
  0
VERTEX
  8
ME_EC_PLATE_V4-EDGE_CUTS_GBR
 10
146.76506
 20
-120.073332
 30
0.00
  0
SEQEND
  0
POLYLINE
  8
ME_EC_PLATE_V4-EDGE_CUTS_GBR
 66
1
 10
0.00
 20
0.00
 30
0.00
 40
0.20
 41
0.20
  0
VERTEX
  8
ME_EC_PLATE_V4-EDGE_CUTS_GBR
 10
114.04506
 20
-121.073332
 30
0.00
  0
VERTEX
  8
ME_EC_PLATE_V4-EDGE_CUTS_GBR
 10
115.04506
 20
-120.073332
 30
0.00
  0
SEQEND
  0
POLYLINE
  8
ME_EC_PLATE_V4-EDGE_CUTS_GBR
 66
1
 10
0.00
 20
0.00
 30
0.00
 40
0.20
 41
0.20
  0
VERTEX
  8
ME_EC_PLATE_V4-EDGE_CUTS_GBR
 10
114.04506
 20
-133.173332
 30
0.00
  0
VERTEX
  8
ME_EC_PLATE_V4-EDGE_CUTS_GBR
 10
114.04506
 20
-121.073332
 30
0.00
  0
SEQEND
  0
POLYLINE
  8
ME_EC_PLATE_V4-EDGE_CUTS_GBR
 66
1
 10
0.00
 20
0.00
 30
0.00
 40
0.20
 41
0.20
  0
VERTEX
  8
ME_EC_PLATE_V4-EDGE_CUTS_GBR
 10
115.04506
 20
-134.173332
 30
0.00
  0
VERTEX
  8
ME_EC_PLATE_V4-EDGE_CUTS_GBR
 10
114.04506
 20
-133.173332
 30
0.00
  0
SEQEND
  0
POLYLINE
  8
ME_EC_PLATE_V4-EDGE_CUTS_GBR
 66
1
 10
0.00
 20
0.00
 30
0.00
 40
0.20
 41
0.20
  0
VERTEX
  8
ME_EC_PLATE_V4-EDGE_CUTS_GBR
 10
127.74506
 20
-134.173332
 30
0.00
  0
VERTEX
  8
ME_EC_PLATE_V4-EDGE_CUTS_GBR
 10
115.04506
 20
-134.173332
 30
0.00
  0
SEQEND
  0
POLYLINE
  8
ME_EC_PLATE_V4-EDGE_CUTS_GBR
 66
1
 10
0.00
 20
0.00
 30
0.00
 40
0.20
 41
0.20
  0
VERTEX
  8
ME_EC_PLATE_V4-EDGE_CUTS_GBR
 10
128.74506
 20
-133.173332
 30
0.00
  0
VERTEX
  8
ME_EC_PLATE_V4-EDGE_CUTS_GBR
 10
127.74506
 20
-134.173332
 30
0.00
  0
SEQEND
  0
POLYLINE
  8
ME_EC_PLATE_V4-EDGE_CUTS_GBR
 66
1
 10
0.00
 20
0.00
 30
0.00
 40
0.20
 41
0.20
  0
VERTEX
  8
ME_EC_PLATE_V4-EDGE_CUTS_GBR
 10
128.74506
 20
-121.073332
 30
0.00
  0
VERTEX
  8
ME_EC_PLATE_V4-EDGE_CUTS_GBR
 10
128.74506
 20
-133.173332
 30
0.00
  0
SEQEND
  0
POLYLINE
  8
ME_EC_PLATE_V4-EDGE_CUTS_GBR
 66
1
 10
0.00
 20
0.00
 30
0.00
 40
0.20
 41
0.20
  0
VERTEX
  8
ME_EC_PLATE_V4-EDGE_CUTS_GBR
 10
127.74506
 20
-120.073332
 30
0.00
  0
VERTEX
  8
ME_EC_PLATE_V4-EDGE_CUTS_GBR
 10
128.74506
 20
-121.073332
 30
0.00
  0
SEQEND
  0
POLYLINE
  8
ME_EC_PLATE_V4-EDGE_CUTS_GBR
 66
1
 10
0.00
 20
0.00
 30
0.00
 40
0.20
 41
0.20
  0
VERTEX
  8
ME_EC_PLATE_V4-EDGE_CUTS_GBR
 10
115.04506
 20
-120.073332
 30
0.00
  0
VERTEX
  8
ME_EC_PLATE_V4-EDGE_CUTS_GBR
 10
127.74506
 20
-120.073332
 30
0.00
  0
SEQEND
  0
POLYLINE
  8
ME_EC_PLATE_V4-EDGE_CUTS_GBR
 66
1
 10
0.00
 20
0.00
 30
0.00
 40
0.20
 41
0.20
  0
VERTEX
  8
ME_EC_PLATE_V4-EDGE_CUTS_GBR
 10
95.02506
 20
-121.073332
 30
0.00
  0
VERTEX
  8
ME_EC_PLATE_V4-EDGE_CUTS_GBR
 10
96.02506
 20
-120.073332
 30
0.00
  0
SEQEND
  0
POLYLINE
  8
ME_EC_PLATE_V4-EDGE_CUTS_GBR
 66
1
 10
0.00
 20
0.00
 30
0.00
 40
0.20
 41
0.20
  0
VERTEX
  8
ME_EC_PLATE_V4-EDGE_CUTS_GBR
 10
95.02506
 20
-133.173332
 30
0.00
  0
VERTEX
  8
ME_EC_PLATE_V4-EDGE_CUTS_GBR
 10
95.02506
 20
-121.073332
 30
0.00
  0
SEQEND
  0
POLYLINE
  8
ME_EC_PLATE_V4-EDGE_CUTS_GBR
 66
1
 10
0.00
 20
0.00
 30
0.00
 40
0.20
 41
0.20
  0
VERTEX
  8
ME_EC_PLATE_V4-EDGE_CUTS_GBR
 10
96.02506
 20
-134.173332
 30
0.00
  0
VERTEX
  8
ME_EC_PLATE_V4-EDGE_CUTS_GBR
 10
95.02506
 20
-133.173332
 30
0.00
  0
SEQEND
  0
POLYLINE
  8
ME_EC_PLATE_V4-EDGE_CUTS_GBR
 66
1
 10
0.00
 20
0.00
 30
0.00
 40
0.20
 41
0.20
  0
VERTEX
  8
ME_EC_PLATE_V4-EDGE_CUTS_GBR
 10
108.72506
 20
-134.173332
 30
0.00
  0
VERTEX
  8
ME_EC_PLATE_V4-EDGE_CUTS_GBR
 10
96.02506
 20
-134.173332
 30
0.00
  0
SEQEND
  0
POLYLINE
  8
ME_EC_PLATE_V4-EDGE_CUTS_GBR
 66
1
 10
0.00
 20
0.00
 30
0.00
 40
0.20
 41
0.20
  0
VERTEX
  8
ME_EC_PLATE_V4-EDGE_CUTS_GBR
 10
109.72506
 20
-133.173332
 30
0.00
  0
VERTEX
  8
ME_EC_PLATE_V4-EDGE_CUTS_GBR
 10
108.72506
 20
-134.173332
 30
0.00
  0
SEQEND
  0
POLYLINE
  8
ME_EC_PLATE_V4-EDGE_CUTS_GBR
 66
1
 10
0.00
 20
0.00
 30
0.00
 40
0.20
 41
0.20
  0
VERTEX
  8
ME_EC_PLATE_V4-EDGE_CUTS_GBR
 10
109.72506
 20
-121.073332
 30
0.00
  0
VERTEX
  8
ME_EC_PLATE_V4-EDGE_CUTS_GBR
 10
109.72506
 20
-133.173332
 30
0.00
  0
SEQEND
  0
POLYLINE
  8
ME_EC_PLATE_V4-EDGE_CUTS_GBR
 66
1
 10
0.00
 20
0.00
 30
0.00
 40
0.20
 41
0.20
  0
VERTEX
  8
ME_EC_PLATE_V4-EDGE_CUTS_GBR
 10
108.72506
 20
-120.073332
 30
0.00
  0
VERTEX
  8
ME_EC_PLATE_V4-EDGE_CUTS_GBR
 10
109.72506
 20
-121.073332
 30
0.00
  0
SEQEND
  0
POLYLINE
  8
ME_EC_PLATE_V4-EDGE_CUTS_GBR
 66
1
 10
0.00
 20
0.00
 30
0.00
 40
0.20
 41
0.20
  0
VERTEX
  8
ME_EC_PLATE_V4-EDGE_CUTS_GBR
 10
96.02506
 20
-120.073332
 30
0.00
  0
VERTEX
  8
ME_EC_PLATE_V4-EDGE_CUTS_GBR
 10
108.72506
 20
-120.073332
 30
0.00
  0
SEQEND
  0
POLYLINE
  8
ME_EC_PLATE_V4-EDGE_CUTS_GBR
 66
1
 10
0.00
 20
0.00
 30
0.00
 40
0.20
 41
0.20
  0
VERTEX
  8
ME_EC_PLATE_V4-EDGE_CUTS_GBR
 10
76.00506
 20
-121.073332
 30
0.00
  0
VERTEX
  8
ME_EC_PLATE_V4-EDGE_CUTS_GBR
 10
77.00506
 20
-120.073332
 30
0.00
  0
SEQEND
  0
POLYLINE
  8
ME_EC_PLATE_V4-EDGE_CUTS_GBR
 66
1
 10
0.00
 20
0.00
 30
0.00
 40
0.20
 41
0.20
  0
VERTEX
  8
ME_EC_PLATE_V4-EDGE_CUTS_GBR
 10
76.00506
 20
-133.173332
 30
0.00
  0
VERTEX
  8
ME_EC_PLATE_V4-EDGE_CUTS_GBR
 10
76.00506
 20
-121.073332
 30
0.00
  0
SEQEND
  0
POLYLINE
  8
ME_EC_PLATE_V4-EDGE_CUTS_GBR
 66
1
 10
0.00
 20
0.00
 30
0.00
 40
0.20
 41
0.20
  0
VERTEX
  8
ME_EC_PLATE_V4-EDGE_CUTS_GBR
 10
77.00506
 20
-134.173332
 30
0.00
  0
VERTEX
  8
ME_EC_PLATE_V4-EDGE_CUTS_GBR
 10
76.00506
 20
-133.173332
 30
0.00
  0
SEQEND
  0
POLYLINE
  8
ME_EC_PLATE_V4-EDGE_CUTS_GBR
 66
1
 10
0.00
 20
0.00
 30
0.00
 40
0.20
 41
0.20
  0
VERTEX
  8
ME_EC_PLATE_V4-EDGE_CUTS_GBR
 10
89.70506
 20
-134.173332
 30
0.00
  0
VERTEX
  8
ME_EC_PLATE_V4-EDGE_CUTS_GBR
 10
77.00506
 20
-134.173332
 30
0.00
  0
SEQEND
  0
POLYLINE
  8
ME_EC_PLATE_V4-EDGE_CUTS_GBR
 66
1
 10
0.00
 20
0.00
 30
0.00
 40
0.20
 41
0.20
  0
VERTEX
  8
ME_EC_PLATE_V4-EDGE_CUTS_GBR
 10
90.70506
 20
-133.173332
 30
0.00
  0
VERTEX
  8
ME_EC_PLATE_V4-EDGE_CUTS_GBR
 10
89.70506
 20
-134.173332
 30
0.00
  0
SEQEND
  0
POLYLINE
  8
ME_EC_PLATE_V4-EDGE_CUTS_GBR
 66
1
 10
0.00
 20
0.00
 30
0.00
 40
0.20
 41
0.20
  0
VERTEX
  8
ME_EC_PLATE_V4-EDGE_CUTS_GBR
 10
90.70506
 20
-121.073332
 30
0.00
  0
VERTEX
  8
ME_EC_PLATE_V4-EDGE_CUTS_GBR
 10
90.70506
 20
-133.173332
 30
0.00
  0
SEQEND
  0
POLYLINE
  8
ME_EC_PLATE_V4-EDGE_CUTS_GBR
 66
1
 10
0.00
 20
0.00
 30
0.00
 40
0.20
 41
0.20
  0
VERTEX
  8
ME_EC_PLATE_V4-EDGE_CUTS_GBR
 10
89.70506
 20
-120.073332
 30
0.00
  0
VERTEX
  8
ME_EC_PLATE_V4-EDGE_CUTS_GBR
 10
90.70506
 20
-121.073332
 30
0.00
  0
SEQEND
  0
POLYLINE
  8
ME_EC_PLATE_V4-EDGE_CUTS_GBR
 66
1
 10
0.00
 20
0.00
 30
0.00
 40
0.20
 41
0.20
  0
VERTEX
  8
ME_EC_PLATE_V4-EDGE_CUTS_GBR
 10
77.00506
 20
-120.073332
 30
0.00
  0
VERTEX
  8
ME_EC_PLATE_V4-EDGE_CUTS_GBR
 10
89.70506
 20
-120.073332
 30
0.00
  0
SEQEND
  0
POLYLINE
  8
ME_EC_PLATE_V4-EDGE_CUTS_GBR
 66
1
 10
0.00
 20
0.00
 30
0.00
 40
0.20
 41
0.20
  0
VERTEX
  8
ME_EC_PLATE_V4-EDGE_CUTS_GBR
 10
52.25506
 20
-121.073332
 30
0.00
  0
VERTEX
  8
ME_EC_PLATE_V4-EDGE_CUTS_GBR
 10
53.25506
 20
-120.073332
 30
0.00
  0
SEQEND
  0
POLYLINE
  8
ME_EC_PLATE_V4-EDGE_CUTS_GBR
 66
1
 10
0.00
 20
0.00
 30
0.00
 40
0.20
 41
0.20
  0
VERTEX
  8
ME_EC_PLATE_V4-EDGE_CUTS_GBR
 10
52.25506
 20
-133.173332
 30
0.00
  0
VERTEX
  8
ME_EC_PLATE_V4-EDGE_CUTS_GBR
 10
52.25506
 20
-121.073332
 30
0.00
  0
SEQEND
  0
POLYLINE
  8
ME_EC_PLATE_V4-EDGE_CUTS_GBR
 66
1
 10
0.00
 20
0.00
 30
0.00
 40
0.20
 41
0.20
  0
VERTEX
  8
ME_EC_PLATE_V4-EDGE_CUTS_GBR
 10
53.25506
 20
-134.173332
 30
0.00
  0
VERTEX
  8
ME_EC_PLATE_V4-EDGE_CUTS_GBR
 10
52.25506
 20
-133.173332
 30
0.00
  0
SEQEND
  0
POLYLINE
  8
ME_EC_PLATE_V4-EDGE_CUTS_GBR
 66
1
 10
0.00
 20
0.00
 30
0.00
 40
0.20
 41
0.20
  0
VERTEX
  8
ME_EC_PLATE_V4-EDGE_CUTS_GBR
 10
65.95506
 20
-134.173332
 30
0.00
  0
VERTEX
  8
ME_EC_PLATE_V4-EDGE_CUTS_GBR
 10
53.25506
 20
-134.173332
 30
0.00
  0
SEQEND
  0
POLYLINE
  8
ME_EC_PLATE_V4-EDGE_CUTS_GBR
 66
1
 10
0.00
 20
0.00
 30
0.00
 40
0.20
 41
0.20
  0
VERTEX
  8
ME_EC_PLATE_V4-EDGE_CUTS_GBR
 10
66.95506
 20
-133.173332
 30
0.00
  0
VERTEX
  8
ME_EC_PLATE_V4-EDGE_CUTS_GBR
 10
65.95506
 20
-134.173332
 30
0.00
  0
SEQEND
  0
POLYLINE
  8
ME_EC_PLATE_V4-EDGE_CUTS_GBR
 66
1
 10
0.00
 20
0.00
 30
0.00
 40
0.20
 41
0.20
  0
VERTEX
  8
ME_EC_PLATE_V4-EDGE_CUTS_GBR
 10
66.95506
 20
-121.073332
 30
0.00
  0
VERTEX
  8
ME_EC_PLATE_V4-EDGE_CUTS_GBR
 10
66.95506
 20
-133.173332
 30
0.00
  0
SEQEND
  0
POLYLINE
  8
ME_EC_PLATE_V4-EDGE_CUTS_GBR
 66
1
 10
0.00
 20
0.00
 30
0.00
 40
0.20
 41
0.20
  0
VERTEX
  8
ME_EC_PLATE_V4-EDGE_CUTS_GBR
 10
65.95506
 20
-120.073332
 30
0.00
  0
VERTEX
  8
ME_EC_PLATE_V4-EDGE_CUTS_GBR
 10
66.95506
 20
-121.073332
 30
0.00
  0
SEQEND
  0
POLYLINE
  8
ME_EC_PLATE_V4-EDGE_CUTS_GBR
 66
1
 10
0.00
 20
0.00
 30
0.00
 40
0.20
 41
0.20
  0
VERTEX
  8
ME_EC_PLATE_V4-EDGE_CUTS_GBR
 10
53.25506
 20
-120.073332
 30
0.00
  0
VERTEX
  8
ME_EC_PLATE_V4-EDGE_CUTS_GBR
 10
65.95506
 20
-120.073332
 30
0.00
  0
SEQEND
  0
POLYLINE
  8
ME_EC_PLATE_V4-EDGE_CUTS_GBR
 66
1
 10
0.00
 20
0.00
 30
0.00
 40
0.20
 41
0.20
  0
VERTEX
  8
ME_EC_PLATE_V4-EDGE_CUTS_GBR
 10
199.68506
 20
-102.053332
 30
0.00
  0
VERTEX
  8
ME_EC_PLATE_V4-EDGE_CUTS_GBR
 10
200.68506
 20
-101.053332
 30
0.00
  0
SEQEND
  0
POLYLINE
  8
ME_EC_PLATE_V4-EDGE_CUTS_GBR
 66
1
 10
0.00
 20
0.00
 30
0.00
 40
0.20
 41
0.20
  0
VERTEX
  8
ME_EC_PLATE_V4-EDGE_CUTS_GBR
 10
199.68506
 20
-114.153332
 30
0.00
  0
VERTEX
  8
ME_EC_PLATE_V4-EDGE_CUTS_GBR
 10
199.68506
 20
-102.053332
 30
0.00
  0
SEQEND
  0
POLYLINE
  8
ME_EC_PLATE_V4-EDGE_CUTS_GBR
 66
1
 10
0.00
 20
0.00
 30
0.00
 40
0.20
 41
0.20
  0
VERTEX
  8
ME_EC_PLATE_V4-EDGE_CUTS_GBR
 10
200.68506
 20
-115.153332
 30
0.00
  0
VERTEX
  8
ME_EC_PLATE_V4-EDGE_CUTS_GBR
 10
199.68506
 20
-114.153332
 30
0.00
  0
SEQEND
  0
POLYLINE
  8
ME_EC_PLATE_V4-EDGE_CUTS_GBR
 66
1
 10
0.00
 20
0.00
 30
0.00
 40
0.20
 41
0.20
  0
VERTEX
  8
ME_EC_PLATE_V4-EDGE_CUTS_GBR
 10
213.38506
 20
-115.153332
 30
0.00
  0
VERTEX
  8
ME_EC_PLATE_V4-EDGE_CUTS_GBR
 10
200.68506
 20
-115.153332
 30
0.00
  0
SEQEND
  0
POLYLINE
  8
ME_EC_PLATE_V4-EDGE_CUTS_GBR
 66
1
 10
0.00
 20
0.00
 30
0.00
 40
0.20
 41
0.20
  0
VERTEX
  8
ME_EC_PLATE_V4-EDGE_CUTS_GBR
 10
214.38506
 20
-114.153332
 30
0.00
  0
VERTEX
  8
ME_EC_PLATE_V4-EDGE_CUTS_GBR
 10
213.38506
 20
-115.153332
 30
0.00
  0
SEQEND
  0
POLYLINE
  8
ME_EC_PLATE_V4-EDGE_CUTS_GBR
 66
1
 10
0.00
 20
0.00
 30
0.00
 40
0.20
 41
0.20
  0
VERTEX
  8
ME_EC_PLATE_V4-EDGE_CUTS_GBR
 10
214.38506
 20
-102.053332
 30
0.00
  0
VERTEX
  8
ME_EC_PLATE_V4-EDGE_CUTS_GBR
 10
214.38506
 20
-114.153332
 30
0.00
  0
SEQEND
  0
POLYLINE
  8
ME_EC_PLATE_V4-EDGE_CUTS_GBR
 66
1
 10
0.00
 20
0.00
 30
0.00
 40
0.20
 41
0.20
  0
VERTEX
  8
ME_EC_PLATE_V4-EDGE_CUTS_GBR
 10
213.38506
 20
-101.053332
 30
0.00
  0
VERTEX
  8
ME_EC_PLATE_V4-EDGE_CUTS_GBR
 10
214.38506
 20
-102.053332
 30
0.00
  0
SEQEND
  0
POLYLINE
  8
ME_EC_PLATE_V4-EDGE_CUTS_GBR
 66
1
 10
0.00
 20
0.00
 30
0.00
 40
0.20
 41
0.20
  0
VERTEX
  8
ME_EC_PLATE_V4-EDGE_CUTS_GBR
 10
200.68506
 20
-101.053332
 30
0.00
  0
VERTEX
  8
ME_EC_PLATE_V4-EDGE_CUTS_GBR
 10
213.38506
 20
-101.053332
 30
0.00
  0
SEQEND
  0
POLYLINE
  8
ME_EC_PLATE_V4-EDGE_CUTS_GBR
 66
1
 10
0.00
 20
0.00
 30
0.00
 40
0.20
 41
0.20
  0
VERTEX
  8
ME_EC_PLATE_V4-EDGE_CUTS_GBR
 10
180.66506
 20
-102.053332
 30
0.00
  0
VERTEX
  8
ME_EC_PLATE_V4-EDGE_CUTS_GBR
 10
181.66506
 20
-101.053332
 30
0.00
  0
SEQEND
  0
POLYLINE
  8
ME_EC_PLATE_V4-EDGE_CUTS_GBR
 66
1
 10
0.00
 20
0.00
 30
0.00
 40
0.20
 41
0.20
  0
VERTEX
  8
ME_EC_PLATE_V4-EDGE_CUTS_GBR
 10
180.66506
 20
-114.153332
 30
0.00
  0
VERTEX
  8
ME_EC_PLATE_V4-EDGE_CUTS_GBR
 10
180.66506
 20
-102.053332
 30
0.00
  0
SEQEND
  0
POLYLINE
  8
ME_EC_PLATE_V4-EDGE_CUTS_GBR
 66
1
 10
0.00
 20
0.00
 30
0.00
 40
0.20
 41
0.20
  0
VERTEX
  8
ME_EC_PLATE_V4-EDGE_CUTS_GBR
 10
181.66506
 20
-115.153332
 30
0.00
  0
VERTEX
  8
ME_EC_PLATE_V4-EDGE_CUTS_GBR
 10
180.66506
 20
-114.153332
 30
0.00
  0
SEQEND
  0
POLYLINE
  8
ME_EC_PLATE_V4-EDGE_CUTS_GBR
 66
1
 10
0.00
 20
0.00
 30
0.00
 40
0.20
 41
0.20
  0
VERTEX
  8
ME_EC_PLATE_V4-EDGE_CUTS_GBR
 10
194.36506
 20
-115.153332
 30
0.00
  0
VERTEX
  8
ME_EC_PLATE_V4-EDGE_CUTS_GBR
 10
181.66506
 20
-115.153332
 30
0.00
  0
SEQEND
  0
POLYLINE
  8
ME_EC_PLATE_V4-EDGE_CUTS_GBR
 66
1
 10
0.00
 20
0.00
 30
0.00
 40
0.20
 41
0.20
  0
VERTEX
  8
ME_EC_PLATE_V4-EDGE_CUTS_GBR
 10
195.36506
 20
-114.153332
 30
0.00
  0
VERTEX
  8
ME_EC_PLATE_V4-EDGE_CUTS_GBR
 10
194.36506
 20
-115.153332
 30
0.00
  0
SEQEND
  0
POLYLINE
  8
ME_EC_PLATE_V4-EDGE_CUTS_GBR
 66
1
 10
0.00
 20
0.00
 30
0.00
 40
0.20
 41
0.20
  0
VERTEX
  8
ME_EC_PLATE_V4-EDGE_CUTS_GBR
 10
195.36506
 20
-102.053332
 30
0.00
  0
VERTEX
  8
ME_EC_PLATE_V4-EDGE_CUTS_GBR
 10
195.36506
 20
-114.153332
 30
0.00
  0
SEQEND
  0
POLYLINE
  8
ME_EC_PLATE_V4-EDGE_CUTS_GBR
 66
1
 10
0.00
 20
0.00
 30
0.00
 40
0.20
 41
0.20
  0
VERTEX
  8
ME_EC_PLATE_V4-EDGE_CUTS_GBR
 10
194.36506
 20
-101.053332
 30
0.00
  0
VERTEX
  8
ME_EC_PLATE_V4-EDGE_CUTS_GBR
 10
195.36506
 20
-102.053332
 30
0.00
  0
SEQEND
  0
POLYLINE
  8
ME_EC_PLATE_V4-EDGE_CUTS_GBR
 66
1
 10
0.00
 20
0.00
 30
0.00
 40
0.20
 41
0.20
  0
VERTEX
  8
ME_EC_PLATE_V4-EDGE_CUTS_GBR
 10
181.66506
 20
-101.053332
 30
0.00
  0
VERTEX
  8
ME_EC_PLATE_V4-EDGE_CUTS_GBR
 10
194.36506
 20
-101.053332
 30
0.00
  0
SEQEND
  0
POLYLINE
  8
ME_EC_PLATE_V4-EDGE_CUTS_GBR
 66
1
 10
0.00
 20
0.00
 30
0.00
 40
0.20
 41
0.20
  0
VERTEX
  8
ME_EC_PLATE_V4-EDGE_CUTS_GBR
 10
161.64506
 20
-102.053332
 30
0.00
  0
VERTEX
  8
ME_EC_PLATE_V4-EDGE_CUTS_GBR
 10
162.64506
 20
-101.053332
 30
0.00
  0
SEQEND
  0
POLYLINE
  8
ME_EC_PLATE_V4-EDGE_CUTS_GBR
 66
1
 10
0.00
 20
0.00
 30
0.00
 40
0.20
 41
0.20
  0
VERTEX
  8
ME_EC_PLATE_V4-EDGE_CUTS_GBR
 10
161.64506
 20
-114.153332
 30
0.00
  0
VERTEX
  8
ME_EC_PLATE_V4-EDGE_CUTS_GBR
 10
161.64506
 20
-102.053332
 30
0.00
  0
SEQEND
  0
POLYLINE
  8
ME_EC_PLATE_V4-EDGE_CUTS_GBR
 66
1
 10
0.00
 20
0.00
 30
0.00
 40
0.20
 41
0.20
  0
VERTEX
  8
ME_EC_PLATE_V4-EDGE_CUTS_GBR
 10
162.64506
 20
-115.153332
 30
0.00
  0
VERTEX
  8
ME_EC_PLATE_V4-EDGE_CUTS_GBR
 10
161.64506
 20
-114.153332
 30
0.00
  0
SEQEND
  0
POLYLINE
  8
ME_EC_PLATE_V4-EDGE_CUTS_GBR
 66
1
 10
0.00
 20
0.00
 30
0.00
 40
0.20
 41
0.20
  0
VERTEX
  8
ME_EC_PLATE_V4-EDGE_CUTS_GBR
 10
175.34506
 20
-115.153332
 30
0.00
  0
VERTEX
  8
ME_EC_PLATE_V4-EDGE_CUTS_GBR
 10
162.64506
 20
-115.153332
 30
0.00
  0
SEQEND
  0
POLYLINE
  8
ME_EC_PLATE_V4-EDGE_CUTS_GBR
 66
1
 10
0.00
 20
0.00
 30
0.00
 40
0.20
 41
0.20
  0
VERTEX
  8
ME_EC_PLATE_V4-EDGE_CUTS_GBR
 10
176.34506
 20
-114.153332
 30
0.00
  0
VERTEX
  8
ME_EC_PLATE_V4-EDGE_CUTS_GBR
 10
175.34506
 20
-115.153332
 30
0.00
  0
SEQEND
  0
POLYLINE
  8
ME_EC_PLATE_V4-EDGE_CUTS_GBR
 66
1
 10
0.00
 20
0.00
 30
0.00
 40
0.20
 41
0.20
  0
VERTEX
  8
ME_EC_PLATE_V4-EDGE_CUTS_GBR
 10
176.34506
 20
-102.053332
 30
0.00
  0
VERTEX
  8
ME_EC_PLATE_V4-EDGE_CUTS_GBR
 10
176.34506
 20
-114.153332
 30
0.00
  0
SEQEND
  0
POLYLINE
  8
ME_EC_PLATE_V4-EDGE_CUTS_GBR
 66
1
 10
0.00
 20
0.00
 30
0.00
 40
0.20
 41
0.20
  0
VERTEX
  8
ME_EC_PLATE_V4-EDGE_CUTS_GBR
 10
175.34506
 20
-101.053332
 30
0.00
  0
VERTEX
  8
ME_EC_PLATE_V4-EDGE_CUTS_GBR
 10
176.34506
 20
-102.053332
 30
0.00
  0
SEQEND
  0
POLYLINE
  8
ME_EC_PLATE_V4-EDGE_CUTS_GBR
 66
1
 10
0.00
 20
0.00
 30
0.00
 40
0.20
 41
0.20
  0
VERTEX
  8
ME_EC_PLATE_V4-EDGE_CUTS_GBR
 10
162.64506
 20
-101.053332
 30
0.00
  0
VERTEX
  8
ME_EC_PLATE_V4-EDGE_CUTS_GBR
 10
175.34506
 20
-101.053332
 30
0.00
  0
SEQEND
  0
POLYLINE
  8
ME_EC_PLATE_V4-EDGE_CUTS_GBR
 66
1
 10
0.00
 20
0.00
 30
0.00
 40
0.20
 41
0.20
  0
VERTEX
  8
ME_EC_PLATE_V4-EDGE_CUTS_GBR
 10
142.62506
 20
-102.053332
 30
0.00
  0
VERTEX
  8
ME_EC_PLATE_V4-EDGE_CUTS_GBR
 10
143.62506
 20
-101.053332
 30
0.00
  0
SEQEND
  0
POLYLINE
  8
ME_EC_PLATE_V4-EDGE_CUTS_GBR
 66
1
 10
0.00
 20
0.00
 30
0.00
 40
0.20
 41
0.20
  0
VERTEX
  8
ME_EC_PLATE_V4-EDGE_CUTS_GBR
 10
142.62506
 20
-114.153332
 30
0.00
  0
VERTEX
  8
ME_EC_PLATE_V4-EDGE_CUTS_GBR
 10
142.62506
 20
-102.053332
 30
0.00
  0
SEQEND
  0
POLYLINE
  8
ME_EC_PLATE_V4-EDGE_CUTS_GBR
 66
1
 10
0.00
 20
0.00
 30
0.00
 40
0.20
 41
0.20
  0
VERTEX
  8
ME_EC_PLATE_V4-EDGE_CUTS_GBR
 10
143.62506
 20
-115.153332
 30
0.00
  0
VERTEX
  8
ME_EC_PLATE_V4-EDGE_CUTS_GBR
 10
142.62506
 20
-114.153332
 30
0.00
  0
SEQEND
  0
POLYLINE
  8
ME_EC_PLATE_V4-EDGE_CUTS_GBR
 66
1
 10
0.00
 20
0.00
 30
0.00
 40
0.20
 41
0.20
  0
VERTEX
  8
ME_EC_PLATE_V4-EDGE_CUTS_GBR
 10
156.32506
 20
-115.153332
 30
0.00
  0
VERTEX
  8
ME_EC_PLATE_V4-EDGE_CUTS_GBR
 10
143.62506
 20
-115.153332
 30
0.00
  0
SEQEND
  0
POLYLINE
  8
ME_EC_PLATE_V4-EDGE_CUTS_GBR
 66
1
 10
0.00
 20
0.00
 30
0.00
 40
0.20
 41
0.20
  0
VERTEX
  8
ME_EC_PLATE_V4-EDGE_CUTS_GBR
 10
157.32506
 20
-114.153332
 30
0.00
  0
VERTEX
  8
ME_EC_PLATE_V4-EDGE_CUTS_GBR
 10
156.32506
 20
-115.153332
 30
0.00
  0
SEQEND
  0
POLYLINE
  8
ME_EC_PLATE_V4-EDGE_CUTS_GBR
 66
1
 10
0.00
 20
0.00
 30
0.00
 40
0.20
 41
0.20
  0
VERTEX
  8
ME_EC_PLATE_V4-EDGE_CUTS_GBR
 10
157.32506
 20
-102.053332
 30
0.00
  0
VERTEX
  8
ME_EC_PLATE_V4-EDGE_CUTS_GBR
 10
157.32506
 20
-114.153332
 30
0.00
  0
SEQEND
  0
POLYLINE
  8
ME_EC_PLATE_V4-EDGE_CUTS_GBR
 66
1
 10
0.00
 20
0.00
 30
0.00
 40
0.20
 41
0.20
  0
VERTEX
  8
ME_EC_PLATE_V4-EDGE_CUTS_GBR
 10
156.32506
 20
-101.053332
 30
0.00
  0
VERTEX
  8
ME_EC_PLATE_V4-EDGE_CUTS_GBR
 10
157.32506
 20
-102.053332
 30
0.00
  0
SEQEND
  0
POLYLINE
  8
ME_EC_PLATE_V4-EDGE_CUTS_GBR
 66
1
 10
0.00
 20
0.00
 30
0.00
 40
0.20
 41
0.20
  0
VERTEX
  8
ME_EC_PLATE_V4-EDGE_CUTS_GBR
 10
143.62506
 20
-101.053332
 30
0.00
  0
VERTEX
  8
ME_EC_PLATE_V4-EDGE_CUTS_GBR
 10
156.32506
 20
-101.053332
 30
0.00
  0
SEQEND
  0
POLYLINE
  8
ME_EC_PLATE_V4-EDGE_CUTS_GBR
 66
1
 10
0.00
 20
0.00
 30
0.00
 40
0.20
 41
0.20
  0
VERTEX
  8
ME_EC_PLATE_V4-EDGE_CUTS_GBR
 10
123.60506
 20
-102.053332
 30
0.00
  0
VERTEX
  8
ME_EC_PLATE_V4-EDGE_CUTS_GBR
 10
124.60506
 20
-101.053332
 30
0.00
  0
SEQEND
  0
POLYLINE
  8
ME_EC_PLATE_V4-EDGE_CUTS_GBR
 66
1
 10
0.00
 20
0.00
 30
0.00
 40
0.20
 41
0.20
  0
VERTEX
  8
ME_EC_PLATE_V4-EDGE_CUTS_GBR
 10
123.60506
 20
-114.153332
 30
0.00
  0
VERTEX
  8
ME_EC_PLATE_V4-EDGE_CUTS_GBR
 10
123.60506
 20
-102.053332
 30
0.00
  0
SEQEND
  0
POLYLINE
  8
ME_EC_PLATE_V4-EDGE_CUTS_GBR
 66
1
 10
0.00
 20
0.00
 30
0.00
 40
0.20
 41
0.20
  0
VERTEX
  8
ME_EC_PLATE_V4-EDGE_CUTS_GBR
 10
124.60506
 20
-115.153332
 30
0.00
  0
VERTEX
  8
ME_EC_PLATE_V4-EDGE_CUTS_GBR
 10
123.60506
 20
-114.153332
 30
0.00
  0
SEQEND
  0
POLYLINE
  8
ME_EC_PLATE_V4-EDGE_CUTS_GBR
 66
1
 10
0.00
 20
0.00
 30
0.00
 40
0.20
 41
0.20
  0
VERTEX
  8
ME_EC_PLATE_V4-EDGE_CUTS_GBR
 10
137.30506
 20
-115.153332
 30
0.00
  0
VERTEX
  8
ME_EC_PLATE_V4-EDGE_CUTS_GBR
 10
124.60506
 20
-115.153332
 30
0.00
  0
SEQEND
  0
POLYLINE
  8
ME_EC_PLATE_V4-EDGE_CUTS_GBR
 66
1
 10
0.00
 20
0.00
 30
0.00
 40
0.20
 41
0.20
  0
VERTEX
  8
ME_EC_PLATE_V4-EDGE_CUTS_GBR
 10
138.30506
 20
-114.153332
 30
0.00
  0
VERTEX
  8
ME_EC_PLATE_V4-EDGE_CUTS_GBR
 10
137.30506
 20
-115.153332
 30
0.00
  0
SEQEND
  0
POLYLINE
  8
ME_EC_PLATE_V4-EDGE_CUTS_GBR
 66
1
 10
0.00
 20
0.00
 30
0.00
 40
0.20
 41
0.20
  0
VERTEX
  8
ME_EC_PLATE_V4-EDGE_CUTS_GBR
 10
138.30506
 20
-102.053332
 30
0.00
  0
VERTEX
  8
ME_EC_PLATE_V4-EDGE_CUTS_GBR
 10
138.30506
 20
-114.153332
 30
0.00
  0
SEQEND
  0
POLYLINE
  8
ME_EC_PLATE_V4-EDGE_CUTS_GBR
 66
1
 10
0.00
 20
0.00
 30
0.00
 40
0.20
 41
0.20
  0
VERTEX
  8
ME_EC_PLATE_V4-EDGE_CUTS_GBR
 10
137.30506
 20
-101.053332
 30
0.00
  0
VERTEX
  8
ME_EC_PLATE_V4-EDGE_CUTS_GBR
 10
138.30506
 20
-102.053332
 30
0.00
  0
SEQEND
  0
POLYLINE
  8
ME_EC_PLATE_V4-EDGE_CUTS_GBR
 66
1
 10
0.00
 20
0.00
 30
0.00
 40
0.20
 41
0.20
  0
VERTEX
  8
ME_EC_PLATE_V4-EDGE_CUTS_GBR
 10
124.60506
 20
-101.053332
 30
0.00
  0
VERTEX
  8
ME_EC_PLATE_V4-EDGE_CUTS_GBR
 10
137.30506
 20
-101.053332
 30
0.00
  0
SEQEND
  0
POLYLINE
  8
ME_EC_PLATE_V4-EDGE_CUTS_GBR
 66
1
 10
0.00
 20
0.00
 30
0.00
 40
0.20
 41
0.20
  0
VERTEX
  8
ME_EC_PLATE_V4-EDGE_CUTS_GBR
 10
104.58506
 20
-102.053332
 30
0.00
  0
VERTEX
  8
ME_EC_PLATE_V4-EDGE_CUTS_GBR
 10
105.58506
 20
-101.053332
 30
0.00
  0
SEQEND
  0
POLYLINE
  8
ME_EC_PLATE_V4-EDGE_CUTS_GBR
 66
1
 10
0.00
 20
0.00
 30
0.00
 40
0.20
 41
0.20
  0
VERTEX
  8
ME_EC_PLATE_V4-EDGE_CUTS_GBR
 10
104.58506
 20
-114.153332
 30
0.00
  0
VERTEX
  8
ME_EC_PLATE_V4-EDGE_CUTS_GBR
 10
104.58506
 20
-102.053332
 30
0.00
  0
SEQEND
  0
POLYLINE
  8
ME_EC_PLATE_V4-EDGE_CUTS_GBR
 66
1
 10
0.00
 20
0.00
 30
0.00
 40
0.20
 41
0.20
  0
VERTEX
  8
ME_EC_PLATE_V4-EDGE_CUTS_GBR
 10
105.58506
 20
-115.153332
 30
0.00
  0
VERTEX
  8
ME_EC_PLATE_V4-EDGE_CUTS_GBR
 10
104.58506
 20
-114.153332
 30
0.00
  0
SEQEND
  0
POLYLINE
  8
ME_EC_PLATE_V4-EDGE_CUTS_GBR
 66
1
 10
0.00
 20
0.00
 30
0.00
 40
0.20
 41
0.20
  0
VERTEX
  8
ME_EC_PLATE_V4-EDGE_CUTS_GBR
 10
118.28506
 20
-115.153332
 30
0.00
  0
VERTEX
  8
ME_EC_PLATE_V4-EDGE_CUTS_GBR
 10
105.58506
 20
-115.153332
 30
0.00
  0
SEQEND
  0
POLYLINE
  8
ME_EC_PLATE_V4-EDGE_CUTS_GBR
 66
1
 10
0.00
 20
0.00
 30
0.00
 40
0.20
 41
0.20
  0
VERTEX
  8
ME_EC_PLATE_V4-EDGE_CUTS_GBR
 10
119.28506
 20
-114.153332
 30
0.00
  0
VERTEX
  8
ME_EC_PLATE_V4-EDGE_CUTS_GBR
 10
118.28506
 20
-115.153332
 30
0.00
  0
SEQEND
  0
POLYLINE
  8
ME_EC_PLATE_V4-EDGE_CUTS_GBR
 66
1
 10
0.00
 20
0.00
 30
0.00
 40
0.20
 41
0.20
  0
VERTEX
  8
ME_EC_PLATE_V4-EDGE_CUTS_GBR
 10
119.28506
 20
-102.053332
 30
0.00
  0
VERTEX
  8
ME_EC_PLATE_V4-EDGE_CUTS_GBR
 10
119.28506
 20
-114.153332
 30
0.00
  0
SEQEND
  0
POLYLINE
  8
ME_EC_PLATE_V4-EDGE_CUTS_GBR
 66
1
 10
0.00
 20
0.00
 30
0.00
 40
0.20
 41
0.20
  0
VERTEX
  8
ME_EC_PLATE_V4-EDGE_CUTS_GBR
 10
118.28506
 20
-101.053332
 30
0.00
  0
VERTEX
  8
ME_EC_PLATE_V4-EDGE_CUTS_GBR
 10
119.28506
 20
-102.053332
 30
0.00
  0
SEQEND
  0
POLYLINE
  8
ME_EC_PLATE_V4-EDGE_CUTS_GBR
 66
1
 10
0.00
 20
0.00
 30
0.00
 40
0.20
 41
0.20
  0
VERTEX
  8
ME_EC_PLATE_V4-EDGE_CUTS_GBR
 10
105.58506
 20
-101.053332
 30
0.00
  0
VERTEX
  8
ME_EC_PLATE_V4-EDGE_CUTS_GBR
 10
118.28506
 20
-101.053332
 30
0.00
  0
SEQEND
  0
POLYLINE
  8
ME_EC_PLATE_V4-EDGE_CUTS_GBR
 66
1
 10
0.00
 20
0.00
 30
0.00
 40
0.20
 41
0.20
  0
VERTEX
  8
ME_EC_PLATE_V4-EDGE_CUTS_GBR
 10
85.56506
 20
-102.053332
 30
0.00
  0
VERTEX
  8
ME_EC_PLATE_V4-EDGE_CUTS_GBR
 10
86.56506
 20
-101.053332
 30
0.00
  0
SEQEND
  0
POLYLINE
  8
ME_EC_PLATE_V4-EDGE_CUTS_GBR
 66
1
 10
0.00
 20
0.00
 30
0.00
 40
0.20
 41
0.20
  0
VERTEX
  8
ME_EC_PLATE_V4-EDGE_CUTS_GBR
 10
85.56506
 20
-114.153332
 30
0.00
  0
VERTEX
  8
ME_EC_PLATE_V4-EDGE_CUTS_GBR
 10
85.56506
 20
-102.053332
 30
0.00
  0
SEQEND
  0
POLYLINE
  8
ME_EC_PLATE_V4-EDGE_CUTS_GBR
 66
1
 10
0.00
 20
0.00
 30
0.00
 40
0.20
 41
0.20
  0
VERTEX
  8
ME_EC_PLATE_V4-EDGE_CUTS_GBR
 10
86.56506
 20
-115.153332
 30
0.00
  0
VERTEX
  8
ME_EC_PLATE_V4-EDGE_CUTS_GBR
 10
85.56506
 20
-114.153332
 30
0.00
  0
SEQEND
  0
POLYLINE
  8
ME_EC_PLATE_V4-EDGE_CUTS_GBR
 66
1
 10
0.00
 20
0.00
 30
0.00
 40
0.20
 41
0.20
  0
VERTEX
  8
ME_EC_PLATE_V4-EDGE_CUTS_GBR
 10
99.26506
 20
-115.153332
 30
0.00
  0
VERTEX
  8
ME_EC_PLATE_V4-EDGE_CUTS_GBR
 10
86.56506
 20
-115.153332
 30
0.00
  0
SEQEND
  0
POLYLINE
  8
ME_EC_PLATE_V4-EDGE_CUTS_GBR
 66
1
 10
0.00
 20
0.00
 30
0.00
 40
0.20
 41
0.20
  0
VERTEX
  8
ME_EC_PLATE_V4-EDGE_CUTS_GBR
 10
100.26506
 20
-114.153332
 30
0.00
  0
VERTEX
  8
ME_EC_PLATE_V4-EDGE_CUTS_GBR
 10
99.26506
 20
-115.153332
 30
0.00
  0
SEQEND
  0
POLYLINE
  8
ME_EC_PLATE_V4-EDGE_CUTS_GBR
 66
1
 10
0.00
 20
0.00
 30
0.00
 40
0.20
 41
0.20
  0
VERTEX
  8
ME_EC_PLATE_V4-EDGE_CUTS_GBR
 10
100.26506
 20
-102.053332
 30
0.00
  0
VERTEX
  8
ME_EC_PLATE_V4-EDGE_CUTS_GBR
 10
100.26506
 20
-114.153332
 30
0.00
  0
SEQEND
  0
POLYLINE
  8
ME_EC_PLATE_V4-EDGE_CUTS_GBR
 66
1
 10
0.00
 20
0.00
 30
0.00
 40
0.20
 41
0.20
  0
VERTEX
  8
ME_EC_PLATE_V4-EDGE_CUTS_GBR
 10
99.26506
 20
-101.053332
 30
0.00
  0
VERTEX
  8
ME_EC_PLATE_V4-EDGE_CUTS_GBR
 10
100.26506
 20
-102.053332
 30
0.00
  0
SEQEND
  0
POLYLINE
  8
ME_EC_PLATE_V4-EDGE_CUTS_GBR
 66
1
 10
0.00
 20
0.00
 30
0.00
 40
0.20
 41
0.20
  0
VERTEX
  8
ME_EC_PLATE_V4-EDGE_CUTS_GBR
 10
86.56506
 20
-101.053332
 30
0.00
  0
VERTEX
  8
ME_EC_PLATE_V4-EDGE_CUTS_GBR
 10
99.26506
 20
-101.053332
 30
0.00
  0
SEQEND
  0
POLYLINE
  8
ME_EC_PLATE_V4-EDGE_CUTS_GBR
 66
1
 10
0.00
 20
0.00
 30
0.00
 40
0.20
 41
0.20
  0
VERTEX
  8
ME_EC_PLATE_V4-EDGE_CUTS_GBR
 10
66.54506
 20
-102.053332
 30
0.00
  0
VERTEX
  8
ME_EC_PLATE_V4-EDGE_CUTS_GBR
 10
67.54506
 20
-101.053332
 30
0.00
  0
SEQEND
  0
POLYLINE
  8
ME_EC_PLATE_V4-EDGE_CUTS_GBR
 66
1
 10
0.00
 20
0.00
 30
0.00
 40
0.20
 41
0.20
  0
VERTEX
  8
ME_EC_PLATE_V4-EDGE_CUTS_GBR
 10
66.54506
 20
-114.153332
 30
0.00
  0
VERTEX
  8
ME_EC_PLATE_V4-EDGE_CUTS_GBR
 10
66.54506
 20
-102.053332
 30
0.00
  0
SEQEND
  0
POLYLINE
  8
ME_EC_PLATE_V4-EDGE_CUTS_GBR
 66
1
 10
0.00
 20
0.00
 30
0.00
 40
0.20
 41
0.20
  0
VERTEX
  8
ME_EC_PLATE_V4-EDGE_CUTS_GBR
 10
67.54506
 20
-115.153332
 30
0.00
  0
VERTEX
  8
ME_EC_PLATE_V4-EDGE_CUTS_GBR
 10
66.54506
 20
-114.153332
 30
0.00
  0
SEQEND
  0
POLYLINE
  8
ME_EC_PLATE_V4-EDGE_CUTS_GBR
 66
1
 10
0.00
 20
0.00
 30
0.00
 40
0.20
 41
0.20
  0
VERTEX
  8
ME_EC_PLATE_V4-EDGE_CUTS_GBR
 10
80.24506
 20
-115.153332
 30
0.00
  0
VERTEX
  8
ME_EC_PLATE_V4-EDGE_CUTS_GBR
 10
67.54506
 20
-115.153332
 30
0.00
  0
SEQEND
  0
POLYLINE
  8
ME_EC_PLATE_V4-EDGE_CUTS_GBR
 66
1
 10
0.00
 20
0.00
 30
0.00
 40
0.20
 41
0.20
  0
VERTEX
  8
ME_EC_PLATE_V4-EDGE_CUTS_GBR
 10
81.24506
 20
-114.153332
 30
0.00
  0
VERTEX
  8
ME_EC_PLATE_V4-EDGE_CUTS_GBR
 10
80.24506
 20
-115.153332
 30
0.00
  0
SEQEND
  0
POLYLINE
  8
ME_EC_PLATE_V4-EDGE_CUTS_GBR
 66
1
 10
0.00
 20
0.00
 30
0.00
 40
0.20
 41
0.20
  0
VERTEX
  8
ME_EC_PLATE_V4-EDGE_CUTS_GBR
 10
81.24506
 20
-102.053332
 30
0.00
  0
VERTEX
  8
ME_EC_PLATE_V4-EDGE_CUTS_GBR
 10
81.24506
 20
-114.153332
 30
0.00
  0
SEQEND
  0
POLYLINE
  8
ME_EC_PLATE_V4-EDGE_CUTS_GBR
 66
1
 10
0.00
 20
0.00
 30
0.00
 40
0.20
 41
0.20
  0
VERTEX
  8
ME_EC_PLATE_V4-EDGE_CUTS_GBR
 10
80.24506
 20
-101.053332
 30
0.00
  0
VERTEX
  8
ME_EC_PLATE_V4-EDGE_CUTS_GBR
 10
81.24506
 20
-102.053332
 30
0.00
  0
SEQEND
  0
POLYLINE
  8
ME_EC_PLATE_V4-EDGE_CUTS_GBR
 66
1
 10
0.00
 20
0.00
 30
0.00
 40
0.20
 41
0.20
  0
VERTEX
  8
ME_EC_PLATE_V4-EDGE_CUTS_GBR
 10
67.54506
 20
-101.053332
 30
0.00
  0
VERTEX
  8
ME_EC_PLATE_V4-EDGE_CUTS_GBR
 10
80.24506
 20
-101.053332
 30
0.00
  0
SEQEND
  0
POLYLINE
  8
ME_EC_PLATE_V4-EDGE_CUTS_GBR
 66
1
 10
0.00
 20
0.00
 30
0.00
 40
0.20
 41
0.20
  0
VERTEX
  8
ME_EC_PLATE_V4-EDGE_CUTS_GBR
 10
47.52506
 20
-102.053332
 30
0.00
  0
VERTEX
  8
ME_EC_PLATE_V4-EDGE_CUTS_GBR
 10
48.52506
 20
-101.053332
 30
0.00
  0
SEQEND
  0
POLYLINE
  8
ME_EC_PLATE_V4-EDGE_CUTS_GBR
 66
1
 10
0.00
 20
0.00
 30
0.00
 40
0.20
 41
0.20
  0
VERTEX
  8
ME_EC_PLATE_V4-EDGE_CUTS_GBR
 10
47.52506
 20
-114.153332
 30
0.00
  0
VERTEX
  8
ME_EC_PLATE_V4-EDGE_CUTS_GBR
 10
47.52506
 20
-102.053332
 30
0.00
  0
SEQEND
  0
POLYLINE
  8
ME_EC_PLATE_V4-EDGE_CUTS_GBR
 66
1
 10
0.00
 20
0.00
 30
0.00
 40
0.20
 41
0.20
  0
VERTEX
  8
ME_EC_PLATE_V4-EDGE_CUTS_GBR
 10
48.52506
 20
-115.153332
 30
0.00
  0
VERTEX
  8
ME_EC_PLATE_V4-EDGE_CUTS_GBR
 10
47.52506
 20
-114.153332
 30
0.00
  0
SEQEND
  0
POLYLINE
  8
ME_EC_PLATE_V4-EDGE_CUTS_GBR
 66
1
 10
0.00
 20
0.00
 30
0.00
 40
0.20
 41
0.20
  0
VERTEX
  8
ME_EC_PLATE_V4-EDGE_CUTS_GBR
 10
61.22506
 20
-115.153332
 30
0.00
  0
VERTEX
  8
ME_EC_PLATE_V4-EDGE_CUTS_GBR
 10
48.52506
 20
-115.153332
 30
0.00
  0
SEQEND
  0
POLYLINE
  8
ME_EC_PLATE_V4-EDGE_CUTS_GBR
 66
1
 10
0.00
 20
0.00
 30
0.00
 40
0.20
 41
0.20
  0
VERTEX
  8
ME_EC_PLATE_V4-EDGE_CUTS_GBR
 10
62.22506
 20
-114.153332
 30
0.00
  0
VERTEX
  8
ME_EC_PLATE_V4-EDGE_CUTS_GBR
 10
61.22506
 20
-115.153332
 30
0.00
  0
SEQEND
  0
POLYLINE
  8
ME_EC_PLATE_V4-EDGE_CUTS_GBR
 66
1
 10
0.00
 20
0.00
 30
0.00
 40
0.20
 41
0.20
  0
VERTEX
  8
ME_EC_PLATE_V4-EDGE_CUTS_GBR
 10
62.22506
 20
-102.053332
 30
0.00
  0
VERTEX
  8
ME_EC_PLATE_V4-EDGE_CUTS_GBR
 10
62.22506
 20
-114.153332
 30
0.00
  0
SEQEND
  0
POLYLINE
  8
ME_EC_PLATE_V4-EDGE_CUTS_GBR
 66
1
 10
0.00
 20
0.00
 30
0.00
 40
0.20
 41
0.20
  0
VERTEX
  8
ME_EC_PLATE_V4-EDGE_CUTS_GBR
 10
61.22506
 20
-101.053332
 30
0.00
  0
VERTEX
  8
ME_EC_PLATE_V4-EDGE_CUTS_GBR
 10
62.22506
 20
-102.053332
 30
0.00
  0
SEQEND
  0
POLYLINE
  8
ME_EC_PLATE_V4-EDGE_CUTS_GBR
 66
1
 10
0.00
 20
0.00
 30
0.00
 40
0.20
 41
0.20
  0
VERTEX
  8
ME_EC_PLATE_V4-EDGE_CUTS_GBR
 10
48.52506
 20
-101.053332
 30
0.00
  0
VERTEX
  8
ME_EC_PLATE_V4-EDGE_CUTS_GBR
 10
61.22506
 20
-101.053332
 30
0.00
  0
SEQEND
  0
POLYLINE
  8
ME_EC_PLATE_V4-EDGE_CUTS_GBR
 66
1
 10
0.00
 20
0.00
 30
0.00
 40
0.20
 41
0.20
  0
VERTEX
  8
ME_EC_PLATE_V4-EDGE_CUTS_GBR
 10
180.525008
 20
-178.123332
 30
0.00
  0
VERTEX
  8
ME_EC_PLATE_V4-EDGE_CUTS_GBR
 10
181.525008
 20
-177.123332
 30
0.00
  0
SEQEND
  0
POLYLINE
  8
ME_EC_PLATE_V4-EDGE_CUTS_GBR
 66
1
 10
0.00
 20
0.00
 30
0.00
 40
0.20
 41
0.20
  0
VERTEX
  8
ME_EC_PLATE_V4-EDGE_CUTS_GBR
 10
180.525008
 20
-190.223332
 30
0.00
  0
VERTEX
  8
ME_EC_PLATE_V4-EDGE_CUTS_GBR
 10
180.525008
 20
-178.123332
 30
0.00
  0
SEQEND
  0
POLYLINE
  8
ME_EC_PLATE_V4-EDGE_CUTS_GBR
 66
1
 10
0.00
 20
0.00
 30
0.00
 40
0.20
 41
0.20
  0
VERTEX
  8
ME_EC_PLATE_V4-EDGE_CUTS_GBR
 10
181.525008
 20
-191.223332
 30
0.00
  0
VERTEX
  8
ME_EC_PLATE_V4-EDGE_CUTS_GBR
 10
180.525008
 20
-190.223332
 30
0.00
  0
SEQEND
  0
POLYLINE
  8
ME_EC_PLATE_V4-EDGE_CUTS_GBR
 66
1
 10
0.00
 20
0.00
 30
0.00
 40
0.20
 41
0.20
  0
VERTEX
  8
ME_EC_PLATE_V4-EDGE_CUTS_GBR
 10
194.225008
 20
-191.223332
 30
0.00
  0
VERTEX
  8
ME_EC_PLATE_V4-EDGE_CUTS_GBR
 10
181.525008
 20
-191.223332
 30
0.00
  0
SEQEND
  0
POLYLINE
  8
ME_EC_PLATE_V4-EDGE_CUTS_GBR
 66
1
 10
0.00
 20
0.00
 30
0.00
 40
0.20
 41
0.20
  0
VERTEX
  8
ME_EC_PLATE_V4-EDGE_CUTS_GBR
 10
195.225008
 20
-190.223332
 30
0.00
  0
VERTEX
  8
ME_EC_PLATE_V4-EDGE_CUTS_GBR
 10
194.225008
 20
-191.223332
 30
0.00
  0
SEQEND
  0
POLYLINE
  8
ME_EC_PLATE_V4-EDGE_CUTS_GBR
 66
1
 10
0.00
 20
0.00
 30
0.00
 40
0.20
 41
0.20
  0
VERTEX
  8
ME_EC_PLATE_V4-EDGE_CUTS_GBR
 10
195.225008
 20
-178.123332
 30
0.00
  0
VERTEX
  8
ME_EC_PLATE_V4-EDGE_CUTS_GBR
 10
195.225008
 20
-190.223332
 30
0.00
  0
SEQEND
  0
POLYLINE
  8
ME_EC_PLATE_V4-EDGE_CUTS_GBR
 66
1
 10
0.00
 20
0.00
 30
0.00
 40
0.20
 41
0.20
  0
VERTEX
  8
ME_EC_PLATE_V4-EDGE_CUTS_GBR
 10
194.225008
 20
-177.123332
 30
0.00
  0
VERTEX
  8
ME_EC_PLATE_V4-EDGE_CUTS_GBR
 10
195.225008
 20
-178.123332
 30
0.00
  0
SEQEND
  0
POLYLINE
  8
ME_EC_PLATE_V4-EDGE_CUTS_GBR
 66
1
 10
0.00
 20
0.00
 30
0.00
 40
0.20
 41
0.20
  0
VERTEX
  8
ME_EC_PLATE_V4-EDGE_CUTS_GBR
 10
181.525008
 20
-177.123332
 30
0.00
  0
VERTEX
  8
ME_EC_PLATE_V4-EDGE_CUTS_GBR
 10
194.225008
 20
-177.123332
 30
0.00
  0
SEQEND
  0
POLYLINE
  8
ME_EC_PLATE_V4-EDGE_CUTS_GBR
 66
1
 10
0.00
 20
0.00
 30
0.00
 70
1
 40
0.20
 41
0.20
  0
VERTEX
  8
ME_EC_PLATE_V4-EDGE_CUTS_GBR
 10
77.79506
 20
-146.143332
 30
0.00
 42
1
  0
VERTEX
  8
ME_EC_PLATE_V4-EDGE_CUTS_GBR
 10
79.69506
 20
-146.143332
 30
0.00
 42
1
  0
SEQEND
  0
POLYLINE
  8
ME_EC_PLATE_V4-EDGE_CUTS_GBR
 66
1
 10
0.00
 20
0.00
 30
0.00
 40
0.20
 41
0.20
  0
VERTEX
  8
ME_EC_PLATE_V4-EDGE_CUTS_GBR
 10
234.069966
 20
-193.213332
 30
0.00
  0
VERTEX
  8
ME_EC_PLATE_V4-EDGE_CUTS_GBR
 10
234.069966
 20
-195.753332
 30
0.00
  0
SEQEND
  0
POLYLINE
  8
ME_EC_PLATE_V4-EDGE_CUTS_GBR
 66
1
 10
0.00
 20
0.00
 30
0.00
 40
0.20
 41
0.20
  0
VERTEX
  8
ME_EC_PLATE_V4-EDGE_CUTS_GBR
 10
141.457466
 20
-195.753332
 30
0.00
  0
VERTEX
  8
ME_EC_PLATE_V4-EDGE_CUTS_GBR
 10
141.457466
 20
-193.213332
 30
0.00
  0
SEQEND
  0
POLYLINE
  8
ME_EC_PLATE_V4-EDGE_CUTS_GBR
 66
1
 10
0.00
 20
0.00
 30
0.00
 40
0.20
 41
0.20
  0
VERTEX
  8
ME_EC_PLATE_V4-EDGE_CUTS_GBR
 10
41.87506
 20
-89.278332
 30
0.00
 42
0.4142136
  0
VERTEX
  8
ME_EC_PLATE_V4-EDGE_CUTS_GBR
 10
39.87506
 20
-91.278332
 30
0.00
 42
0.00
  0
SEQEND
  0
POLYLINE
  8
ME_EC_PLATE_V4-EDGE_CUTS_GBR
 66
1
 10
0.00
 20
0.00
 30
0.00
 40
0.20
 41
0.20
  0
VERTEX
  8
ME_EC_PLATE_V4-EDGE_CUTS_GBR
 10
287.97908
 20
-195.753332
 30
0.00
 42
0.4142136
  0
VERTEX
  8
ME_EC_PLATE_V4-EDGE_CUTS_GBR
 10
285.97908
 20
-197.753332
 30
0.00
 42
0.00
  0
SEQEND
  0
POLYLINE
  8
ME_EC_PLATE_V4-EDGE_CUTS_GBR
 66
1
 10
0.00
 20
0.00
 30
0.00
 40
0.20
 41
0.20
  0
VERTEX
  8
ME_EC_PLATE_V4-EDGE_CUTS_GBR
 10
149.01702
 20
-73.503332
 30
0.00
 42
0.4142136
  0
VERTEX
  8
ME_EC_PLATE_V4-EDGE_CUTS_GBR
 10
151.01702
 20
-71.503332
 30
0.00
 42
0.00
  0
SEQEND
  0
POLYLINE
  8
ME_EC_PLATE_V4-EDGE_CUTS_GBR
 66
1
 10
0.00
 20
0.00
 30
0.00
 40
0.20
 41
0.20
  0
VERTEX
  8
ME_EC_PLATE_V4-EDGE_CUTS_GBR
 10
44.32506
 20
-91.278332
 30
0.00
 42
0.4142136
  0
VERTEX
  8
ME_EC_PLATE_V4-EDGE_CUTS_GBR
 10
42.32506
 20
-89.278332
 30
0.00
 42
0.00
  0
SEQEND
  0
POLYLINE
  8
ME_EC_PLATE_V4-EDGE_CUTS_GBR
 66
1
 10
0.00
 20
0.00
 30
0.00
 40
0.20
 41
0.20
  0
VERTEX
  8
ME_EC_PLATE_V4-EDGE_CUTS_GBR
 10
48.32506
 20
-75.956792
 30
0.00
 42
0.4142136
  0
VERTEX
  8
ME_EC_PLATE_V4-EDGE_CUTS_GBR
 10
46.32506
 20
-77.956792
 30
0.00
 42
0.00
  0
SEQEND
  0
POLYLINE
  8
ME_EC_PLATE_V4-EDGE_CUTS_GBR
 66
1
 10
0.00
 20
0.00
 30
0.00
 40
0.20
 41
0.20
  0
VERTEX
  8
ME_EC_PLATE_V4-EDGE_CUTS_GBR
 10
213.42506
 20
-70.503332
 30
0.00
 42
0.4142136
  0
VERTEX
  8
ME_EC_PLATE_V4-EDGE_CUTS_GBR
 10
211.42506
 20
-68.503332
 30
0.00
 42
0.00
  0
SEQEND
  0
POLYLINE
  8
ME_EC_PLATE_V4-EDGE_CUTS_GBR
 66
1
 10
0.00
 20
0.00
 30
0.00
 40
0.20
 41
0.20
  0
VERTEX
  8
ME_EC_PLATE_V4-EDGE_CUTS_GBR
 10
171.45408
 20
-71.503332
 30
0.00
 42
0.4142136
  0
VERTEX
  8
ME_EC_PLATE_V4-EDGE_CUTS_GBR
 10
173.45408
 20
-73.503332
 30
0.00
 42
0.00
  0
SEQEND
  0
POLYLINE
  8
ME_EC_PLATE_V4-EDGE_CUTS_GBR
 66
1
 10
0.00
 20
0.00
 30
0.00
 40
0.20
 41
0.20
  0
VERTEX
  8
ME_EC_PLATE_V4-EDGE_CUTS_GBR
 10
285.97908
 20
-71.503332
 30
0.00
 42
0.4142136
  0
VERTEX
  8
ME_EC_PLATE_V4-EDGE_CUTS_GBR
 10
287.97908
 20
-73.503332
 30
0.00
 42
0.00
  0
SEQEND
  0
POLYLINE
  8
ME_EC_PLATE_V4-EDGE_CUTS_GBR
 66
1
 10
0.00
 20
0.00
 30
0.00
 40
0.20
 41
0.20
  0
VERTEX
  8
ME_EC_PLATE_V4-EDGE_CUTS_GBR
 10
327.80408
 20
-70.503332
 30
0.00
 42
0.4142136
  0
VERTEX
  8
ME_EC_PLATE_V4-EDGE_CUTS_GBR
 10
325.80408
 20
-68.503332
 30
0.00
 42
0.00
  0
SEQEND
  0
POLYLINE
  8
ME_EC_PLATE_V4-EDGE_CUTS_GBR
 66
1
 10
0.00
 20
0.00
 30
0.00
 40
0.20
 41
0.20
  0
VERTEX
  8
ME_EC_PLATE_V4-EDGE_CUTS_GBR
 10
339.80408
 20
-68.503332
 30
0.00
 42
0.4142136
  0
VERTEX
  8
ME_EC_PLATE_V4-EDGE_CUTS_GBR
 10
337.80408
 20
-70.503332
 30
0.00
 42
0.00
  0
SEQEND
  0
POLYLINE
  8
ME_EC_PLATE_V4-EDGE_CUTS_GBR
 66
1
 10
0.00
 20
0.00
 30
0.00
 40
0.20
 41
0.20
  0
VERTEX
  8
ME_EC_PLATE_V4-EDGE_CUTS_GBR
 10
390.534268
 20
-77.956792
 30
0.00
 42
0.4142136
  0
VERTEX
  8
ME_EC_PLATE_V4-EDGE_CUTS_GBR
 10
388.534268
 20
-75.956792
 30
0.00
 42
0.00
  0
SEQEND
  0
POLYLINE
  8
ME_EC_PLATE_V4-EDGE_CUTS_GBR
 66
1
 10
0.00
 20
0.00
 30
0.00
 40
0.20
 41
0.20
  0
VERTEX
  8
ME_EC_PLATE_V4-EDGE_CUTS_GBR
 10
223.42506
 20
-198.753332
 30
0.00
 42
0.4142136
  0
VERTEX
  8
ME_EC_PLATE_V4-EDGE_CUTS_GBR
 10
225.42506
 20
-200.753332
 30
0.00
 42
0.00
  0
SEQEND
  0
POLYLINE
  8
ME_EC_PLATE_V4-EDGE_CUTS_GBR
 66
1
 10
0.00
 20
0.00
 30
0.00
 40
0.20
 41
0.20
  0
VERTEX
  8
ME_EC_PLATE_V4-EDGE_CUTS_GBR
 10
99.04604
 20
-70.503332
 30
0.00
 42
0.4142136
  0
VERTEX
  8
ME_EC_PLATE_V4-EDGE_CUTS_GBR
 10
97.04604
 20
-68.503332
 30
0.00
 42
0.00
  0
SEQEND
  0
POLYLINE
  8
ME_EC_PLATE_V4-EDGE_CUTS_GBR
 66
1
 10
0.00
 20
0.00
 30
0.00
 40
0.20
 41
0.20
  0
VERTEX
  8
ME_EC_PLATE_V4-EDGE_CUTS_GBR
 10
46.32506
 20
-191.213332
 30
0.00
 42
0.4142136
  0
VERTEX
  8
ME_EC_PLATE_V4-EDGE_CUTS_GBR
 10
48.32506
 20
-193.213332
 30
0.00
 42
0.00
  0
SEQEND
  0
POLYLINE
  8
ME_EC_PLATE_V4-EDGE_CUTS_GBR
 66
1
 10
0.00
 20
0.00
 30
0.00
 40
0.20
 41
0.20
  0
VERTEX
  8
ME_EC_PLATE_V4-EDGE_CUTS_GBR
 10
39.87506
 20
-127.649312
 30
0.00
 42
0.4142136
  0
VERTEX
  8
ME_EC_PLATE_V4-EDGE_CUTS_GBR
 10
41.87506
 20
-129.649312
 30
0.00
 42
0.00
  0
SEQEND
  0
POLYLINE
  8
ME_EC_PLATE_V4-EDGE_CUTS_GBR
 66
1
 10
0.00
 20
0.00
 30
0.00
 40
0.20
 41
0.20
  0
VERTEX
  8
ME_EC_PLATE_V4-EDGE_CUTS_GBR
 10
394.534268
 20
-89.278332
 30
0.00
 42
0.4142136
  0
VERTEX
  8
ME_EC_PLATE_V4-EDGE_CUTS_GBR
 10
392.534268
 20
-91.278332
 30
0.00
 42
0.00
  0
SEQEND
  0
POLYLINE
  8
ME_EC_PLATE_V4-EDGE_CUTS_GBR
 66
1
 10
0.00
 20
0.00
 30
0.00
 40
0.20
 41
0.20
  0
VERTEX
  8
ME_EC_PLATE_V4-EDGE_CUTS_GBR
 10
392.534268
 20
-178.020292
 30
0.00
 42
0.4142136
  0
VERTEX
  8
ME_EC_PLATE_V4-EDGE_CUTS_GBR
 10
394.534268
 20
-180.020292
 30
0.00
 42
0.00
  0
SEQEND
  0
POLYLINE
  8
ME_EC_PLATE_V4-EDGE_CUTS_GBR
 66
1
 10
0.00
 20
0.00
 30
0.00
 40
0.20
 41
0.20
  0
VERTEX
  8
ME_EC_PLATE_V4-EDGE_CUTS_GBR
 10
263.39604
 20
-73.503332
 30
0.00
 42
0.4142136
  0
VERTEX
  8
ME_EC_PLATE_V4-EDGE_CUTS_GBR
 10
265.39604
 20
-71.503332
 30
0.00
 42
0.00
  0
SEQEND
  0
POLYLINE
  8
ME_EC_PLATE_V4-EDGE_CUTS_GBR
 66
1
 10
0.00
 20
0.00
 30
0.00
 40
0.20
 41
0.20
  0
VERTEX
  8
ME_EC_PLATE_V4-EDGE_CUTS_GBR
 10
265.39604
 20
-70.503332
 30
0.00
 42
0.4142136
  0
VERTEX
  8
ME_EC_PLATE_V4-EDGE_CUTS_GBR
 10
263.39604
 20
-68.503332
 30
0.00
 42
0.00
  0
SEQEND
  0
POLYLINE
  8
ME_EC_PLATE_V4-EDGE_CUTS_GBR
 66
1
 10
0.00
 20
0.00
 30
0.00
 40
0.20
 41
0.20
  0
VERTEX
  8
ME_EC_PLATE_V4-EDGE_CUTS_GBR
 10
388.534268
 20
-193.213332
 30
0.00
 42
0.4142136
  0
VERTEX
  8
ME_EC_PLATE_V4-EDGE_CUTS_GBR
 10
390.534268
 20
-191.213332
 30
0.00
 42
0.00
  0
SEQEND
  0
POLYLINE
  8
ME_EC_PLATE_V4-EDGE_CUTS_GBR
 66
1
 10
0.00
 20
0.00
 30
0.00
 40
0.20
 41
0.20
  0
VERTEX
  8
ME_EC_PLATE_V4-EDGE_CUTS_GBR
 10
287.97908
 20
-68.503332
 30
0.00
 42
0.4142136
  0
VERTEX
  8
ME_EC_PLATE_V4-EDGE_CUTS_GBR
 10
285.97908
 20
-70.503332
 30
0.00
 42
0.00
  0
SEQEND
  0
POLYLINE
  8
ME_EC_PLATE_V4-EDGE_CUTS_GBR
 66
1
 10
0.00
 20
0.00
 30
0.00
 40
0.20
 41
0.20
  0
VERTEX
  8
ME_EC_PLATE_V4-EDGE_CUTS_GBR
 10
285.97908
 20
-198.753332
 30
0.00
 42
0.4142136
  0
VERTEX
  8
ME_EC_PLATE_V4-EDGE_CUTS_GBR
 10
287.97908
 20
-200.753332
 30
0.00
 42
0.00
  0
SEQEND
  0
POLYLINE
  8
ME_EC_PLATE_V4-EDGE_CUTS_GBR
 66
1
 10
0.00
 20
0.00
 30
0.00
 40
0.20
 41
0.20
  0
VERTEX
  8
ME_EC_PLATE_V4-EDGE_CUTS_GBR
 10
173.45408
 20
-68.503332
 30
0.00
 42
0.4142136
  0
VERTEX
  8
ME_EC_PLATE_V4-EDGE_CUTS_GBR
 10
171.45408
 20
-70.503332
 30
0.00
 42
0.00
  0
SEQEND
  0
POLYLINE
  8
ME_EC_PLATE_V4-EDGE_CUTS_GBR
 66
1
 10
0.00
 20
0.00
 30
0.00
 40
0.20
 41
0.20
  0
VERTEX
  8
ME_EC_PLATE_V4-EDGE_CUTS_GBR
 10
339.80408
 20
-195.753332
 30
0.00
 42
0.4142136
  0
VERTEX
  8
ME_EC_PLATE_V4-EDGE_CUTS_GBR
 10
337.80408
 20
-197.753332
 30
0.00
 42
0.00
  0
SEQEND
  0
POLYLINE
  8
ME_EC_PLATE_V4-EDGE_CUTS_GBR
 66
1
 10
0.00
 20
0.00
 30
0.00
 40
0.20
 41
0.20
  0
VERTEX
  8
ME_EC_PLATE_V4-EDGE_CUTS_GBR
 10
263.39604
 20
-200.753332
 30
0.00
 42
0.4142136
  0
VERTEX
  8
ME_EC_PLATE_V4-EDGE_CUTS_GBR
 10
265.39604
 20
-198.753332
 30
0.00
 42
0.00
  0
SEQEND
  0
POLYLINE
  8
ME_EC_PLATE_V4-EDGE_CUTS_GBR
 66
1
 10
0.00
 20
0.00
 30
0.00
 40
0.20
 41
0.20
  0
VERTEX
  8
ME_EC_PLATE_V4-EDGE_CUTS_GBR
 10
379.92104
 20
-70.503332
 30
0.00
 42
0.4142136
  0
VERTEX
  8
ME_EC_PLATE_V4-EDGE_CUTS_GBR
 10
377.92104
 20
-68.503332
 30
0.00
 42
0.00
  0
SEQEND
  0
POLYLINE
  8
ME_EC_PLATE_V4-EDGE_CUTS_GBR
 66
1
 10
0.00
 20
0.00
 30
0.00
 40
0.20
 41
0.20
  0
VERTEX
  8
ME_EC_PLATE_V4-EDGE_CUTS_GBR
 10
337.80408
 20
-71.503332
 30
0.00
 42
0.4142136
  0
VERTEX
  8
ME_EC_PLATE_V4-EDGE_CUTS_GBR
 10
339.80408
 20
-73.503332
 30
0.00
 42
0.00
  0
SEQEND
  0
POLYLINE
  8
ME_EC_PLATE_V4-EDGE_CUTS_GBR
 66
1
 10
0.00
 20
0.00
 30
0.00
 40
0.20
 41
0.20
  0
VERTEX
  8
ME_EC_PLATE_V4-EDGE_CUTS_GBR
 10
325.80408
 20
-200.753332
 30
0.00
 42
0.4142136
  0
VERTEX
  8
ME_EC_PLATE_V4-EDGE_CUTS_GBR
 10
327.80408
 20
-198.753332
 30
0.00
 42
0.00
  0
SEQEND
  0
POLYLINE
  8
ME_EC_PLATE_V4-EDGE_CUTS_GBR
 66
1
 10
0.00
 20
0.00
 30
0.00
 40
0.20
 41
0.20
  0
VERTEX
  8
ME_EC_PLATE_V4-EDGE_CUTS_GBR
 10
327.80408
 20
-197.753332
 30
0.00
 42
0.4142136
  0
VERTEX
  8
ME_EC_PLATE_V4-EDGE_CUTS_GBR
 10
325.80408
 20
-195.753332
 30
0.00
 42
0.00
  0
SEQEND
  0
POLYLINE
  8
ME_EC_PLATE_V4-EDGE_CUTS_GBR
 66
1
 10
0.00
 20
0.00
 30
0.00
 40
0.20
 41
0.20
  0
VERTEX
  8
ME_EC_PLATE_V4-EDGE_CUTS_GBR
 10
97.04604
 20
-73.503332
 30
0.00
 42
0.4142136
  0
VERTEX
  8
ME_EC_PLATE_V4-EDGE_CUTS_GBR
 10
99.04604
 20
-71.503332
 30
0.00
 42
0.00
  0
SEQEND
  0
POLYLINE
  8
ME_EC_PLATE_V4-EDGE_CUTS_GBR
 66
1
 10
0.00
 20
0.00
 30
0.00
 40
0.20
 41
0.20
  0
VERTEX
  8
ME_EC_PLATE_V4-EDGE_CUTS_GBR
 10
379.92104
 20
-197.753332
 30
0.00
 42
0.4142136
  0
VERTEX
  8
ME_EC_PLATE_V4-EDGE_CUTS_GBR
 10
377.92104
 20
-195.753332
 30
0.00
 42
0.00
  0
SEQEND
  0
POLYLINE
  8
ME_EC_PLATE_V4-EDGE_CUTS_GBR
 66
1
 10
0.00
 20
0.00
 30
0.00
 40
0.20
 41
0.20
  0
VERTEX
  8
ME_EC_PLATE_V4-EDGE_CUTS_GBR
 10
225.42506
 20
-68.503332
 30
0.00
 42
0.4142136
  0
VERTEX
  8
ME_EC_PLATE_V4-EDGE_CUTS_GBR
 10
223.42506
 20
-70.503332
 30
0.00
 42
0.00
  0
SEQEND
  0
POLYLINE
  8
ME_EC_PLATE_V4-EDGE_CUTS_GBR
 66
1
 10
0.00
 20
0.00
 30
0.00
 40
0.20
 41
0.20
  0
VERTEX
  8
ME_EC_PLATE_V4-EDGE_CUTS_GBR
 10
394.97506
 20
-129.649312
 30
0.00
 42
0.4142136
  0
VERTEX
  8
ME_EC_PLATE_V4-EDGE_CUTS_GBR
 10
396.97506
 20
-127.649312
 30
0.00
 42
0.00
  0
SEQEND
  0
POLYLINE
  8
ME_EC_PLATE_V4-EDGE_CUTS_GBR
 66
1
 10
0.00
 20
0.00
 30
0.00
 40
0.20
 41
0.20
  0
VERTEX
  8
ME_EC_PLATE_V4-EDGE_CUTS_GBR
 10
211.42506
 20
-73.503332
 30
0.00
 42
0.4142136
  0
VERTEX
  8
ME_EC_PLATE_V4-EDGE_CUTS_GBR
 10
213.42506
 20
-71.503332
 30
0.00
 42
0.00
  0
SEQEND
  0
POLYLINE
  8
ME_EC_PLATE_V4-EDGE_CUTS_GBR
 66
1
 10
0.00
 20
0.00
 30
0.00
 40
0.20
 41
0.20
  0
VERTEX
  8
ME_EC_PLATE_V4-EDGE_CUTS_GBR
 10
225.42506
 20
-195.753332
 30
0.00
 42
0.4142136
  0
VERTEX
  8
ME_EC_PLATE_V4-EDGE_CUTS_GBR
 10
223.42506
 20
-197.753332
 30
0.00
 42
0.00
  0
SEQEND
  0
POLYLINE
  8
ME_EC_PLATE_V4-EDGE_CUTS_GBR
 66
1
 10
0.00
 20
0.00
 30
0.00
 40
0.20
 41
0.20
  0
VERTEX
  8
ME_EC_PLATE_V4-EDGE_CUTS_GBR
 10
377.92104
 20
-73.503332
 30
0.00
 42
0.4142136
  0
VERTEX
  8
ME_EC_PLATE_V4-EDGE_CUTS_GBR
 10
379.92104
 20
-71.503332
 30
0.00
 42
0.00
  0
SEQEND
  0
POLYLINE
  8
ME_EC_PLATE_V4-EDGE_CUTS_GBR
 66
1
 10
0.00
 20
0.00
 30
0.00
 40
0.20
 41
0.20
  0
VERTEX
  8
ME_EC_PLATE_V4-EDGE_CUTS_GBR
 10
223.42506
 20
-71.503332
 30
0.00
 42
0.4142136
  0
VERTEX
  8
ME_EC_PLATE_V4-EDGE_CUTS_GBR
 10
225.42506
 20
-73.503332
 30
0.00
 42
0.00
  0
SEQEND
  0
POLYLINE
  8
ME_EC_PLATE_V4-EDGE_CUTS_GBR
 66
1
 10
0.00
 20
0.00
 30
0.00
 40
0.20
 41
0.20
  0
VERTEX
  8
ME_EC_PLATE_V4-EDGE_CUTS_GBR
 10
265.39604
 20
-197.753332
 30
0.00
 42
0.4142136
  0
VERTEX
  8
ME_EC_PLATE_V4-EDGE_CUTS_GBR
 10
263.39604
 20
-195.753332
 30
0.00
 42
0.00
  0
SEQEND
  0
POLYLINE
  8
ME_EC_PLATE_V4-EDGE_CUTS_GBR
 66
1
 10
0.00
 20
0.00
 30
0.00
 40
0.20
 41
0.20
  0
VERTEX
  8
ME_EC_PLATE_V4-EDGE_CUTS_GBR
 10
57.07506
 20
-71.503332
 30
0.00
 42
0.4142136
  0
VERTEX
  8
ME_EC_PLATE_V4-EDGE_CUTS_GBR
 10
59.07506
 20
-73.503332
 30
0.00
 42
0.00
  0
SEQEND
  0
POLYLINE
  8
ME_EC_PLATE_V4-EDGE_CUTS_GBR
 66
1
 10
0.00
 20
0.00
 30
0.00
 40
0.20
 41
0.20
  0
VERTEX
  8
ME_EC_PLATE_V4-EDGE_CUTS_GBR
 10
377.92104
 20
-200.753332
 30
0.00
 42
0.4142136
  0
VERTEX
  8
ME_EC_PLATE_V4-EDGE_CUTS_GBR
 10
379.92104
 20
-198.753332
 30
0.00
 42
0.00
  0
SEQEND
  0
POLYLINE
  8
ME_EC_PLATE_V4-EDGE_CUTS_GBR
 66
1
 10
0.00
 20
0.00
 30
0.00
 40
0.20
 41
0.20
  0
VERTEX
  8
ME_EC_PLATE_V4-EDGE_CUTS_GBR
 10
151.01702
 20
-70.503332
 30
0.00
 42
0.4142136
  0
VERTEX
  8
ME_EC_PLATE_V4-EDGE_CUTS_GBR
 10
149.01702
 20
-68.503332
 30
0.00
 42
0.00
  0
SEQEND
  0
POLYLINE
  8
ME_EC_PLATE_V4-EDGE_CUTS_GBR
 66
1
 10
0.00
 20
0.00
 30
0.00
 40
0.20
 41
0.20
  0
VERTEX
  8
ME_EC_PLATE_V4-EDGE_CUTS_GBR
 10
109.04604
 20
-71.503332
 30
0.00
 42
0.4142136
  0
VERTEX
  8
ME_EC_PLATE_V4-EDGE_CUTS_GBR
 10
111.04604
 20
-73.503332
 30
0.00
 42
0.00
  0
SEQEND
  0
POLYLINE
  8
ME_EC_PLATE_V4-EDGE_CUTS_GBR
 66
1
 10
0.00
 20
0.00
 30
0.00
 40
0.20
 41
0.20
  0
VERTEX
  8
ME_EC_PLATE_V4-EDGE_CUTS_GBR
 10
394.97506
 20
-180.020292
 30
0.00
 42
0.4142136
  0
VERTEX
  8
ME_EC_PLATE_V4-EDGE_CUTS_GBR
 10
396.97506
 20
-178.020292
 30
0.00
 42
0.00
  0
SEQEND
  0
POLYLINE
  8
ME_EC_PLATE_V4-EDGE_CUTS_GBR
 66
1
 10
0.00
 20
0.00
 30
0.00
 40
0.20
 41
0.20
  0
VERTEX
  8
ME_EC_PLATE_V4-EDGE_CUTS_GBR
 10
396.97506
 20
-141.649312
 30
0.00
 42
0.4142136
  0
VERTEX
  8
ME_EC_PLATE_V4-EDGE_CUTS_GBR
 10
394.97506
 20
-139.649312
 30
0.00
 42
0.00
  0
SEQEND
  0
POLYLINE
  8
ME_EC_PLATE_V4-EDGE_CUTS_GBR
 66
1
 10
0.00
 20
0.00
 30
0.00
 40
0.20
 41
0.20
  0
VERTEX
  8
ME_EC_PLATE_V4-EDGE_CUTS_GBR
 10
392.534268
 20
-127.649312
 30
0.00
 42
0.4142136
  0
VERTEX
  8
ME_EC_PLATE_V4-EDGE_CUTS_GBR
 10
394.534268
 20
-129.649312
 30
0.00
 42
0.00
  0
SEQEND
  0
POLYLINE
  8
ME_EC_PLATE_V4-EDGE_CUTS_GBR
 66
1
 10
0.00
 20
0.00
 30
0.00
 40
0.20
 41
0.20
  0
VERTEX
  8
ME_EC_PLATE_V4-EDGE_CUTS_GBR
 10
325.80408
 20
-73.503332
 30
0.00
 42
0.4142136
  0
VERTEX
  8
ME_EC_PLATE_V4-EDGE_CUTS_GBR
 10
327.80408
 20
-71.503332
 30
0.00
 42
0.00
  0
SEQEND
  0
POLYLINE
  8
ME_EC_PLATE_V4-EDGE_CUTS_GBR
 66
1
 10
0.00
 20
0.00
 30
0.00
 40
0.20
 41
0.20
  0
VERTEX
  8
ME_EC_PLATE_V4-EDGE_CUTS_GBR
 10
396.97506
 20
-91.278332
 30
0.00
 42
0.4142136
  0
VERTEX
  8
ME_EC_PLATE_V4-EDGE_CUTS_GBR
 10
394.97506
 20
-89.278332
 30
0.00
 42
0.00
  0
SEQEND
  0
POLYLINE
  8
ME_EC_PLATE_V4-EDGE_CUTS_GBR
 66
1
 10
0.00
 20
0.00
 30
0.00
 40
0.20
 41
0.20
  0
VERTEX
  8
ME_EC_PLATE_V4-EDGE_CUTS_GBR
 10
337.80408
 20
-198.753332
 30
0.00
 42
0.4142136
  0
VERTEX
  8
ME_EC_PLATE_V4-EDGE_CUTS_GBR
 10
339.80408
 20
-200.753332
 30
0.00
 42
0.00
  0
SEQEND
  0
POLYLINE
  8
ME_EC_PLATE_V4-EDGE_CUTS_GBR
 66
1
 10
0.00
 20
0.00
 30
0.00
 40
0.20
 41
0.20
  0
VERTEX
  8
ME_EC_PLATE_V4-EDGE_CUTS_GBR
 10
59.07506
 20
-68.503332
 30
0.00
 42
0.4142136
  0
VERTEX
  8
ME_EC_PLATE_V4-EDGE_CUTS_GBR
 10
57.07506
 20
-70.503332
 30
0.00
 42
0.00
  0
SEQEND
  0
POLYLINE
  8
ME_EC_PLATE_V4-EDGE_CUTS_GBR
 66
1
 10
0.00
 20
0.00
 30
0.00
 40
0.20
 41
0.20
  0
VERTEX
  8
ME_EC_PLATE_V4-EDGE_CUTS_GBR
 10
394.534268
 20
-139.649312
 30
0.00
 42
0.4142136
  0
VERTEX
  8
ME_EC_PLATE_V4-EDGE_CUTS_GBR
 10
392.534268
 20
-141.649312
 30
0.00
 42
0.00
  0
SEQEND
  0
POLYLINE
  8
ME_EC_PLATE_V4-EDGE_CUTS_GBR
 66
1
 10
0.00
 20
0.00
 30
0.00
 40
0.20
 41
0.20
  0
VERTEX
  8
ME_EC_PLATE_V4-EDGE_CUTS_GBR
 10
111.04604
 20
-68.503332
 30
0.00
 42
0.4142136
  0
VERTEX
  8
ME_EC_PLATE_V4-EDGE_CUTS_GBR
 10
109.04604
 20
-70.503332
 30
0.00
 42
0.00
  0
SEQEND
  0
POLYLINE
  8
ME_EC_PLATE_V4-EDGE_CUTS_GBR
 66
1
 10
0.00
 20
0.00
 30
0.00
 40
0.20
 41
0.20
  0
VERTEX
  8
ME_EC_PLATE_V4-EDGE_CUTS_GBR
 10
374.47506
 20
-193.213332
 30
0.00
  0
VERTEX
  8
ME_EC_PLATE_V4-EDGE_CUTS_GBR
 10
374.47506
 20
-195.753332
 30
0.00
  0
SEQEND
  0
POLYLINE
  8
ME_EC_PLATE_V4-EDGE_CUTS_GBR
 66
1
 10
0.00
 20
0.00
 30
0.00
 40
0.20
 41
0.20
  0
VERTEX
  8
ME_EC_PLATE_V4-EDGE_CUTS_GBR
 10
173.45408
 20
-195.753332
 30
0.00
 42
0.4142136
  0
VERTEX
  8
ME_EC_PLATE_V4-EDGE_CUTS_GBR
 10
171.45408
 20
-197.753332
 30
0.00
 42
0.00
  0
SEQEND
  0
POLYLINE
  8
ME_EC_PLATE_V4-EDGE_CUTS_GBR
 66
1
 10
0.00
 20
0.00
 30
0.00
 40
0.20
 41
0.20
  0
VERTEX
  8
ME_EC_PLATE_V4-EDGE_CUTS_GBR
 10
396.97506
 20
-91.278332
 30
0.00
  0
VERTEX
  8
ME_EC_PLATE_V4-EDGE_CUTS_GBR
 10
396.97506
 20
-127.649312
 30
0.00
  0
SEQEND
  0
POLYLINE
  8
ME_EC_PLATE_V4-EDGE_CUTS_GBR
 66
1
 10
0.00
 20
0.00
 30
0.00
 40
0.20
 41
0.20
  0
VERTEX
  8
ME_EC_PLATE_V4-EDGE_CUTS_GBR
 10
392.534268
 20
-176.020292
 30
0.00
  0
VERTEX
  8
ME_EC_PLATE_V4-EDGE_CUTS_GBR
 10
392.534268
 20
-178.020292
 30
0.00
  0
SEQEND
  0
POLYLINE
  8
ME_EC_PLATE_V4-EDGE_CUTS_GBR
 66
1
 10
0.00
 20
0.00
 30
0.00
 40
0.20
 41
0.20
  0
VERTEX
  8
ME_EC_PLATE_V4-EDGE_CUTS_GBR
 10
367.97506
 20
-195.753332
 30
0.00
  0
VERTEX
  8
ME_EC_PLATE_V4-EDGE_CUTS_GBR
 10
367.97506
 20
-193.213332
 30
0.00
  0
SEQEND
  0
POLYLINE
  8
ME_EC_PLATE_V4-EDGE_CUTS_GBR
 66
1
 10
0.00
 20
0.00
 30
0.00
 40
0.20
 41
0.20
  0
VERTEX
  8
ME_EC_PLATE_V4-EDGE_CUTS_GBR
 10
367.97506
 20
-73.503332
 30
0.00
  0
VERTEX
  8
ME_EC_PLATE_V4-EDGE_CUTS_GBR
 10
367.97506
 20
-75.956792
 30
0.00
  0
SEQEND
  0
POLYLINE
  8
ME_EC_PLATE_V4-EDGE_CUTS_GBR
 66
1
 10
0.00
 20
0.00
 30
0.00
 40
0.20
 41
0.20
  0
VERTEX
  8
ME_EC_PLATE_V4-EDGE_CUTS_GBR
 10
211.42506
 20
-200.753332
 30
0.00
 42
0.4142136
  0
VERTEX
  8
ME_EC_PLATE_V4-EDGE_CUTS_GBR
 10
213.42506
 20
-198.753332
 30
0.00
 42
0.00
  0
SEQEND
  0
POLYLINE
  8
ME_EC_PLATE_V4-EDGE_CUTS_GBR
 66
1
 10
0.00
 20
0.00
 30
0.00
 40
0.20
 41
0.20
  0
VERTEX
  8
ME_EC_PLATE_V4-EDGE_CUTS_GBR
 10
396.97506
 20
-141.649312
 30
0.00
  0
VERTEX
  8
ME_EC_PLATE_V4-EDGE_CUTS_GBR
 10
396.97506
 20
-178.020292
 30
0.00
  0
SEQEND
  0
POLYLINE
  8
ME_EC_PLATE_V4-EDGE_CUTS_GBR
 66
1
 10
0.00
 20
0.00
 30
0.00
 40
0.20
 41
0.20
  0
VERTEX
  8
ME_EC_PLATE_V4-EDGE_CUTS_GBR
 10
349.80408
 20
-75.956792
 30
0.00
  0
VERTEX
  8
ME_EC_PLATE_V4-EDGE_CUTS_GBR
 10
349.80408
 20
-73.503332
 30
0.00
  0
SEQEND
  0
POLYLINE
  8
ME_EC_PLATE_V4-EDGE_CUTS_GBR
 66
1
 10
0.00
 20
0.00
 30
0.00
 40
0.20
 41
0.20
  0
VERTEX
  8
ME_EC_PLATE_V4-EDGE_CUTS_GBR
 10
213.42506
 20
-197.753332
 30
0.00
 42
0.4142136
  0
VERTEX
  8
ME_EC_PLATE_V4-EDGE_CUTS_GBR
 10
211.42506
 20
-195.753332
 30
0.00
 42
0.00
  0
SEQEND
  0
POLYLINE
  8
ME_EC_PLATE_V4-EDGE_CUTS_GBR
 66
1
 10
0.00
 20
0.00
 30
0.00
 40
0.20
 41
0.20
  0
VERTEX
  8
ME_EC_PLATE_V4-EDGE_CUTS_GBR
 10
42.32506
 20
-129.649312
 30
0.00
 42
0.4142136
  0
VERTEX
  8
ME_EC_PLATE_V4-EDGE_CUTS_GBR
 10
44.32506
 20
-127.649312
 30
0.00
 42
0.00
  0
SEQEND
  0
POLYLINE
  8
ME_EC_PLATE_V4-EDGE_CUTS_GBR
 66
1
 10
0.00
 20
0.00
 30
0.00
 40
0.20
 41
0.20
  0
VERTEX
  8
ME_EC_PLATE_V4-EDGE_CUTS_GBR
 10
42.32506
 20
-180.020292
 30
0.00
 42
0.4142136
  0
VERTEX
  8
ME_EC_PLATE_V4-EDGE_CUTS_GBR
 10
44.32506
 20
-178.020292
 30
0.00
 42
0.00
  0
SEQEND
  0
POLYLINE
  8
ME_EC_PLATE_V4-EDGE_CUTS_GBR
 66
1
 10
0.00
 20
0.00
 30
0.00
 40
0.20
 41
0.20
  0
VERTEX
  8
ME_EC_PLATE_V4-EDGE_CUTS_GBR
 10
390.534268
 20
-151.649312
 30
0.00
  0
VERTEX
  8
ME_EC_PLATE_V4-EDGE_CUTS_GBR
 10
390.534268
 20
-169.520292
 30
0.00
  0
SEQEND
  0
POLYLINE
  8
ME_EC_PLATE_V4-EDGE_CUTS_GBR
 66
1
 10
0.00
 20
0.00
 30
0.00
 40
0.20
 41
0.20
  0
VERTEX
  8
ME_EC_PLATE_V4-EDGE_CUTS_GBR
 10
379.92104
 20
-70.503332
 30
0.00
  0
VERTEX
  8
ME_EC_PLATE_V4-EDGE_CUTS_GBR
 10
379.92104
 20
-71.503332
 30
0.00
  0
SEQEND
  0
POLYLINE
  8
ME_EC_PLATE_V4-EDGE_CUTS_GBR
 66
1
 10
0.00
 20
0.00
 30
0.00
 40
0.20
 41
0.20
  0
VERTEX
  8
ME_EC_PLATE_V4-EDGE_CUTS_GBR
 10
379.92104
 20
-197.753332
 30
0.00
  0
VERTEX
  8
ME_EC_PLATE_V4-EDGE_CUTS_GBR
 10
379.92104
 20
-198.753332
 30
0.00
  0
SEQEND
  0
POLYLINE
  8
ME_EC_PLATE_V4-EDGE_CUTS_GBR
 66
1
 10
0.00
 20
0.00
 30
0.00
 40
0.20
 41
0.20
  0
VERTEX
  8
ME_EC_PLATE_V4-EDGE_CUTS_GBR
 10
44.32506
 20
-141.649312
 30
0.00
 42
0.4142136
  0
VERTEX
  8
ME_EC_PLATE_V4-EDGE_CUTS_GBR
 10
42.32506
 20
-139.649312
 30
0.00
 42
0.00
  0
SEQEND
  0
POLYLINE
  8
ME_EC_PLATE_V4-EDGE_CUTS_GBR
 66
1
 10
0.00
 20
0.00
 30
0.00
 40
0.20
 41
0.20
  0
VERTEX
  8
ME_EC_PLATE_V4-EDGE_CUTS_GBR
 10
392.534268
 20
-141.649312
 30
0.00
  0
VERTEX
  8
ME_EC_PLATE_V4-EDGE_CUTS_GBR
 10
392.534268
 20
-145.149312
 30
0.00
  0
SEQEND
  0
POLYLINE
  8
ME_EC_PLATE_V4-EDGE_CUTS_GBR
 66
1
 10
0.00
 20
0.00
 30
0.00
 40
0.20
 41
0.20
  0
VERTEX
  8
ME_EC_PLATE_V4-EDGE_CUTS_GBR
 10
41.87506
 20
-139.649312
 30
0.00
 42
0.4142136
  0
VERTEX
  8
ME_EC_PLATE_V4-EDGE_CUTS_GBR
 10
39.87506
 20
-141.649312
 30
0.00
 42
0.00
  0
SEQEND
  0
POLYLINE
  8
ME_EC_PLATE_V4-EDGE_CUTS_GBR
 66
1
 10
0.00
 20
0.00
 30
0.00
 40
0.20
 41
0.20
  0
VERTEX
  8
ME_EC_PLATE_V4-EDGE_CUTS_GBR
 10
99.04604
 20
-197.753332
 30
0.00
 42
0.4142136
  0
VERTEX
  8
ME_EC_PLATE_V4-EDGE_CUTS_GBR
 10
97.04604
 20
-195.753332
 30
0.00
 42
0.00
  0
SEQEND
  0
POLYLINE
  8
ME_EC_PLATE_V4-EDGE_CUTS_GBR
 66
1
 10
0.00
 20
0.00
 30
0.00
 40
0.20
 41
0.20
  0
VERTEX
  8
ME_EC_PLATE_V4-EDGE_CUTS_GBR
 10
57.07506
 20
-198.753332
 30
0.00
 42
0.4142136
  0
VERTEX
  8
ME_EC_PLATE_V4-EDGE_CUTS_GBR
 10
59.07506
 20
-200.753332
 30
0.00
 42
0.00
  0
SEQEND
  0
POLYLINE
  8
ME_EC_PLATE_V4-EDGE_CUTS_GBR
 66
1
 10
0.00
 20
0.00
 30
0.00
 40
0.20
 41
0.20
  0
VERTEX
  8
ME_EC_PLATE_V4-EDGE_CUTS_GBR
 10
111.04604
 20
-195.753332
 30
0.00
 42
0.4142136
  0
VERTEX
  8
ME_EC_PLATE_V4-EDGE_CUTS_GBR
 10
109.04604
 20
-197.753332
 30
0.00
 42
0.00
  0
SEQEND
  0
POLYLINE
  8
ME_EC_PLATE_V4-EDGE_CUTS_GBR
 66
1
 10
0.00
 20
0.00
 30
0.00
 40
0.20
 41
0.20
  0
VERTEX
  8
ME_EC_PLATE_V4-EDGE_CUTS_GBR
 10
392.534268
 20
-91.278332
 30
0.00
  0
VERTEX
  8
ME_EC_PLATE_V4-EDGE_CUTS_GBR
 10
392.534268
 20
-93.278332
 30
0.00
  0
SEQEND
  0
POLYLINE
  8
ME_EC_PLATE_V4-EDGE_CUTS_GBR
 66
1
 10
0.00
 20
0.00
 30
0.00
 40
0.20
 41
0.20
  0
VERTEX
  8
ME_EC_PLATE_V4-EDGE_CUTS_GBR
 10
390.534268
 20
-176.020292
 30
0.00
  0
VERTEX
  8
ME_EC_PLATE_V4-EDGE_CUTS_GBR
 10
390.534268
 20
-191.213332
 30
0.00
  0
SEQEND
  0
POLYLINE
  8
ME_EC_PLATE_V4-EDGE_CUTS_GBR
 66
1
 10
0.00
 20
0.00
 30
0.00
 40
0.20
 41
0.20
  0
VERTEX
  8
ME_EC_PLATE_V4-EDGE_CUTS_GBR
 10
390.534268
 20
-99.778332
 30
0.00
  0
VERTEX
  8
ME_EC_PLATE_V4-EDGE_CUTS_GBR
 10
390.534268
 20
-117.649312
 30
0.00
  0
SEQEND
  0
POLYLINE
  8
ME_EC_PLATE_V4-EDGE_CUTS_GBR
 66
1
 10
0.00
 20
0.00
 30
0.00
 40
0.20
 41
0.20
  0
VERTEX
  8
ME_EC_PLATE_V4-EDGE_CUTS_GBR
 10
390.534268
 20
-77.956792
 30
0.00
  0
VERTEX
  8
ME_EC_PLATE_V4-EDGE_CUTS_GBR
 10
390.534268
 20
-93.278332
 30
0.00
  0
SEQEND
  0
POLYLINE
  8
ME_EC_PLATE_V4-EDGE_CUTS_GBR
 66
1
 10
0.00
 20
0.00
 30
0.00
 40
0.20
 41
0.20
  0
VERTEX
  8
ME_EC_PLATE_V4-EDGE_CUTS_GBR
 10
39.87506
 20
-178.020292
 30
0.00
 42
0.4142136
  0
VERTEX
  8
ME_EC_PLATE_V4-EDGE_CUTS_GBR
 10
41.87506
 20
-180.020292
 30
0.00
 42
0.00
  0
SEQEND
  0
POLYLINE
  8
ME_EC_PLATE_V4-EDGE_CUTS_GBR
 66
1
 10
0.00
 20
0.00
 30
0.00
 40
0.20
 41
0.20
  0
VERTEX
  8
ME_EC_PLATE_V4-EDGE_CUTS_GBR
 10
392.534268
 20
-124.149312
 30
0.00
  0
VERTEX
  8
ME_EC_PLATE_V4-EDGE_CUTS_GBR
 10
392.534268
 20
-127.649312
 30
0.00
  0
SEQEND
  0
POLYLINE
  8
ME_EC_PLATE_V4-EDGE_CUTS_GBR
 66
1
 10
0.00
 20
0.00
 30
0.00
 40
0.20
 41
0.20
  0
VERTEX
  8
ME_EC_PLATE_V4-EDGE_CUTS_GBR
 10
374.47506
 20
-73.503332
 30
0.00
  0
VERTEX
  8
ME_EC_PLATE_V4-EDGE_CUTS_GBR
 10
374.47506
 20
-75.956792
 30
0.00
  0
SEQEND
  0
POLYLINE
  8
ME_EC_PLATE_V4-EDGE_CUTS_GBR
 66
1
 10
0.00
 20
0.00
 30
0.00
 40
0.20
 41
0.20
  0
VERTEX
  8
ME_EC_PLATE_V4-EDGE_CUTS_GBR
 10
390.534268
 20
-124.149312
 30
0.00
  0
VERTEX
  8
ME_EC_PLATE_V4-EDGE_CUTS_GBR
 10
390.534268
 20
-145.149312
 30
0.00
  0
SEQEND
  0
POLYLINE
  8
ME_EC_PLATE_V4-EDGE_CUTS_GBR
 66
1
 10
0.00
 20
0.00
 30
0.00
 40
0.20
 41
0.20
  0
VERTEX
  8
ME_EC_PLATE_V4-EDGE_CUTS_GBR
 10
59.07506
 20
-195.753332
 30
0.00
 42
0.4142136
  0
VERTEX
  8
ME_EC_PLATE_V4-EDGE_CUTS_GBR
 10
57.07506
 20
-197.753332
 30
0.00
 42
0.00
  0
SEQEND
  0
POLYLINE
  8
ME_EC_PLATE_V4-EDGE_CUTS_GBR
 66
1
 10
0.00
 20
0.00
 30
0.00
 40
0.20
 41
0.20
  0
VERTEX
  8
ME_EC_PLATE_V4-EDGE_CUTS_GBR
 10
97.04604
 20
-200.753332
 30
0.00
 42
0.4142136
  0
VERTEX
  8
ME_EC_PLATE_V4-EDGE_CUTS_GBR
 10
99.04604
 20
-198.753332
 30
0.00
 42
0.00
  0
SEQEND
  0
POLYLINE
  8
ME_EC_PLATE_V4-EDGE_CUTS_GBR
 66
1
 10
0.00
 20
0.00
 30
0.00
 40
0.20
 41
0.20
  0
VERTEX
  8
ME_EC_PLATE_V4-EDGE_CUTS_GBR
 10
151.01702
 20
-197.753332
 30
0.00
 42
0.4142136
  0
VERTEX
  8
ME_EC_PLATE_V4-EDGE_CUTS_GBR
 10
149.01702
 20
-195.753332
 30
0.00
 42
0.00
  0
SEQEND
  0
POLYLINE
  8
ME_EC_PLATE_V4-EDGE_CUTS_GBR
 66
1
 10
0.00
 20
0.00
 30
0.00
 40
0.20
 41
0.20
  0
VERTEX
  8
ME_EC_PLATE_V4-EDGE_CUTS_GBR
 10
171.45408
 20
-198.753332
 30
0.00
 42
0.4142136
  0
VERTEX
  8
ME_EC_PLATE_V4-EDGE_CUTS_GBR
 10
173.45408
 20
-200.753332
 30
0.00
 42
0.00
  0
SEQEND
  0
POLYLINE
  8
ME_EC_PLATE_V4-EDGE_CUTS_GBR
 66
1
 10
0.00
 20
0.00
 30
0.00
 40
0.20
 41
0.20
  0
VERTEX
  8
ME_EC_PLATE_V4-EDGE_CUTS_GBR
 10
392.534268
 20
-169.520292
 30
0.00
  0
VERTEX
  8
ME_EC_PLATE_V4-EDGE_CUTS_GBR
 10
392.534268
 20
-151.649312
 30
0.00
  0
SEQEND
  0
POLYLINE
  8
ME_EC_PLATE_V4-EDGE_CUTS_GBR
 66
1
 10
0.00
 20
0.00
 30
0.00
 40
0.20
 41
0.20
  0
VERTEX
  8
ME_EC_PLATE_V4-EDGE_CUTS_GBR
 10
109.04604
 20
-198.753332
 30
0.00
 42
0.4142136
  0
VERTEX
  8
ME_EC_PLATE_V4-EDGE_CUTS_GBR
 10
111.04604
 20
-200.753332
 30
0.00
 42
0.00
  0
SEQEND
  0
POLYLINE
  8
ME_EC_PLATE_V4-EDGE_CUTS_GBR
 66
1
 10
0.00
 20
0.00
 30
0.00
 40
0.20
 41
0.20
  0
VERTEX
  8
ME_EC_PLATE_V4-EDGE_CUTS_GBR
 10
392.534268
 20
-117.649312
 30
0.00
  0
VERTEX
  8
ME_EC_PLATE_V4-EDGE_CUTS_GBR
 10
392.534268
 20
-99.778332
 30
0.00
  0
SEQEND
  0
POLYLINE
  8
ME_EC_PLATE_V4-EDGE_CUTS_GBR
 66
1
 10
0.00
 20
0.00
 30
0.00
 40
0.20
 41
0.20
  0
VERTEX
  8
ME_EC_PLATE_V4-EDGE_CUTS_GBR
 10
149.01702
 20
-200.753332
 30
0.00
 42
0.4142136
  0
VERTEX
  8
ME_EC_PLATE_V4-EDGE_CUTS_GBR
 10
151.01702
 20
-198.753332
 30
0.00
 42
0.00
  0
SEQEND
  0
POLYLINE
  8
ME_EC_PLATE_V4-EDGE_CUTS_GBR
 66
1
 10
0.00
 20
0.00
 30
0.00
 40
0.20
 41
0.20
  0
VERTEX
  8
ME_EC_PLATE_V4-EDGE_CUTS_GBR
 10
211.42506
 20
-68.503332
 30
0.00
  0
VERTEX
  8
ME_EC_PLATE_V4-EDGE_CUTS_GBR
 10
173.45408
 20
-68.503332
 30
0.00
  0
SEQEND
  0
POLYLINE
  8
ME_EC_PLATE_V4-EDGE_CUTS_GBR
 66
1
 10
0.00
 20
0.00
 30
0.00
 40
0.20
 41
0.20
  0
VERTEX
  8
ME_EC_PLATE_V4-EDGE_CUTS_GBR
 10
322.30408
 20
-73.503332
 30
0.00
  0
VERTEX
  8
ME_EC_PLATE_V4-EDGE_CUTS_GBR
 10
322.30408
 20
-75.956792
 30
0.00
  0
SEQEND
  0
POLYLINE
  8
ME_EC_PLATE_V4-EDGE_CUTS_GBR
 66
1
 10
0.00
 20
0.00
 30
0.00
 40
0.20
 41
0.20
  0
VERTEX
  8
ME_EC_PLATE_V4-EDGE_CUTS_GBR
 10
315.80408
 20
-195.753332
 30
0.00
  0
VERTEX
  8
ME_EC_PLATE_V4-EDGE_CUTS_GBR
 10
315.80408
 20
-193.213332
 30
0.00
  0
SEQEND
  0
POLYLINE
  8
ME_EC_PLATE_V4-EDGE_CUTS_GBR
 66
1
 10
0.00
 20
0.00
 30
0.00
 40
0.20
 41
0.20
  0
VERTEX
  8
ME_EC_PLATE_V4-EDGE_CUTS_GBR
 10
325.80408
 20
-68.503332
 30
0.00
  0
VERTEX
  8
ME_EC_PLATE_V4-EDGE_CUTS_GBR
 10
287.97908
 20
-68.503332
 30
0.00
  0
SEQEND
  0
POLYLINE
  8
ME_EC_PLATE_V4-EDGE_CUTS_GBR
 66
1
 10
0.00
 20
0.00
 30
0.00
 40
0.20
 41
0.20
  0
VERTEX
  8
ME_EC_PLATE_V4-EDGE_CUTS_GBR
 10
349.80408
 20
-193.213332
 30
0.00
  0
VERTEX
  8
ME_EC_PLATE_V4-EDGE_CUTS_GBR
 10
349.80408
 20
-195.753332
 30
0.00
  0
SEQEND
  0
POLYLINE
  8
ME_EC_PLATE_V4-EDGE_CUTS_GBR
 66
1
 10
0.00
 20
0.00
 30
0.00
 40
0.20
 41
0.20
  0
VERTEX
  8
ME_EC_PLATE_V4-EDGE_CUTS_GBR
 10
285.97908
 20
-197.753332
 30
0.00
  0
VERTEX
  8
ME_EC_PLATE_V4-EDGE_CUTS_GBR
 10
285.97908
 20
-198.753332
 30
0.00
  0
SEQEND
  0
POLYLINE
  8
ME_EC_PLATE_V4-EDGE_CUTS_GBR
 66
1
 10
0.00
 20
0.00
 30
0.00
 40
0.20
 41
0.20
  0
VERTEX
  8
ME_EC_PLATE_V4-EDGE_CUTS_GBR
 10
343.30408
 20
-75.956792
 30
0.00
  0
VERTEX
  8
ME_EC_PLATE_V4-EDGE_CUTS_GBR
 10
343.30408
 20
-73.503332
 30
0.00
  0
SEQEND
  0
POLYLINE
  8
ME_EC_PLATE_V4-EDGE_CUTS_GBR
 66
1
 10
0.00
 20
0.00
 30
0.00
 40
0.20
 41
0.20
  0
VERTEX
  8
ME_EC_PLATE_V4-EDGE_CUTS_GBR
 10
291.1331
 20
-195.753332
 30
0.00
  0
VERTEX
  8
ME_EC_PLATE_V4-EDGE_CUTS_GBR
 10
291.1331
 20
-193.213332
 30
0.00
  0
SEQEND
  0
POLYLINE
  8
ME_EC_PLATE_V4-EDGE_CUTS_GBR
 66
1
 10
0.00
 20
0.00
 30
0.00
 40
0.20
 41
0.20
  0
VERTEX
  8
ME_EC_PLATE_V4-EDGE_CUTS_GBR
 10
343.30408
 20
-195.753332
 30
0.00
  0
VERTEX
  8
ME_EC_PLATE_V4-EDGE_CUTS_GBR
 10
343.30408
 20
-193.213332
 30
0.00
  0
SEQEND
  0
POLYLINE
  8
ME_EC_PLATE_V4-EDGE_CUTS_GBR
 66
1
 10
0.00
 20
0.00
 30
0.00
 40
0.20
 41
0.20
  0
VERTEX
  8
ME_EC_PLATE_V4-EDGE_CUTS_GBR
 10
337.80408
 20
-198.753332
 30
0.00
  0
VERTEX
  8
ME_EC_PLATE_V4-EDGE_CUTS_GBR
 10
337.80408
 20
-197.753332
 30
0.00
  0
SEQEND
  0
POLYLINE
  8
ME_EC_PLATE_V4-EDGE_CUTS_GBR
 66
1
 10
0.00
 20
0.00
 30
0.00
 40
0.20
 41
0.20
  0
VERTEX
  8
ME_EC_PLATE_V4-EDGE_CUTS_GBR
 10
337.80408
 20
-70.503332
 30
0.00
  0
VERTEX
  8
ME_EC_PLATE_V4-EDGE_CUTS_GBR
 10
337.80408
 20
-71.503332
 30
0.00
  0
SEQEND
  0
POLYLINE
  8
ME_EC_PLATE_V4-EDGE_CUTS_GBR
 66
1
 10
0.00
 20
0.00
 30
0.00
 40
0.20
 41
0.20
  0
VERTEX
  8
ME_EC_PLATE_V4-EDGE_CUTS_GBR
 10
291.1331
 20
-75.956792
 30
0.00
  0
VERTEX
  8
ME_EC_PLATE_V4-EDGE_CUTS_GBR
 10
291.1331
 20
-73.503332
 30
0.00
  0
SEQEND
  0
POLYLINE
  8
ME_EC_PLATE_V4-EDGE_CUTS_GBR
 66
1
 10
0.00
 20
0.00
 30
0.00
 40
0.20
 41
0.20
  0
VERTEX
  8
ME_EC_PLATE_V4-EDGE_CUTS_GBR
 10
315.80408
 20
-73.503332
 30
0.00
  0
VERTEX
  8
ME_EC_PLATE_V4-EDGE_CUTS_GBR
 10
315.80408
 20
-75.956792
 30
0.00
  0
SEQEND
  0
POLYLINE
  8
ME_EC_PLATE_V4-EDGE_CUTS_GBR
 66
1
 10
0.00
 20
0.00
 30
0.00
 40
0.20
 41
0.20
  0
VERTEX
  8
ME_EC_PLATE_V4-EDGE_CUTS_GBR
 10
322.30408
 20
-193.213332
 30
0.00
  0
VERTEX
  8
ME_EC_PLATE_V4-EDGE_CUTS_GBR
 10
322.30408
 20
-195.753332
 30
0.00
  0
SEQEND
  0
POLYLINE
  8
ME_EC_PLATE_V4-EDGE_CUTS_GBR
 66
1
 10
0.00
 20
0.00
 30
0.00
 40
0.20
 41
0.20
  0
VERTEX
  8
ME_EC_PLATE_V4-EDGE_CUTS_GBR
 10
297.6331
 20
-193.213332
 30
0.00
  0
VERTEX
  8
ME_EC_PLATE_V4-EDGE_CUTS_GBR
 10
297.6331
 20
-195.753332
 30
0.00
  0
SEQEND
  0
POLYLINE
  8
ME_EC_PLATE_V4-EDGE_CUTS_GBR
 66
1
 10
0.00
 20
0.00
 30
0.00
 40
0.20
 41
0.20
  0
VERTEX
  8
ME_EC_PLATE_V4-EDGE_CUTS_GBR
 10
149.01702
 20
-68.503332
 30
0.00
  0
VERTEX
  8
ME_EC_PLATE_V4-EDGE_CUTS_GBR
 10
111.04604
 20
-68.503332
 30
0.00
  0
SEQEND
  0
POLYLINE
  8
ME_EC_PLATE_V4-EDGE_CUTS_GBR
 66
1
 10
0.00
 20
0.00
 30
0.00
 40
0.20
 41
0.20
  0
VERTEX
  8
ME_EC_PLATE_V4-EDGE_CUTS_GBR
 10
263.39604
 20
-68.503332
 30
0.00
  0
VERTEX
  8
ME_EC_PLATE_V4-EDGE_CUTS_GBR
 10
225.42506
 20
-68.503332
 30
0.00
  0
SEQEND
  0
POLYLINE
  8
ME_EC_PLATE_V4-EDGE_CUTS_GBR
 66
1
 10
0.00
 20
0.00
 30
0.00
 40
0.20
 41
0.20
  0
VERTEX
  8
ME_EC_PLATE_V4-EDGE_CUTS_GBR
 10
285.97908
 20
-70.503332
 30
0.00
  0
VERTEX
  8
ME_EC_PLATE_V4-EDGE_CUTS_GBR
 10
285.97908
 20
-71.503332
 30
0.00
  0
SEQEND
  0
POLYLINE
  8
ME_EC_PLATE_V4-EDGE_CUTS_GBR
 66
1
 10
0.00
 20
0.00
 30
0.00
 40
0.20
 41
0.20
  0
VERTEX
  8
ME_EC_PLATE_V4-EDGE_CUTS_GBR
 10
97.04604
 20
-68.503332
 30
0.00
  0
VERTEX
  8
ME_EC_PLATE_V4-EDGE_CUTS_GBR
 10
59.07506
 20
-68.503332
 30
0.00
  0
SEQEND
  0
POLYLINE
  8
ME_EC_PLATE_V4-EDGE_CUTS_GBR
 66
1
 10
0.00
 20
0.00
 30
0.00
 40
0.20
 41
0.20
  0
VERTEX
  8
ME_EC_PLATE_V4-EDGE_CUTS_GBR
 10
327.80408
 20
-70.503332
 30
0.00
  0
VERTEX
  8
ME_EC_PLATE_V4-EDGE_CUTS_GBR
 10
327.80408
 20
-71.503332
 30
0.00
  0
SEQEND
  0
POLYLINE
  8
ME_EC_PLATE_V4-EDGE_CUTS_GBR
 66
1
 10
0.00
 20
0.00
 30
0.00
 40
0.20
 41
0.20
  0
VERTEX
  8
ME_EC_PLATE_V4-EDGE_CUTS_GBR
 10
377.92104
 20
-68.503332
 30
0.00
  0
VERTEX
  8
ME_EC_PLATE_V4-EDGE_CUTS_GBR
 10
339.80408
 20
-68.503332
 30
0.00
  0
SEQEND
  0
POLYLINE
  8
ME_EC_PLATE_V4-EDGE_CUTS_GBR
 66
1
 10
0.00
 20
0.00
 30
0.00
 40
0.20
 41
0.20
  0
VERTEX
  8
ME_EC_PLATE_V4-EDGE_CUTS_GBR
 10
297.6331
 20
-75.956792
 30
0.00
  0
VERTEX
  8
ME_EC_PLATE_V4-EDGE_CUTS_GBR
 10
297.6331
 20
-73.503332
 30
0.00
  0
SEQEND
  0
POLYLINE
  8
ME_EC_PLATE_V4-EDGE_CUTS_GBR
 66
1
 10
0.00
 20
0.00
 30
0.00
 40
0.20
 41
0.20
  0
VERTEX
  8
ME_EC_PLATE_V4-EDGE_CUTS_GBR
 10
327.80408
 20
-198.753332
 30
0.00
  0
VERTEX
  8
ME_EC_PLATE_V4-EDGE_CUTS_GBR
 10
327.80408
 20
-197.753332
 30
0.00
  0
SEQEND
  0
POLYLINE
  8
ME_EC_PLATE_V4-EDGE_CUTS_GBR
 66
1
 10
0.00
 20
0.00
 30
0.00
 40
0.20
 41
0.20
  0
VERTEX
  8
ME_EC_PLATE_V4-EDGE_CUTS_GBR
 10
315.80408
 20
-73.503332
 30
0.00
  0
VERTEX
  8
ME_EC_PLATE_V4-EDGE_CUTS_GBR
 10
297.6331
 20
-73.503332
 30
0.00
  0
SEQEND
  0
POLYLINE
  8
ME_EC_PLATE_V4-EDGE_CUTS_GBR
 66
1
 10
0.00
 20
0.00
 30
0.00
 40
0.20
 41
0.20
  0
VERTEX
  8
ME_EC_PLATE_V4-EDGE_CUTS_GBR
 10
228.92506
 20
-75.956792
 30
0.00
  0
VERTEX
  8
ME_EC_PLATE_V4-EDGE_CUTS_GBR
 10
207.92506
 20
-75.956792
 30
0.00
  0
SEQEND
  0
POLYLINE
  8
ME_EC_PLATE_V4-EDGE_CUTS_GBR
 66
1
 10
0.00
 20
0.00
 30
0.00
 40
0.20
 41
0.20
  0
VERTEX
  8
ME_EC_PLATE_V4-EDGE_CUTS_GBR
 10
291.1331
 20
-75.956792
 30
0.00
  0
VERTEX
  8
ME_EC_PLATE_V4-EDGE_CUTS_GBR
 10
260.09604
 20
-75.956792
 30
0.00
  0
SEQEND
  0
POLYLINE
  8
ME_EC_PLATE_V4-EDGE_CUTS_GBR
 66
1
 10
0.00
 20
0.00
 30
0.00
 40
0.20
 41
0.20
  0
VERTEX
  8
ME_EC_PLATE_V4-EDGE_CUTS_GBR
 10
394.97506
 20
-89.278332
 30
0.00
  0
VERTEX
  8
ME_EC_PLATE_V4-EDGE_CUTS_GBR
 10
394.534268
 20
-89.278332
 30
0.00
  0
SEQEND
  0
POLYLINE
  8
ME_EC_PLATE_V4-EDGE_CUTS_GBR
 66
1
 10
0.00
 20
0.00
 30
0.00
 40
0.20
 41
0.20
  0
VERTEX
  8
ME_EC_PLATE_V4-EDGE_CUTS_GBR
 10
260.09604
 20
-73.503332
 30
0.00
  0
VERTEX
  8
ME_EC_PLATE_V4-EDGE_CUTS_GBR
 10
263.39604
 20
-73.503332
 30
0.00
  0
SEQEND
  0
POLYLINE
  8
ME_EC_PLATE_V4-EDGE_CUTS_GBR
 66
1
 10
0.00
 20
0.00
 30
0.00
 40
0.20
 41
0.20
  0
VERTEX
  8
ME_EC_PLATE_V4-EDGE_CUTS_GBR
 10
367.97506
 20
-73.503332
 30
0.00
  0
VERTEX
  8
ME_EC_PLATE_V4-EDGE_CUTS_GBR
 10
349.80408
 20
-73.503332
 30
0.00
  0
SEQEND
  0
POLYLINE
  8
ME_EC_PLATE_V4-EDGE_CUTS_GBR
 66
1
 10
0.00
 20
0.00
 30
0.00
 40
0.20
 41
0.20
  0
VERTEX
  8
ME_EC_PLATE_V4-EDGE_CUTS_GBR
 10
41.87506
 20
-89.278332
 30
0.00
  0
VERTEX
  8
ME_EC_PLATE_V4-EDGE_CUTS_GBR
 10
42.32506
 20
-89.278332
 30
0.00
  0
SEQEND
  0
POLYLINE
  8
ME_EC_PLATE_V4-EDGE_CUTS_GBR
 66
1
 10
0.00
 20
0.00
 30
0.00
 40
0.20
 41
0.20
  0
VERTEX
  8
ME_EC_PLATE_V4-EDGE_CUTS_GBR
 10
325.80408
 20
-73.503332
 30
0.00
  0
VERTEX
  8
ME_EC_PLATE_V4-EDGE_CUTS_GBR
 10
322.30408
 20
-73.503332
 30
0.00
  0
SEQEND
  0
POLYLINE
  8
ME_EC_PLATE_V4-EDGE_CUTS_GBR
 66
1
 10
0.00
 20
0.00
 30
0.00
 40
0.20
 41
0.20
  0
VERTEX
  8
ME_EC_PLATE_V4-EDGE_CUTS_GBR
 10
145.71702
 20
-73.503332
 30
0.00
  0
VERTEX
  8
ME_EC_PLATE_V4-EDGE_CUTS_GBR
 10
149.01702
 20
-73.503332
 30
0.00
  0
SEQEND
  0
POLYLINE
  8
ME_EC_PLATE_V4-EDGE_CUTS_GBR
 66
1
 10
0.00
 20
0.00
 30
0.00
 40
0.20
 41
0.20
  0
VERTEX
  8
ME_EC_PLATE_V4-EDGE_CUTS_GBR
 10
173.45408
 20
-73.503332
 30
0.00
  0
VERTEX
  8
ME_EC_PLATE_V4-EDGE_CUTS_GBR
 10
176.75408
 20
-73.503332
 30
0.00
  0
SEQEND
  0
POLYLINE
  8
ME_EC_PLATE_V4-EDGE_CUTS_GBR
 66
1
 10
0.00
 20
0.00
 30
0.00
 40
0.20
 41
0.20
  0
VERTEX
  8
ME_EC_PLATE_V4-EDGE_CUTS_GBR
 10
87.04604
 20
-75.956792
 30
0.00
  0
VERTEX
  8
ME_EC_PLATE_V4-EDGE_CUTS_GBR
 10
68.87506
 20
-75.956792
 30
0.00
  0
SEQEND
  0
POLYLINE
  8
ME_EC_PLATE_V4-EDGE_CUTS_GBR
 66
1
 10
0.00
 20
0.00
 30
0.00
 40
0.20
 41
0.20
  0
VERTEX
  8
ME_EC_PLATE_V4-EDGE_CUTS_GBR
 10
59.07506
 20
-73.503332
 30
0.00
  0
VERTEX
  8
ME_EC_PLATE_V4-EDGE_CUTS_GBR
 10
62.37506
 20
-73.503332
 30
0.00
  0
SEQEND
  0
POLYLINE
  8
ME_EC_PLATE_V4-EDGE_CUTS_GBR
 66
1
 10
0.00
 20
0.00
 30
0.00
 40
0.20
 41
0.20
  0
VERTEX
  8
ME_EC_PLATE_V4-EDGE_CUTS_GBR
 10
87.04604
 20
-73.503332
 30
0.00
  0
VERTEX
  8
ME_EC_PLATE_V4-EDGE_CUTS_GBR
 10
68.87506
 20
-73.503332
 30
0.00
  0
SEQEND
  0
POLYLINE
  8
ME_EC_PLATE_V4-EDGE_CUTS_GBR
 66
1
 10
0.00
 20
0.00
 30
0.00
 40
0.20
 41
0.20
  0
VERTEX
  8
ME_EC_PLATE_V4-EDGE_CUTS_GBR
 10
62.37506
 20
-75.956792
 30
0.00
  0
VERTEX
  8
ME_EC_PLATE_V4-EDGE_CUTS_GBR
 10
48.32506
 20
-75.956792
 30
0.00
  0
SEQEND
  0
POLYLINE
  8
ME_EC_PLATE_V4-EDGE_CUTS_GBR
 66
1
 10
0.00
 20
0.00
 30
0.00
 40
0.20
 41
0.20
  0
VERTEX
  8
ME_EC_PLATE_V4-EDGE_CUTS_GBR
 10
228.92506
 20
-73.503332
 30
0.00
  0
VERTEX
  8
ME_EC_PLATE_V4-EDGE_CUTS_GBR
 10
225.42506
 20
-73.503332
 30
0.00
  0
SEQEND
  0
POLYLINE
  8
ME_EC_PLATE_V4-EDGE_CUTS_GBR
 66
1
 10
0.00
 20
0.00
 30
0.00
 40
0.20
 41
0.20
  0
VERTEX
  8
ME_EC_PLATE_V4-EDGE_CUTS_GBR
 10
253.59604
 20
-75.956792
 30
0.00
  0
VERTEX
  8
ME_EC_PLATE_V4-EDGE_CUTS_GBR
 10
235.42506
 20
-75.956792
 30
0.00
  0
SEQEND
  0
POLYLINE
  8
ME_EC_PLATE_V4-EDGE_CUTS_GBR
 66
1
 10
0.00
 20
0.00
 30
0.00
 40
0.20
 41
0.20
  0
VERTEX
  8
ME_EC_PLATE_V4-EDGE_CUTS_GBR
 10
97.04604
 20
-73.503332
 30
0.00
  0
VERTEX
  8
ME_EC_PLATE_V4-EDGE_CUTS_GBR
 10
93.54604
 20
-73.503332
 30
0.00
  0
SEQEND
  0
POLYLINE
  8
ME_EC_PLATE_V4-EDGE_CUTS_GBR
 66
1
 10
0.00
 20
0.00
 30
0.00
 40
0.20
 41
0.20
  0
VERTEX
  8
ME_EC_PLATE_V4-EDGE_CUTS_GBR
 10
114.54604
 20
-73.503332
 30
0.00
  0
VERTEX
  8
ME_EC_PLATE_V4-EDGE_CUTS_GBR
 10
111.04604
 20
-73.503332
 30
0.00
  0
SEQEND
  0
POLYLINE
  8
ME_EC_PLATE_V4-EDGE_CUTS_GBR
 66
1
 10
0.00
 20
0.00
 30
0.00
 40
0.20
 41
0.20
  0
VERTEX
  8
ME_EC_PLATE_V4-EDGE_CUTS_GBR
 10
139.21702
 20
-73.503332
 30
0.00
  0
VERTEX
  8
ME_EC_PLATE_V4-EDGE_CUTS_GBR
 10
121.04604
 20
-73.503332
 30
0.00
  0
SEQEND
  0
POLYLINE
  8
ME_EC_PLATE_V4-EDGE_CUTS_GBR
 66
1
 10
0.00
 20
0.00
 30
0.00
 40
0.20
 41
0.20
  0
VERTEX
  8
ME_EC_PLATE_V4-EDGE_CUTS_GBR
 10
377.92104
 20
-73.503332
 30
0.00
  0
VERTEX
  8
ME_EC_PLATE_V4-EDGE_CUTS_GBR
 10
374.47506
 20
-73.503332
 30
0.00
  0
SEQEND
  0
POLYLINE
  8
ME_EC_PLATE_V4-EDGE_CUTS_GBR
 66
1
 10
0.00
 20
0.00
 30
0.00
 40
0.20
 41
0.20
  0
VERTEX
  8
ME_EC_PLATE_V4-EDGE_CUTS_GBR
 10
253.59604
 20
-73.503332
 30
0.00
  0
VERTEX
  8
ME_EC_PLATE_V4-EDGE_CUTS_GBR
 10
235.42506
 20
-73.503332
 30
0.00
  0
SEQEND
  0
POLYLINE
  8
ME_EC_PLATE_V4-EDGE_CUTS_GBR
 66
1
 10
0.00
 20
0.00
 30
0.00
 40
0.20
 41
0.20
  0
VERTEX
  8
ME_EC_PLATE_V4-EDGE_CUTS_GBR
 10
201.42506
 20
-75.956792
 30
0.00
  0
VERTEX
  8
ME_EC_PLATE_V4-EDGE_CUTS_GBR
 10
183.25408
 20
-75.956792
 30
0.00
  0
SEQEND
  0
POLYLINE
  8
ME_EC_PLATE_V4-EDGE_CUTS_GBR
 66
1
 10
0.00
 20
0.00
 30
0.00
 40
0.20
 41
0.20
  0
VERTEX
  8
ME_EC_PLATE_V4-EDGE_CUTS_GBR
 10
201.42506
 20
-73.503332
 30
0.00
  0
VERTEX
  8
ME_EC_PLATE_V4-EDGE_CUTS_GBR
 10
183.25408
 20
-73.503332
 30
0.00
  0
SEQEND
  0
POLYLINE
  8
ME_EC_PLATE_V4-EDGE_CUTS_GBR
 66
1
 10
0.00
 20
0.00
 30
0.00
 40
0.20
 41
0.20
  0
VERTEX
  8
ME_EC_PLATE_V4-EDGE_CUTS_GBR
 10
211.42506
 20
-73.503332
 30
0.00
  0
VERTEX
  8
ME_EC_PLATE_V4-EDGE_CUTS_GBR
 10
207.92506
 20
-73.503332
 30
0.00
  0
SEQEND
  0
POLYLINE
  8
ME_EC_PLATE_V4-EDGE_CUTS_GBR
 66
1
 10
0.00
 20
0.00
 30
0.00
 40
0.20
 41
0.20
  0
VERTEX
  8
ME_EC_PLATE_V4-EDGE_CUTS_GBR
 10
291.1331
 20
-73.503332
 30
0.00
  0
VERTEX
  8
ME_EC_PLATE_V4-EDGE_CUTS_GBR
 10
287.97908
 20
-73.503332
 30
0.00
  0
SEQEND
  0
POLYLINE
  8
ME_EC_PLATE_V4-EDGE_CUTS_GBR
 66
1
 10
0.00
 20
0.00
 30
0.00
 40
0.20
 41
0.20
  0
VERTEX
  8
ME_EC_PLATE_V4-EDGE_CUTS_GBR
 10
343.30408
 20
-75.956792
 30
0.00
  0
VERTEX
  8
ME_EC_PLATE_V4-EDGE_CUTS_GBR
 10
322.30408
 20
-75.956792
 30
0.00
  0
SEQEND
  0
POLYLINE
  8
ME_EC_PLATE_V4-EDGE_CUTS_GBR
 66
1
 10
0.00
 20
0.00
 30
0.00
 40
0.20
 41
0.20
  0
VERTEX
  8
ME_EC_PLATE_V4-EDGE_CUTS_GBR
 10
388.534268
 20
-75.956792
 30
0.00
  0
VERTEX
  8
ME_EC_PLATE_V4-EDGE_CUTS_GBR
 10
374.47506
 20
-75.956792
 30
0.00
  0
SEQEND
  0
POLYLINE
  8
ME_EC_PLATE_V4-EDGE_CUTS_GBR
 66
1
 10
0.00
 20
0.00
 30
0.00
 40
0.20
 41
0.20
  0
VERTEX
  8
ME_EC_PLATE_V4-EDGE_CUTS_GBR
 10
114.54604
 20
-75.956792
 30
0.00
  0
VERTEX
  8
ME_EC_PLATE_V4-EDGE_CUTS_GBR
 10
93.54604
 20
-75.956792
 30
0.00
  0
SEQEND
  0
POLYLINE
  8
ME_EC_PLATE_V4-EDGE_CUTS_GBR
 66
1
 10
0.00
 20
0.00
 30
0.00
 40
0.20
 41
0.20
  0
VERTEX
  8
ME_EC_PLATE_V4-EDGE_CUTS_GBR
 10
139.21702
 20
-75.956792
 30
0.00
  0
VERTEX
  8
ME_EC_PLATE_V4-EDGE_CUTS_GBR
 10
121.04604
 20
-75.956792
 30
0.00
  0
SEQEND
  0
POLYLINE
  8
ME_EC_PLATE_V4-EDGE_CUTS_GBR
 66
1
 10
0.00
 20
0.00
 30
0.00
 40
0.20
 41
0.20
  0
VERTEX
  8
ME_EC_PLATE_V4-EDGE_CUTS_GBR
 10
343.30408
 20
-73.503332
 30
0.00
  0
VERTEX
  8
ME_EC_PLATE_V4-EDGE_CUTS_GBR
 10
339.80408
 20
-73.503332
 30
0.00
  0
SEQEND
  0
POLYLINE
  8
ME_EC_PLATE_V4-EDGE_CUTS_GBR
 66
1
 10
0.00
 20
0.00
 30
0.00
 40
0.20
 41
0.20
  0
VERTEX
  8
ME_EC_PLATE_V4-EDGE_CUTS_GBR
 10
176.75408
 20
-75.956792
 30
0.00
  0
VERTEX
  8
ME_EC_PLATE_V4-EDGE_CUTS_GBR
 10
145.71702
 20
-75.956792
 30
0.00
  0
SEQEND
  0
POLYLINE
  8
ME_EC_PLATE_V4-EDGE_CUTS_GBR
 66
1
 10
0.00
 20
0.00
 30
0.00
 40
0.20
 41
0.20
  0
VERTEX
  8
ME_EC_PLATE_V4-EDGE_CUTS_GBR
 10
315.80408
 20
-75.956792
 30
0.00
  0
VERTEX
  8
ME_EC_PLATE_V4-EDGE_CUTS_GBR
 10
297.6331
 20
-75.956792
 30
0.00
  0
SEQEND
  0
POLYLINE
  8
ME_EC_PLATE_V4-EDGE_CUTS_GBR
 66
1
 10
0.00
 20
0.00
 30
0.00
 40
0.20
 41
0.20
  0
VERTEX
  8
ME_EC_PLATE_V4-EDGE_CUTS_GBR
 10
367.97506
 20
-75.956792
 30
0.00
  0
VERTEX
  8
ME_EC_PLATE_V4-EDGE_CUTS_GBR
 10
349.80408
 20
-75.956792
 30
0.00
  0
SEQEND
  0
POLYLINE
  8
ME_EC_PLATE_V4-EDGE_CUTS_GBR
 66
1
 10
0.00
 20
0.00
 30
0.00
 40
0.20
 41
0.20
  0
VERTEX
  8
ME_EC_PLATE_V4-EDGE_CUTS_GBR
 10
114.54604
 20
-195.753332
 30
0.00
  0
VERTEX
  8
ME_EC_PLATE_V4-EDGE_CUTS_GBR
 10
111.04604
 20
-195.753332
 30
0.00
  0
SEQEND
  0
POLYLINE
  8
ME_EC_PLATE_V4-EDGE_CUTS_GBR
 66
1
 10
0.00
 20
0.00
 30
0.00
 40
0.20
 41
0.20
  0
VERTEX
  8
ME_EC_PLATE_V4-EDGE_CUTS_GBR
 10
141.457466
 20
-195.753332
 30
0.00
  0
VERTEX
  8
ME_EC_PLATE_V4-EDGE_CUTS_GBR
 10
121.04604
 20
-195.753332
 30
0.00
  0
SEQEND
  0
POLYLINE
  8
ME_EC_PLATE_V4-EDGE_CUTS_GBR
 66
1
 10
0.00
 20
0.00
 30
0.00
 40
0.20
 41
0.20
  0
VERTEX
  8
ME_EC_PLATE_V4-EDGE_CUTS_GBR
 10
149.01702
 20
-195.753332
 30
0.00
  0
VERTEX
  8
ME_EC_PLATE_V4-EDGE_CUTS_GBR
 10
146.957466
 20
-195.753332
 30
0.00
  0
SEQEND
  0
POLYLINE
  8
ME_EC_PLATE_V4-EDGE_CUTS_GBR
 66
1
 10
0.00
 20
0.00
 30
0.00
 40
0.20
 41
0.20
  0
VERTEX
  8
ME_EC_PLATE_V4-EDGE_CUTS_GBR
 10
263.39604
 20
-195.753332
 30
0.00
  0
VERTEX
  8
ME_EC_PLATE_V4-EDGE_CUTS_GBR
 10
260.09604
 20
-195.753332
 30
0.00
  0
SEQEND
  0
POLYLINE
  8
ME_EC_PLATE_V4-EDGE_CUTS_GBR
 66
1
 10
0.00
 20
0.00
 30
0.00
 40
0.20
 41
0.20
  0
VERTEX
  8
ME_EC_PLATE_V4-EDGE_CUTS_GBR
 10
377.92104
 20
-200.753332
 30
0.00
  0
VERTEX
  8
ME_EC_PLATE_V4-EDGE_CUTS_GBR
 10
339.80408
 20
-200.753332
 30
0.00
  0
SEQEND
  0
POLYLINE
  8
ME_EC_PLATE_V4-EDGE_CUTS_GBR
 66
1
 10
0.00
 20
0.00
 30
0.00
 40
0.20
 41
0.20
  0
VERTEX
  8
ME_EC_PLATE_V4-EDGE_CUTS_GBR
 10
325.80408
 20
-195.753332
 30
0.00
  0
VERTEX
  8
ME_EC_PLATE_V4-EDGE_CUTS_GBR
 10
322.30408
 20
-195.753332
 30
0.00
  0
SEQEND
  0
POLYLINE
  8
ME_EC_PLATE_V4-EDGE_CUTS_GBR
 66
1
 10
0.00
 20
0.00
 30
0.00
 40
0.20
 41
0.20
  0
VERTEX
  8
ME_EC_PLATE_V4-EDGE_CUTS_GBR
 10
377.92104
 20
-195.753332
 30
0.00
  0
VERTEX
  8
ME_EC_PLATE_V4-EDGE_CUTS_GBR
 10
374.47506
 20
-195.753332
 30
0.00
  0
SEQEND
  0
POLYLINE
  8
ME_EC_PLATE_V4-EDGE_CUTS_GBR
 66
1
 10
0.00
 20
0.00
 30
0.00
 40
0.20
 41
0.20
  0
VERTEX
  8
ME_EC_PLATE_V4-EDGE_CUTS_GBR
 10
151.01702
 20
-197.753332
 30
0.00
  0
VERTEX
  8
ME_EC_PLATE_V4-EDGE_CUTS_GBR
 10
151.01702
 20
-198.753332
 30
0.00
  0
SEQEND
  0
POLYLINE
  8
ME_EC_PLATE_V4-EDGE_CUTS_GBR
 66
1
 10
0.00
 20
0.00
 30
0.00
 40
0.20
 41
0.20
  0
VERTEX
  8
ME_EC_PLATE_V4-EDGE_CUTS_GBR
 10
211.42506
 20
-200.753332
 30
0.00
  0
VERTEX
  8
ME_EC_PLATE_V4-EDGE_CUTS_GBR
 10
173.45408
 20
-200.753332
 30
0.00
  0
SEQEND
  0
POLYLINE
  8
ME_EC_PLATE_V4-EDGE_CUTS_GBR
 66
1
 10
0.00
 20
0.00
 30
0.00
 40
0.20
 41
0.20
  0
VERTEX
  8
ME_EC_PLATE_V4-EDGE_CUTS_GBR
 10
151.01702
 20
-70.503332
 30
0.00
  0
VERTEX
  8
ME_EC_PLATE_V4-EDGE_CUTS_GBR
 10
151.01702
 20
-71.503332
 30
0.00
  0
SEQEND
  0
POLYLINE
  8
ME_EC_PLATE_V4-EDGE_CUTS_GBR
 66
1
 10
0.00
 20
0.00
 30
0.00
 40
0.20
 41
0.20
  0
VERTEX
  8
ME_EC_PLATE_V4-EDGE_CUTS_GBR
 10
139.21702
 20
-73.503332
 30
0.00
  0
VERTEX
  8
ME_EC_PLATE_V4-EDGE_CUTS_GBR
 10
139.21702
 20
-75.956792
 30
0.00
  0
SEQEND
  0
POLYLINE
  8
ME_EC_PLATE_V4-EDGE_CUTS_GBR
 66
1
 10
0.00
 20
0.00
 30
0.00
 40
0.20
 41
0.20
  0
VERTEX
  8
ME_EC_PLATE_V4-EDGE_CUTS_GBR
 10
145.71702
 20
-73.503332
 30
0.00
  0
VERTEX
  8
ME_EC_PLATE_V4-EDGE_CUTS_GBR
 10
145.71702
 20
-75.956792
 30
0.00
  0
SEQEND
  0
POLYLINE
  8
ME_EC_PLATE_V4-EDGE_CUTS_GBR
 66
1
 10
0.00
 20
0.00
 30
0.00
 40
0.20
 41
0.20
  0
VERTEX
  8
ME_EC_PLATE_V4-EDGE_CUTS_GBR
 10
183.25408
 20
-195.753332
 30
0.00
  0
VERTEX
  8
ME_EC_PLATE_V4-EDGE_CUTS_GBR
 10
201.42506
 20
-195.753332
 30
0.00
  0
SEQEND
  0
POLYLINE
  8
ME_EC_PLATE_V4-EDGE_CUTS_GBR
 66
1
 10
0.00
 20
0.00
 30
0.00
 40
0.20
 41
0.20
  0
VERTEX
  8
ME_EC_PLATE_V4-EDGE_CUTS_GBR
 10
68.87506
 20
-195.753332
 30
0.00
  0
VERTEX
  8
ME_EC_PLATE_V4-EDGE_CUTS_GBR
 10
87.04604
 20
-195.753332
 30
0.00
  0
SEQEND
  0
POLYLINE
  8
ME_EC_PLATE_V4-EDGE_CUTS_GBR
 66
1
 10
0.00
 20
0.00
 30
0.00
 40
0.20
 41
0.20
  0
VERTEX
  8
ME_EC_PLATE_V4-EDGE_CUTS_GBR
 10
291.1331
 20
-195.753332
 30
0.00
  0
VERTEX
  8
ME_EC_PLATE_V4-EDGE_CUTS_GBR
 10
287.97908
 20
-195.753332
 30
0.00
  0
SEQEND
  0
POLYLINE
  8
ME_EC_PLATE_V4-EDGE_CUTS_GBR
 66
1
 10
0.00
 20
0.00
 30
0.00
 40
0.20
 41
0.20
  0
VERTEX
  8
ME_EC_PLATE_V4-EDGE_CUTS_GBR
 10
176.75408
 20
-195.753332
 30
0.00
  0
VERTEX
  8
ME_EC_PLATE_V4-EDGE_CUTS_GBR
 10
173.45408
 20
-195.753332
 30
0.00
  0
SEQEND
  0
POLYLINE
  8
ME_EC_PLATE_V4-EDGE_CUTS_GBR
 66
1
 10
0.00
 20
0.00
 30
0.00
 40
0.20
 41
0.20
  0
VERTEX
  8
ME_EC_PLATE_V4-EDGE_CUTS_GBR
 10
253.59604
 20
-195.753332
 30
0.00
  0
VERTEX
  8
ME_EC_PLATE_V4-EDGE_CUTS_GBR
 10
234.069966
 20
-195.753332
 30
0.00
  0
SEQEND
  0
POLYLINE
  8
ME_EC_PLATE_V4-EDGE_CUTS_GBR
 66
1
 10
0.00
 20
0.00
 30
0.00
 40
0.20
 41
0.20
  0
VERTEX
  8
ME_EC_PLATE_V4-EDGE_CUTS_GBR
 10
343.30408
 20
-195.753332
 30
0.00
  0
VERTEX
  8
ME_EC_PLATE_V4-EDGE_CUTS_GBR
 10
339.80408
 20
-195.753332
 30
0.00
  0
SEQEND
  0
POLYLINE
  8
ME_EC_PLATE_V4-EDGE_CUTS_GBR
 66
1
 10
0.00
 20
0.00
 30
0.00
 40
0.20
 41
0.20
  0
VERTEX
  8
ME_EC_PLATE_V4-EDGE_CUTS_GBR
 10
146.957466
 20
-193.213332
 30
0.00
  0
VERTEX
  8
ME_EC_PLATE_V4-EDGE_CUTS_GBR
 10
146.957466
 20
-195.753332
 30
0.00
  0
SEQEND
  0
POLYLINE
  8
ME_EC_PLATE_V4-EDGE_CUTS_GBR
 66
1
 10
0.00
 20
0.00
 30
0.00
 40
0.20
 41
0.20
  0
VERTEX
  8
ME_EC_PLATE_V4-EDGE_CUTS_GBR
 10
97.04604
 20
-200.753332
 30
0.00
  0
VERTEX
  8
ME_EC_PLATE_V4-EDGE_CUTS_GBR
 10
59.07506
 20
-200.753332
 30
0.00
  0
SEQEND
  0
POLYLINE
  8
ME_EC_PLATE_V4-EDGE_CUTS_GBR
 66
1
 10
0.00
 20
0.00
 30
0.00
 40
0.20
 41
0.20
  0
VERTEX
  8
ME_EC_PLATE_V4-EDGE_CUTS_GBR
 10
62.37506
 20
-195.753332
 30
0.00
  0
VERTEX
  8
ME_EC_PLATE_V4-EDGE_CUTS_GBR
 10
59.07506
 20
-195.753332
 30
0.00
  0
SEQEND
  0
POLYLINE
  8
ME_EC_PLATE_V4-EDGE_CUTS_GBR
 66
1
 10
0.00
 20
0.00
 30
0.00
 40
0.20
 41
0.20
  0
VERTEX
  8
ME_EC_PLATE_V4-EDGE_CUTS_GBR
 10
211.42506
 20
-195.753332
 30
0.00
  0
VERTEX
  8
ME_EC_PLATE_V4-EDGE_CUTS_GBR
 10
207.92506
 20
-195.753332
 30
0.00
  0
SEQEND
  0
POLYLINE
  8
ME_EC_PLATE_V4-EDGE_CUTS_GBR
 66
1
 10
0.00
 20
0.00
 30
0.00
 40
0.20
 41
0.20
  0
VERTEX
  8
ME_EC_PLATE_V4-EDGE_CUTS_GBR
 10
149.01702
 20
-200.753332
 30
0.00
  0
VERTEX
  8
ME_EC_PLATE_V4-EDGE_CUTS_GBR
 10
111.04604
 20
-200.753332
 30
0.00
  0
SEQEND
  0
POLYLINE
  8
ME_EC_PLATE_V4-EDGE_CUTS_GBR
 66
1
 10
0.00
 20
0.00
 30
0.00
 40
0.20
 41
0.20
  0
VERTEX
  8
ME_EC_PLATE_V4-EDGE_CUTS_GBR
 10
325.80408
 20
-200.753332
 30
0.00
  0
VERTEX
  8
ME_EC_PLATE_V4-EDGE_CUTS_GBR
 10
287.97908
 20
-200.753332
 30
0.00
  0
SEQEND
  0
POLYLINE
  8
ME_EC_PLATE_V4-EDGE_CUTS_GBR
 66
1
 10
0.00
 20
0.00
 30
0.00
 40
0.20
 41
0.20
  0
VERTEX
  8
ME_EC_PLATE_V4-EDGE_CUTS_GBR
 10
97.04604
 20
-195.753332
 30
0.00
  0
VERTEX
  8
ME_EC_PLATE_V4-EDGE_CUTS_GBR
 10
93.54604
 20
-195.753332
 30
0.00
  0
SEQEND
  0
POLYLINE
  8
ME_EC_PLATE_V4-EDGE_CUTS_GBR
 66
1
 10
0.00
 20
0.00
 30
0.00
 40
0.20
 41
0.20
  0
VERTEX
  8
ME_EC_PLATE_V4-EDGE_CUTS_GBR
 10
227.569966
 20
-195.753332
 30
0.00
  0
VERTEX
  8
ME_EC_PLATE_V4-EDGE_CUTS_GBR
 10
225.42506
 20
-195.753332
 30
0.00
  0
SEQEND
  0
POLYLINE
  8
ME_EC_PLATE_V4-EDGE_CUTS_GBR
 66
1
 10
0.00
 20
0.00
 30
0.00
 40
0.20
 41
0.20
  0
VERTEX
  8
ME_EC_PLATE_V4-EDGE_CUTS_GBR
 10
263.39604
 20
-200.753332
 30
0.00
  0
VERTEX
  8
ME_EC_PLATE_V4-EDGE_CUTS_GBR
 10
225.42506
 20
-200.753332
 30
0.00
  0
SEQEND
  0
POLYLINE
  8
ME_EC_PLATE_V4-EDGE_CUTS_GBR
 66
1
 10
0.00
 20
0.00
 30
0.00
 40
0.20
 41
0.20
  0
VERTEX
  8
ME_EC_PLATE_V4-EDGE_CUTS_GBR
 10
62.37506
 20
-195.753332
 30
0.00
  0
VERTEX
  8
ME_EC_PLATE_V4-EDGE_CUTS_GBR
 10
62.37506
 20
-193.213332
 30
0.00
  0
SEQEND
  0
POLYLINE
  8
ME_EC_PLATE_V4-EDGE_CUTS_GBR
 66
1
 10
0.00
 20
0.00
 30
0.00
 40
0.20
 41
0.20
  0
VERTEX
  8
ME_EC_PLATE_V4-EDGE_CUTS_GBR
 10
99.04604
 20
-198.753332
 30
0.00
  0
VERTEX
  8
ME_EC_PLATE_V4-EDGE_CUTS_GBR
 10
99.04604
 20
-197.753332
 30
0.00
  0
SEQEND
  0
POLYLINE
  8
ME_EC_PLATE_V4-EDGE_CUTS_GBR
 66
1
 10
0.00
 20
0.00
 30
0.00
 40
0.20
 41
0.20
  0
VERTEX
  8
ME_EC_PLATE_V4-EDGE_CUTS_GBR
 10
68.87506
 20
-193.213332
 30
0.00
  0
VERTEX
  8
ME_EC_PLATE_V4-EDGE_CUTS_GBR
 10
68.87506
 20
-195.753332
 30
0.00
  0
SEQEND
  0
POLYLINE
  8
ME_EC_PLATE_V4-EDGE_CUTS_GBR
 66
1
 10
0.00
 20
0.00
 30
0.00
 40
0.20
 41
0.20
  0
VERTEX
  8
ME_EC_PLATE_V4-EDGE_CUTS_GBR
 10
57.07506
 20
-197.753332
 30
0.00
  0
VERTEX
  8
ME_EC_PLATE_V4-EDGE_CUTS_GBR
 10
57.07506
 20
-198.753332
 30
0.00
  0
SEQEND
  0
POLYLINE
  8
ME_EC_PLATE_V4-EDGE_CUTS_GBR
 66
1
 10
0.00
 20
0.00
 30
0.00
 40
0.20
 41
0.20
  0
VERTEX
  8
ME_EC_PLATE_V4-EDGE_CUTS_GBR
 10
68.87506
 20
-75.956792
 30
0.00
  0
VERTEX
  8
ME_EC_PLATE_V4-EDGE_CUTS_GBR
 10
68.87506
 20
-73.503332
 30
0.00
  0
SEQEND
  0
POLYLINE
  8
ME_EC_PLATE_V4-EDGE_CUTS_GBR
 66
1
 10
0.00
 20
0.00
 30
0.00
 40
0.20
 41
0.20
  0
VERTEX
  8
ME_EC_PLATE_V4-EDGE_CUTS_GBR
 10
57.07506
 20
-70.503332
 30
0.00
  0
VERTEX
  8
ME_EC_PLATE_V4-EDGE_CUTS_GBR
 10
57.07506
 20
-71.503332
 30
0.00
  0
SEQEND
  0
POLYLINE
  8
ME_EC_PLATE_V4-EDGE_CUTS_GBR
 66
1
 10
0.00
 20
0.00
 30
0.00
 40
0.20
 41
0.20
  0
VERTEX
  8
ME_EC_PLATE_V4-EDGE_CUTS_GBR
 10
114.54604
 20
-195.753332
 30
0.00
  0
VERTEX
  8
ME_EC_PLATE_V4-EDGE_CUTS_GBR
 10
114.54604
 20
-193.213332
 30
0.00
  0
SEQEND
  0
POLYLINE
  8
ME_EC_PLATE_V4-EDGE_CUTS_GBR
 66
1
 10
0.00
 20
0.00
 30
0.00
 40
0.20
 41
0.20
  0
VERTEX
  8
ME_EC_PLATE_V4-EDGE_CUTS_GBR
 10
121.04604
 20
-75.956792
 30
0.00
  0
VERTEX
  8
ME_EC_PLATE_V4-EDGE_CUTS_GBR
 10
121.04604
 20
-73.503332
 30
0.00
  0
SEQEND
  0
POLYLINE
  8
ME_EC_PLATE_V4-EDGE_CUTS_GBR
 66
1
 10
0.00
 20
0.00
 30
0.00
 40
0.20
 41
0.20
  0
VERTEX
  8
ME_EC_PLATE_V4-EDGE_CUTS_GBR
 10
109.04604
 20
-70.503332
 30
0.00
  0
VERTEX
  8
ME_EC_PLATE_V4-EDGE_CUTS_GBR
 10
109.04604
 20
-71.503332
 30
0.00
  0
SEQEND
  0
POLYLINE
  8
ME_EC_PLATE_V4-EDGE_CUTS_GBR
 66
1
 10
0.00
 20
0.00
 30
0.00
 40
0.20
 41
0.20
  0
VERTEX
  8
ME_EC_PLATE_V4-EDGE_CUTS_GBR
 10
121.04604
 20
-193.213332
 30
0.00
  0
VERTEX
  8
ME_EC_PLATE_V4-EDGE_CUTS_GBR
 10
121.04604
 20
-195.753332
 30
0.00
  0
SEQEND
  0
POLYLINE
  8
ME_EC_PLATE_V4-EDGE_CUTS_GBR
 66
1
 10
0.00
 20
0.00
 30
0.00
 40
0.20
 41
0.20
  0
VERTEX
  8
ME_EC_PLATE_V4-EDGE_CUTS_GBR
 10
93.54604
 20
-193.213332
 30
0.00
  0
VERTEX
  8
ME_EC_PLATE_V4-EDGE_CUTS_GBR
 10
93.54604
 20
-195.753332
 30
0.00
  0
SEQEND
  0
POLYLINE
  8
ME_EC_PLATE_V4-EDGE_CUTS_GBR
 66
1
 10
0.00
 20
0.00
 30
0.00
 40
0.20
 41
0.20
  0
VERTEX
  8
ME_EC_PLATE_V4-EDGE_CUTS_GBR
 10
114.54604
 20
-75.956792
 30
0.00
  0
VERTEX
  8
ME_EC_PLATE_V4-EDGE_CUTS_GBR
 10
114.54604
 20
-73.503332
 30
0.00
  0
SEQEND
  0
POLYLINE
  8
ME_EC_PLATE_V4-EDGE_CUTS_GBR
 66
1
 10
0.00
 20
0.00
 30
0.00
 40
0.20
 41
0.20
  0
VERTEX
  8
ME_EC_PLATE_V4-EDGE_CUTS_GBR
 10
62.37506
 20
-75.956792
 30
0.00
  0
VERTEX
  8
ME_EC_PLATE_V4-EDGE_CUTS_GBR
 10
62.37506
 20
-73.503332
 30
0.00
  0
SEQEND
  0
POLYLINE
  8
ME_EC_PLATE_V4-EDGE_CUTS_GBR
 66
1
 10
0.00
 20
0.00
 30
0.00
 40
0.20
 41
0.20
  0
VERTEX
  8
ME_EC_PLATE_V4-EDGE_CUTS_GBR
 10
109.04604
 20
-198.753332
 30
0.00
  0
VERTEX
  8
ME_EC_PLATE_V4-EDGE_CUTS_GBR
 10
109.04604
 20
-197.753332
 30
0.00
  0
SEQEND
  0
POLYLINE
  8
ME_EC_PLATE_V4-EDGE_CUTS_GBR
 66
1
 10
0.00
 20
0.00
 30
0.00
 40
0.20
 41
0.20
  0
VERTEX
  8
ME_EC_PLATE_V4-EDGE_CUTS_GBR
 10
87.04604
 20
-195.753332
 30
0.00
  0
VERTEX
  8
ME_EC_PLATE_V4-EDGE_CUTS_GBR
 10
87.04604
 20
-193.213332
 30
0.00
  0
SEQEND
  0
POLYLINE
  8
ME_EC_PLATE_V4-EDGE_CUTS_GBR
 66
1
 10
0.00
 20
0.00
 30
0.00
 40
0.20
 41
0.20
  0
VERTEX
  8
ME_EC_PLATE_V4-EDGE_CUTS_GBR
 10
99.04604
 20
-70.503332
 30
0.00
  0
VERTEX
  8
ME_EC_PLATE_V4-EDGE_CUTS_GBR
 10
99.04604
 20
-71.503332
 30
0.00
  0
SEQEND
  0
POLYLINE
  8
ME_EC_PLATE_V4-EDGE_CUTS_GBR
 66
1
 10
0.00
 20
0.00
 30
0.00
 40
0.20
 41
0.20
  0
VERTEX
  8
ME_EC_PLATE_V4-EDGE_CUTS_GBR
 10
87.04604
 20
-73.503332
 30
0.00
  0
VERTEX
  8
ME_EC_PLATE_V4-EDGE_CUTS_GBR
 10
87.04604
 20
-75.956792
 30
0.00
  0
SEQEND
  0
POLYLINE
  8
ME_EC_PLATE_V4-EDGE_CUTS_GBR
 66
1
 10
0.00
 20
0.00
 30
0.00
 40
0.20
 41
0.20
  0
VERTEX
  8
ME_EC_PLATE_V4-EDGE_CUTS_GBR
 10
93.54604
 20
-73.503332
 30
0.00
  0
VERTEX
  8
ME_EC_PLATE_V4-EDGE_CUTS_GBR
 10
93.54604
 20
-75.956792
 30
0.00
  0
SEQEND
  0
POLYLINE
  8
ME_EC_PLATE_V4-EDGE_CUTS_GBR
 66
1
 10
0.00
 20
0.00
 30
0.00
 40
0.20
 41
0.20
  0
VERTEX
  8
ME_EC_PLATE_V4-EDGE_CUTS_GBR
 10
44.32506
 20
-91.278332
 30
0.00
  0
VERTEX
  8
ME_EC_PLATE_V4-EDGE_CUTS_GBR
 10
44.32506
 20
-93.278332
 30
0.00
  0
SEQEND
  0
POLYLINE
  8
ME_EC_PLATE_V4-EDGE_CUTS_GBR
 66
1
 10
0.00
 20
0.00
 30
0.00
 40
0.20
 41
0.20
  0
VERTEX
  8
ME_EC_PLATE_V4-EDGE_CUTS_GBR
 10
46.32506
 20
-169.520292
 30
0.00
  0
VERTEX
  8
ME_EC_PLATE_V4-EDGE_CUTS_GBR
 10
46.32506
 20
-151.649312
 30
0.00
  0
SEQEND
  0
POLYLINE
  8
ME_EC_PLATE_V4-EDGE_CUTS_GBR
 66
1
 10
0.00
 20
0.00
 30
0.00
 40
0.20
 41
0.20
  0
VERTEX
  8
ME_EC_PLATE_V4-EDGE_CUTS_GBR
 10
46.32506
 20
-117.649312
 30
0.00
  0
VERTEX
  8
ME_EC_PLATE_V4-EDGE_CUTS_GBR
 10
46.32506
 20
-99.778332
 30
0.00
  0
SEQEND
  0
POLYLINE
  8
ME_EC_PLATE_V4-EDGE_CUTS_GBR
 66
1
 10
0.00
 20
0.00
 30
0.00
 40
0.20
 41
0.20
  0
VERTEX
  8
ME_EC_PLATE_V4-EDGE_CUTS_GBR
 10
44.32506
 20
-151.649312
 30
0.00
  0
VERTEX
  8
ME_EC_PLATE_V4-EDGE_CUTS_GBR
 10
44.32506
 20
-169.520292
 30
0.00
  0
SEQEND
  0
POLYLINE
  8
ME_EC_PLATE_V4-EDGE_CUTS_GBR
 66
1
 10
0.00
 20
0.00
 30
0.00
 40
0.20
 41
0.20
  0
VERTEX
  8
ME_EC_PLATE_V4-EDGE_CUTS_GBR
 10
46.32506
 20
-77.956792
 30
0.00
  0
VERTEX
  8
ME_EC_PLATE_V4-EDGE_CUTS_GBR
 10
46.32506
 20
-93.278332
 30
0.00
  0
SEQEND
  0
POLYLINE
  8
ME_EC_PLATE_V4-EDGE_CUTS_GBR
 66
1
 10
0.00
 20
0.00
 30
0.00
 40
0.20
 41
0.20
  0
VERTEX
  8
ME_EC_PLATE_V4-EDGE_CUTS_GBR
 10
46.32506
 20
-176.020292
 30
0.00
  0
VERTEX
  8
ME_EC_PLATE_V4-EDGE_CUTS_GBR
 10
46.32506
 20
-191.213332
 30
0.00
  0
SEQEND
  0
POLYLINE
  8
ME_EC_PLATE_V4-EDGE_CUTS_GBR
 66
1
 10
0.00
 20
0.00
 30
0.00
 40
0.20
 41
0.20
  0
VERTEX
  8
ME_EC_PLATE_V4-EDGE_CUTS_GBR
 10
39.87506
 20
-91.278332
 30
0.00
  0
VERTEX
  8
ME_EC_PLATE_V4-EDGE_CUTS_GBR
 10
39.87506
 20
-127.649312
 30
0.00
  0
SEQEND
  0
POLYLINE
  8
ME_EC_PLATE_V4-EDGE_CUTS_GBR
 66
1
 10
0.00
 20
0.00
 30
0.00
 40
0.20
 41
0.20
  0
VERTEX
  8
ME_EC_PLATE_V4-EDGE_CUTS_GBR
 10
44.32506
 20
-99.778332
 30
0.00
  0
VERTEX
  8
ME_EC_PLATE_V4-EDGE_CUTS_GBR
 10
44.32506
 20
-117.649312
 30
0.00
  0
SEQEND
  0
POLYLINE
  8
ME_EC_PLATE_V4-EDGE_CUTS_GBR
 66
1
 10
0.00
 20
0.00
 30
0.00
 40
0.20
 41
0.20
  0
VERTEX
  8
ME_EC_PLATE_V4-EDGE_CUTS_GBR
 10
44.32506
 20
-124.149312
 30
0.00
  0
VERTEX
  8
ME_EC_PLATE_V4-EDGE_CUTS_GBR
 10
44.32506
 20
-127.649312
 30
0.00
  0
SEQEND
  0
POLYLINE
  8
ME_EC_PLATE_V4-EDGE_CUTS_GBR
 66
1
 10
0.00
 20
0.00
 30
0.00
 40
0.20
 41
0.20
  0
VERTEX
  8
ME_EC_PLATE_V4-EDGE_CUTS_GBR
 10
46.32506
 20
-124.149312
 30
0.00
  0
VERTEX
  8
ME_EC_PLATE_V4-EDGE_CUTS_GBR
 10
46.32506
 20
-145.149312
 30
0.00
  0
SEQEND
  0
POLYLINE
  8
ME_EC_PLATE_V4-EDGE_CUTS_GBR
 66
1
 10
0.00
 20
0.00
 30
0.00
 40
0.20
 41
0.20
  0
VERTEX
  8
ME_EC_PLATE_V4-EDGE_CUTS_GBR
 10
44.32506
 20
-176.020292
 30
0.00
  0
VERTEX
  8
ME_EC_PLATE_V4-EDGE_CUTS_GBR
 10
44.32506
 20
-178.020292
 30
0.00
  0
SEQEND
  0
POLYLINE
  8
ME_EC_PLATE_V4-EDGE_CUTS_GBR
 66
1
 10
0.00
 20
0.00
 30
0.00
 40
0.20
 41
0.20
  0
VERTEX
  8
ME_EC_PLATE_V4-EDGE_CUTS_GBR
 10
39.87506
 20
-141.649312
 30
0.00
  0
VERTEX
  8
ME_EC_PLATE_V4-EDGE_CUTS_GBR
 10
39.87506
 20
-178.020292
 30
0.00
  0
SEQEND
  0
POLYLINE
  8
ME_EC_PLATE_V4-EDGE_CUTS_GBR
 66
1
 10
0.00
 20
0.00
 30
0.00
 40
0.20
 41
0.20
  0
VERTEX
  8
ME_EC_PLATE_V4-EDGE_CUTS_GBR
 10
44.32506
 20
-141.649312
 30
0.00
  0
VERTEX
  8
ME_EC_PLATE_V4-EDGE_CUTS_GBR
 10
44.32506
 20
-145.149312
 30
0.00
  0
SEQEND
  0
POLYLINE
  8
ME_EC_PLATE_V4-EDGE_CUTS_GBR
 66
1
 10
0.00
 20
0.00
 30
0.00
 40
0.20
 41
0.20
  0
VERTEX
  8
ME_EC_PLATE_V4-EDGE_CUTS_GBR
 10
394.97506
 20
-180.020292
 30
0.00
  0
VERTEX
  8
ME_EC_PLATE_V4-EDGE_CUTS_GBR
 10
394.534268
 20
-180.020292
 30
0.00
  0
SEQEND
  0
POLYLINE
  8
ME_EC_PLATE_V4-EDGE_CUTS_GBR
 66
1
 10
0.00
 20
0.00
 30
0.00
 40
0.20
 41
0.20
  0
VERTEX
  8
ME_EC_PLATE_V4-EDGE_CUTS_GBR
 10
87.04604
 20
-193.213332
 30
0.00
  0
VERTEX
  8
ME_EC_PLATE_V4-EDGE_CUTS_GBR
 10
68.87506
 20
-193.213332
 30
0.00
  0
SEQEND
  0
POLYLINE
  8
ME_EC_PLATE_V4-EDGE_CUTS_GBR
 66
1
 10
0.00
 20
0.00
 30
0.00
 40
0.20
 41
0.20
  0
VERTEX
  8
ME_EC_PLATE_V4-EDGE_CUTS_GBR
 10
343.30408
 20
-193.213332
 30
0.00
  0
VERTEX
  8
ME_EC_PLATE_V4-EDGE_CUTS_GBR
 10
322.30408
 20
-193.213332
 30
0.00
  0
SEQEND
  0
POLYLINE
  8
ME_EC_PLATE_V4-EDGE_CUTS_GBR
 66
1
 10
0.00
 20
0.00
 30
0.00
 40
0.20
 41
0.20
  0
VERTEX
  8
ME_EC_PLATE_V4-EDGE_CUTS_GBR
 10
171.45408
 20
-70.503332
 30
0.00
  0
VERTEX
  8
ME_EC_PLATE_V4-EDGE_CUTS_GBR
 10
171.45408
 20
-71.503332
 30
0.00
  0
SEQEND
  0
POLYLINE
  8
ME_EC_PLATE_V4-EDGE_CUTS_GBR
 66
1
 10
0.00
 20
0.00
 30
0.00
 40
0.20
 41
0.20
  0
VERTEX
  8
ME_EC_PLATE_V4-EDGE_CUTS_GBR
 10
367.97506
 20
-193.213332
 30
0.00
  0
VERTEX
  8
ME_EC_PLATE_V4-EDGE_CUTS_GBR
 10
349.80408
 20
-193.213332
 30
0.00
  0
SEQEND
  0
POLYLINE
  8
ME_EC_PLATE_V4-EDGE_CUTS_GBR
 66
1
 10
0.00
 20
0.00
 30
0.00
 40
0.20
 41
0.20
  0
VERTEX
  8
ME_EC_PLATE_V4-EDGE_CUTS_GBR
 10
388.534268
 20
-193.213332
 30
0.00
  0
VERTEX
  8
ME_EC_PLATE_V4-EDGE_CUTS_GBR
 10
374.47506
 20
-193.213332
 30
0.00
  0
SEQEND
  0
POLYLINE
  8
ME_EC_PLATE_V4-EDGE_CUTS_GBR
 66
1
 10
0.00
 20
0.00
 30
0.00
 40
0.20
 41
0.20
  0
VERTEX
  8
ME_EC_PLATE_V4-EDGE_CUTS_GBR
 10
227.569966
 20
-193.213332
 30
0.00
  0
VERTEX
  8
ME_EC_PLATE_V4-EDGE_CUTS_GBR
 10
207.92506
 20
-193.213332
 30
0.00
  0
SEQEND
  0
POLYLINE
  8
ME_EC_PLATE_V4-EDGE_CUTS_GBR
 66
1
 10
0.00
 20
0.00
 30
0.00
 40
0.20
 41
0.20
  0
VERTEX
  8
ME_EC_PLATE_V4-EDGE_CUTS_GBR
 10
114.54604
 20
-193.213332
 30
0.00
  0
VERTEX
  8
ME_EC_PLATE_V4-EDGE_CUTS_GBR
 10
93.54604
 20
-193.213332
 30
0.00
  0
SEQEND
  0
POLYLINE
  8
ME_EC_PLATE_V4-EDGE_CUTS_GBR
 66
1
 10
0.00
 20
0.00
 30
0.00
 40
0.20
 41
0.20
  0
VERTEX
  8
ME_EC_PLATE_V4-EDGE_CUTS_GBR
 10
176.75408
 20
-195.753332
 30
0.00
  0
VERTEX
  8
ME_EC_PLATE_V4-EDGE_CUTS_GBR
 10
176.75408
 20
-193.213332
 30
0.00
  0
SEQEND
  0
POLYLINE
  8
ME_EC_PLATE_V4-EDGE_CUTS_GBR
 66
1
 10
0.00
 20
0.00
 30
0.00
 40
0.20
 41
0.20
  0
VERTEX
  8
ME_EC_PLATE_V4-EDGE_CUTS_GBR
 10
171.45408
 20
-197.753332
 30
0.00
  0
VERTEX
  8
ME_EC_PLATE_V4-EDGE_CUTS_GBR
 10
171.45408
 20
-198.753332
 30
0.00
  0
SEQEND
  0
POLYLINE
  8
ME_EC_PLATE_V4-EDGE_CUTS_GBR
 66
1
 10
0.00
 20
0.00
 30
0.00
 40
0.20
 41
0.20
  0
VERTEX
  8
ME_EC_PLATE_V4-EDGE_CUTS_GBR
 10
176.75408
 20
-193.213332
 30
0.00
  0
VERTEX
  8
ME_EC_PLATE_V4-EDGE_CUTS_GBR
 10
146.957466
 20
-193.213332
 30
0.00
  0
SEQEND
  0
POLYLINE
  8
ME_EC_PLATE_V4-EDGE_CUTS_GBR
 66
1
 10
0.00
 20
0.00
 30
0.00
 40
0.20
 41
0.20
  0
VERTEX
  8
ME_EC_PLATE_V4-EDGE_CUTS_GBR
 10
201.42506
 20
-193.213332
 30
0.00
  0
VERTEX
  8
ME_EC_PLATE_V4-EDGE_CUTS_GBR
 10
183.25408
 20
-193.213332
 30
0.00
  0
SEQEND
  0
POLYLINE
  8
ME_EC_PLATE_V4-EDGE_CUTS_GBR
 66
1
 10
0.00
 20
0.00
 30
0.00
 40
0.20
 41
0.20
  0
VERTEX
  8
ME_EC_PLATE_V4-EDGE_CUTS_GBR
 10
291.1331
 20
-193.213332
 30
0.00
  0
VERTEX
  8
ME_EC_PLATE_V4-EDGE_CUTS_GBR
 10
260.09604
 20
-193.213332
 30
0.00
  0
SEQEND
  0
POLYLINE
  8
ME_EC_PLATE_V4-EDGE_CUTS_GBR
 66
1
 10
0.00
 20
0.00
 30
0.00
 40
0.20
 41
0.20
  0
VERTEX
  8
ME_EC_PLATE_V4-EDGE_CUTS_GBR
 10
349.80408
 20
-195.753332
 30
0.00
  0
VERTEX
  8
ME_EC_PLATE_V4-EDGE_CUTS_GBR
 10
367.97506
 20
-195.753332
 30
0.00
  0
SEQEND
  0
POLYLINE
  8
ME_EC_PLATE_V4-EDGE_CUTS_GBR
 66
1
 10
0.00
 20
0.00
 30
0.00
 40
0.20
 41
0.20
  0
VERTEX
  8
ME_EC_PLATE_V4-EDGE_CUTS_GBR
 10
297.6331
 20
-195.753332
 30
0.00
  0
VERTEX
  8
ME_EC_PLATE_V4-EDGE_CUTS_GBR
 10
315.80408
 20
-195.753332
 30
0.00
  0
SEQEND
  0
POLYLINE
  8
ME_EC_PLATE_V4-EDGE_CUTS_GBR
 66
1
 10
0.00
 20
0.00
 30
0.00
 40
0.20
 41
0.20
  0
VERTEX
  8
ME_EC_PLATE_V4-EDGE_CUTS_GBR
 10
315.80408
 20
-193.213332
 30
0.00
  0
VERTEX
  8
ME_EC_PLATE_V4-EDGE_CUTS_GBR
 10
297.6331
 20
-193.213332
 30
0.00
  0
SEQEND
  0
POLYLINE
  8
ME_EC_PLATE_V4-EDGE_CUTS_GBR
 66
1
 10
0.00
 20
0.00
 30
0.00
 40
0.20
 41
0.20
  0
VERTEX
  8
ME_EC_PLATE_V4-EDGE_CUTS_GBR
 10
141.457466
 20
-193.213332
 30
0.00
  0
VERTEX
  8
ME_EC_PLATE_V4-EDGE_CUTS_GBR
 10
121.04604
 20
-193.213332
 30
0.00
  0
SEQEND
  0
POLYLINE
  8
ME_EC_PLATE_V4-EDGE_CUTS_GBR
 66
1
 10
0.00
 20
0.00
 30
0.00
 40
0.20
 41
0.20
  0
VERTEX
  8
ME_EC_PLATE_V4-EDGE_CUTS_GBR
 10
253.59604
 20
-193.213332
 30
0.00
  0
VERTEX
  8
ME_EC_PLATE_V4-EDGE_CUTS_GBR
 10
234.069966
 20
-193.213332
 30
0.00
  0
SEQEND
  0
POLYLINE
  8
ME_EC_PLATE_V4-EDGE_CUTS_GBR
 66
1
 10
0.00
 20
0.00
 30
0.00
 40
0.20
 41
0.20
  0
VERTEX
  8
ME_EC_PLATE_V4-EDGE_CUTS_GBR
 10
176.75408
 20
-75.956792
 30
0.00
  0
VERTEX
  8
ME_EC_PLATE_V4-EDGE_CUTS_GBR
 10
176.75408
 20
-73.503332
 30
0.00
  0
SEQEND
  0
POLYLINE
  8
ME_EC_PLATE_V4-EDGE_CUTS_GBR
 66
1
 10
0.00
 20
0.00
 30
0.00
 40
0.20
 41
0.20
  0
VERTEX
  8
ME_EC_PLATE_V4-EDGE_CUTS_GBR
 10
41.87506
 20
-180.020292
 30
0.00
  0
VERTEX
  8
ME_EC_PLATE_V4-EDGE_CUTS_GBR
 10
42.32506
 20
-180.020292
 30
0.00
  0
SEQEND
  0
POLYLINE
  8
ME_EC_PLATE_V4-EDGE_CUTS_GBR
 66
1
 10
0.00
 20
0.00
 30
0.00
 40
0.20
 41
0.20
  0
VERTEX
  8
ME_EC_PLATE_V4-EDGE_CUTS_GBR
 10
62.37506
 20
-193.213332
 30
0.00
  0
VERTEX
  8
ME_EC_PLATE_V4-EDGE_CUTS_GBR
 10
48.32506
 20
-193.213332
 30
0.00
  0
SEQEND
  0
POLYLINE
  8
ME_EC_PLATE_V4-EDGE_CUTS_GBR
 66
1
 10
0.00
 20
0.00
 30
0.00
 40
0.20
 41
0.20
  0
VERTEX
  8
ME_EC_PLATE_V4-EDGE_CUTS_GBR
 10
46.32506
 20
-99.778332
 30
0.00
  0
VERTEX
  8
ME_EC_PLATE_V4-EDGE_CUTS_GBR
 10
44.32506
 20
-99.778332
 30
0.00
  0
SEQEND
  0
POLYLINE
  8
ME_EC_PLATE_V4-EDGE_CUTS_GBR
 66
1
 10
0.00
 20
0.00
 30
0.00
 40
0.20
 41
0.20
  0
VERTEX
  8
ME_EC_PLATE_V4-EDGE_CUTS_GBR
 10
265.39604
 20
-197.753332
 30
0.00
  0
VERTEX
  8
ME_EC_PLATE_V4-EDGE_CUTS_GBR
 10
265.39604
 20
-198.753332
 30
0.00
  0
SEQEND
  0
POLYLINE
  8
ME_EC_PLATE_V4-EDGE_CUTS_GBR
 66
1
 10
0.00
 20
0.00
 30
0.00
 40
0.20
 41
0.20
  0
VERTEX
  8
ME_EC_PLATE_V4-EDGE_CUTS_GBR
 10
390.534268
 20
-93.278332
 30
0.00
  0
VERTEX
  8
ME_EC_PLATE_V4-EDGE_CUTS_GBR
 10
392.534268
 20
-93.278332
 30
0.00
  0
SEQEND
  0
POLYLINE
  8
ME_EC_PLATE_V4-EDGE_CUTS_GBR
 66
1
 10
0.00
 20
0.00
 30
0.00
 40
0.20
 41
0.20
  0
VERTEX
  8
ME_EC_PLATE_V4-EDGE_CUTS_GBR
 10
265.39604
 20
-70.503332
 30
0.00
  0
VERTEX
  8
ME_EC_PLATE_V4-EDGE_CUTS_GBR
 10
265.39604
 20
-71.503332
 30
0.00
  0
SEQEND
  0
POLYLINE
  8
ME_EC_PLATE_V4-EDGE_CUTS_GBR
 66
1
 10
0.00
 20
0.00
 30
0.00
 40
0.20
 41
0.20
  0
VERTEX
  8
ME_EC_PLATE_V4-EDGE_CUTS_GBR
 10
44.32506
 20
-93.278332
 30
0.00
  0
VERTEX
  8
ME_EC_PLATE_V4-EDGE_CUTS_GBR
 10
46.32506
 20
-93.278332
 30
0.00
  0
SEQEND
  0
POLYLINE
  8
ME_EC_PLATE_V4-EDGE_CUTS_GBR
 66
1
 10
0.00
 20
0.00
 30
0.00
 40
0.20
 41
0.20
  0
VERTEX
  8
ME_EC_PLATE_V4-EDGE_CUTS_GBR
 10
390.534268
 20
-99.778332
 30
0.00
  0
VERTEX
  8
ME_EC_PLATE_V4-EDGE_CUTS_GBR
 10
392.534268
 20
-99.778332
 30
0.00
  0
SEQEND
  0
POLYLINE
  8
ME_EC_PLATE_V4-EDGE_CUTS_GBR
 66
1
 10
0.00
 20
0.00
 30
0.00
 40
0.20
 41
0.20
  0
VERTEX
  8
ME_EC_PLATE_V4-EDGE_CUTS_GBR
 10
253.59604
 20
-73.503332
 30
0.00
  0
VERTEX
  8
ME_EC_PLATE_V4-EDGE_CUTS_GBR
 10
253.59604
 20
-75.956792
 30
0.00
  0
SEQEND
  0
POLYLINE
  8
ME_EC_PLATE_V4-EDGE_CUTS_GBR
 66
1
 10
0.00
 20
0.00
 30
0.00
 40
0.20
 41
0.20
  0
VERTEX
  8
ME_EC_PLATE_V4-EDGE_CUTS_GBR
 10
392.534268
 20
-124.149312
 30
0.00
  0
VERTEX
  8
ME_EC_PLATE_V4-EDGE_CUTS_GBR
 10
390.534268
 20
-124.149312
 30
0.00
  0
SEQEND
  0
POLYLINE
  8
ME_EC_PLATE_V4-EDGE_CUTS_GBR
 66
1
 10
0.00
 20
0.00
 30
0.00
 40
0.20
 41
0.20
  0
VERTEX
  8
ME_EC_PLATE_V4-EDGE_CUTS_GBR
 10
44.32506
 20
-117.649312
 30
0.00
  0
VERTEX
  8
ME_EC_PLATE_V4-EDGE_CUTS_GBR
 10
46.32506
 20
-117.649312
 30
0.00
  0
SEQEND
  0
POLYLINE
  8
ME_EC_PLATE_V4-EDGE_CUTS_GBR
 66
1
 10
0.00
 20
0.00
 30
0.00
 40
0.20
 41
0.20
  0
VERTEX
  8
ME_EC_PLATE_V4-EDGE_CUTS_GBR
 10
260.09604
 20
-193.213332
 30
0.00
  0
VERTEX
  8
ME_EC_PLATE_V4-EDGE_CUTS_GBR
 10
260.09604
 20
-195.753332
 30
0.00
  0
SEQEND
  0
POLYLINE
  8
ME_EC_PLATE_V4-EDGE_CUTS_GBR
 66
1
 10
0.00
 20
0.00
 30
0.00
 40
0.20
 41
0.20
  0
VERTEX
  8
ME_EC_PLATE_V4-EDGE_CUTS_GBR
 10
235.42506
 20
-75.956792
 30
0.00
  0
VERTEX
  8
ME_EC_PLATE_V4-EDGE_CUTS_GBR
 10
235.42506
 20
-73.503332
 30
0.00
  0
SEQEND
  0
POLYLINE
  8
ME_EC_PLATE_V4-EDGE_CUTS_GBR
 66
1
 10
0.00
 20
0.00
 30
0.00
 40
0.20
 41
0.20
  0
VERTEX
  8
ME_EC_PLATE_V4-EDGE_CUTS_GBR
 10
260.09604
 20
-73.503332
 30
0.00
  0
VERTEX
  8
ME_EC_PLATE_V4-EDGE_CUTS_GBR
 10
260.09604
 20
-75.956792
 30
0.00
  0
SEQEND
  0
POLYLINE
  8
ME_EC_PLATE_V4-EDGE_CUTS_GBR
 66
1
 10
0.00
 20
0.00
 30
0.00
 40
0.20
 41
0.20
  0
VERTEX
  8
ME_EC_PLATE_V4-EDGE_CUTS_GBR
 10
253.59604
 20
-195.753332
 30
0.00
  0
VERTEX
  8
ME_EC_PLATE_V4-EDGE_CUTS_GBR
 10
253.59604
 20
-193.213332
 30
0.00
  0
SEQEND
  0
POLYLINE
  8
ME_EC_PLATE_V4-EDGE_CUTS_GBR
 66
1
 10
0.00
 20
0.00
 30
0.00
 40
0.20
 41
0.20
  0
VERTEX
  8
ME_EC_PLATE_V4-EDGE_CUTS_GBR
 10
46.32506
 20
-124.149312
 30
0.00
  0
VERTEX
  8
ME_EC_PLATE_V4-EDGE_CUTS_GBR
 10
44.32506
 20
-124.149312
 30
0.00
  0
SEQEND
  0
POLYLINE
  8
ME_EC_PLATE_V4-EDGE_CUTS_GBR
 66
1
 10
0.00
 20
0.00
 30
0.00
 40
0.20
 41
0.20
  0
VERTEX
  8
ME_EC_PLATE_V4-EDGE_CUTS_GBR
 10
392.534268
 20
-117.649312
 30
0.00
  0
VERTEX
  8
ME_EC_PLATE_V4-EDGE_CUTS_GBR
 10
390.534268
 20
-117.649312
 30
0.00
  0
SEQEND
  0
POLYLINE
  8
ME_EC_PLATE_V4-EDGE_CUTS_GBR
 66
1
 10
0.00
 20
0.00
 30
0.00
 40
0.20
 41
0.20
  0
VERTEX
  8
ME_EC_PLATE_V4-EDGE_CUTS_GBR
 10
223.42506
 20
-70.503332
 30
0.00
  0
VERTEX
  8
ME_EC_PLATE_V4-EDGE_CUTS_GBR
 10
223.42506
 20
-71.503332
 30
0.00
  0
SEQEND
  0
POLYLINE
  8
ME_EC_PLATE_V4-EDGE_CUTS_GBR
 66
1
 10
0.00
 20
0.00
 30
0.00
 40
0.20
 41
0.20
  0
VERTEX
  8
ME_EC_PLATE_V4-EDGE_CUTS_GBR
 10
213.42506
 20
-198.753332
 30
0.00
  0
VERTEX
  8
ME_EC_PLATE_V4-EDGE_CUTS_GBR
 10
213.42506
 20
-197.753332
 30
0.00
  0
SEQEND
  0
POLYLINE
  8
ME_EC_PLATE_V4-EDGE_CUTS_GBR
 66
1
 10
0.00
 20
0.00
 30
0.00
 40
0.20
 41
0.20
  0
VERTEX
  8
ME_EC_PLATE_V4-EDGE_CUTS_GBR
 10
390.534268
 20
-151.649312
 30
0.00
  0
VERTEX
  8
ME_EC_PLATE_V4-EDGE_CUTS_GBR
 10
392.534268
 20
-151.649312
 30
0.00
  0
SEQEND
  0
POLYLINE
  8
ME_EC_PLATE_V4-EDGE_CUTS_GBR
 66
1
 10
0.00
 20
0.00
 30
0.00
 40
0.20
 41
0.20
  0
VERTEX
  8
ME_EC_PLATE_V4-EDGE_CUTS_GBR
 10
44.32506
 20
-145.149312
 30
0.00
  0
VERTEX
  8
ME_EC_PLATE_V4-EDGE_CUTS_GBR
 10
46.32506
 20
-145.149312
 30
0.00
  0
SEQEND
  0
POLYLINE
  8
ME_EC_PLATE_V4-EDGE_CUTS_GBR
 66
1
 10
0.00
 20
0.00
 30
0.00
 40
0.20
 41
0.20
  0
VERTEX
  8
ME_EC_PLATE_V4-EDGE_CUTS_GBR
 10
228.92506
 20
-75.956792
 30
0.00
  0
VERTEX
  8
ME_EC_PLATE_V4-EDGE_CUTS_GBR
 10
228.92506
 20
-73.503332
 30
0.00
  0
SEQEND
  0
POLYLINE
  8
ME_EC_PLATE_V4-EDGE_CUTS_GBR
 66
1
 10
0.00
 20
0.00
 30
0.00
 40
0.20
 41
0.20
  0
VERTEX
  8
ME_EC_PLATE_V4-EDGE_CUTS_GBR
 10
223.42506
 20
-198.753332
 30
0.00
  0
VERTEX
  8
ME_EC_PLATE_V4-EDGE_CUTS_GBR
 10
223.42506
 20
-197.753332
 30
0.00
  0
SEQEND
  0
POLYLINE
  8
ME_EC_PLATE_V4-EDGE_CUTS_GBR
 66
1
 10
0.00
 20
0.00
 30
0.00
 40
0.20
 41
0.20
  0
VERTEX
  8
ME_EC_PLATE_V4-EDGE_CUTS_GBR
 10
341.294268
 20
-137.2626
 30
0.00
  0
VERTEX
  8
ME_EC_PLATE_V4-EDGE_CUTS_GBR
 10
384.6312
 20
-137.2626
 30
0.00
  0
SEQEND
  0
POLYLINE
  8
ME_EC_PLATE_V4-EDGE_CUTS_GBR
 66
1
 10
0.00
 20
0.00
 30
0.00
 40
0.20
 41
0.20
  0
VERTEX
  8
ME_EC_PLATE_V4-EDGE_CUTS_GBR
 10
41.87506
 20
-139.649312
 30
0.00
  0
VERTEX
  8
ME_EC_PLATE_V4-EDGE_CUTS_GBR
 10
42.32506
 20
-139.649312
 30
0.00
  0
SEQEND
  0
POLYLINE
  8
ME_EC_PLATE_V4-EDGE_CUTS_GBR
 66
1
 10
0.00
 20
0.00
 30
0.00
 40
0.20
 41
0.20
  0
VERTEX
  8
ME_EC_PLATE_V4-EDGE_CUTS_GBR
 10
41.87506
 20
-129.649312
 30
0.00
  0
VERTEX
  8
ME_EC_PLATE_V4-EDGE_CUTS_GBR
 10
42.32506
 20
-129.649312
 30
0.00
  0
SEQEND
  0
POLYLINE
  8
ME_EC_PLATE_V4-EDGE_CUTS_GBR
 66
1
 10
0.00
 20
0.00
 30
0.00
 40
0.20
 41
0.20
  0
VERTEX
  8
ME_EC_PLATE_V4-EDGE_CUTS_GBR
 10
394.97506
 20
-139.649312
 30
0.00
  0
VERTEX
  8
ME_EC_PLATE_V4-EDGE_CUTS_GBR
 10
394.534268
 20
-139.649312
 30
0.00
  0
SEQEND
  0
POLYLINE
  8
ME_EC_PLATE_V4-EDGE_CUTS_GBR
 66
1
 10
0.00
 20
0.00
 30
0.00
 40
0.20
 41
0.20
  0
VERTEX
  8
ME_EC_PLATE_V4-EDGE_CUTS_GBR
 10
390.534268
 20
-145.149312
 30
0.00
  0
VERTEX
  8
ME_EC_PLATE_V4-EDGE_CUTS_GBR
 10
392.534268
 20
-145.149312
 30
0.00
  0
SEQEND
  0
POLYLINE
  8
ME_EC_PLATE_V4-EDGE_CUTS_GBR
 66
1
 10
0.00
 20
0.00
 30
0.00
 40
0.20
 41
0.20
  0
VERTEX
  8
ME_EC_PLATE_V4-EDGE_CUTS_GBR
 10
394.97506
 20
-129.649312
 30
0.00
  0
VERTEX
  8
ME_EC_PLATE_V4-EDGE_CUTS_GBR
 10
394.534268
 20
-129.649312
 30
0.00
  0
SEQEND
  0
POLYLINE
  8
ME_EC_PLATE_V4-EDGE_CUTS_GBR
 66
1
 10
0.00
 20
0.00
 30
0.00
 40
0.20
 41
0.20
  0
VERTEX
  8
ME_EC_PLATE_V4-EDGE_CUTS_GBR
 10
213.42506
 20
-70.503332
 30
0.00
  0
VERTEX
  8
ME_EC_PLATE_V4-EDGE_CUTS_GBR
 10
213.42506
 20
-71.503332
 30
0.00
  0
SEQEND
  0
POLYLINE
  8
ME_EC_PLATE_V4-EDGE_CUTS_GBR
 66
1
 10
0.00
 20
0.00
 30
0.00
 40
0.20
 41
0.20
  0
VERTEX
  8
ME_EC_PLATE_V4-EDGE_CUTS_GBR
 10
227.569966
 20
-195.753332
 30
0.00
  0
VERTEX
  8
ME_EC_PLATE_V4-EDGE_CUTS_GBR
 10
227.569966
 20
-193.213332
 30
0.00
  0
SEQEND
  0
POLYLINE
  8
ME_EC_PLATE_V4-EDGE_CUTS_GBR
 66
1
 10
0.00
 20
0.00
 30
0.00
 40
0.20
 41
0.20
  0
VERTEX
  8
ME_EC_PLATE_V4-EDGE_CUTS_GBR
 10
46.32506
 20
-176.020292
 30
0.00
  0
VERTEX
  8
ME_EC_PLATE_V4-EDGE_CUTS_GBR
 10
44.32506
 20
-176.020292
 30
0.00
  0
SEQEND
  0
POLYLINE
  8
ME_EC_PLATE_V4-EDGE_CUTS_GBR
 66
1
 10
0.00
 20
0.00
 30
0.00
 40
0.20
 41
0.20
  0
VERTEX
  8
ME_EC_PLATE_V4-EDGE_CUTS_GBR
 10
183.25408
 20
-193.213332
 30
0.00
  0
VERTEX
  8
ME_EC_PLATE_V4-EDGE_CUTS_GBR
 10
183.25408
 20
-195.753332
 30
0.00
  0
SEQEND
  0
POLYLINE
  8
ME_EC_PLATE_V4-EDGE_CUTS_GBR
 66
1
 10
0.00
 20
0.00
 30
0.00
 40
0.20
 41
0.20
  0
VERTEX
  8
ME_EC_PLATE_V4-EDGE_CUTS_GBR
 10
46.32506
 20
-151.649312
 30
0.00
  0
VERTEX
  8
ME_EC_PLATE_V4-EDGE_CUTS_GBR
 10
44.32506
 20
-151.649312
 30
0.00
  0
SEQEND
  0
POLYLINE
  8
ME_EC_PLATE_V4-EDGE_CUTS_GBR
 66
1
 10
0.00
 20
0.00
 30
0.00
 40
0.20
 41
0.20
  0
VERTEX
  8
ME_EC_PLATE_V4-EDGE_CUTS_GBR
 10
392.534268
 20
-176.020292
 30
0.00
  0
VERTEX
  8
ME_EC_PLATE_V4-EDGE_CUTS_GBR
 10
390.534268
 20
-176.020292
 30
0.00
  0
SEQEND
  0
POLYLINE
  8
ME_EC_PLATE_V4-EDGE_CUTS_GBR
 66
1
 10
0.00
 20
0.00
 30
0.00
 40
0.20
 41
0.20
  0
VERTEX
  8
ME_EC_PLATE_V4-EDGE_CUTS_GBR
 10
207.92506
 20
-193.213332
 30
0.00
  0
VERTEX
  8
ME_EC_PLATE_V4-EDGE_CUTS_GBR
 10
207.92506
 20
-195.753332
 30
0.00
  0
SEQEND
  0
POLYLINE
  8
ME_EC_PLATE_V4-EDGE_CUTS_GBR
 66
1
 10
0.00
 20
0.00
 30
0.00
 40
0.20
 41
0.20
  0
VERTEX
  8
ME_EC_PLATE_V4-EDGE_CUTS_GBR
 10
201.42506
 20
-73.503332
 30
0.00
  0
VERTEX
  8
ME_EC_PLATE_V4-EDGE_CUTS_GBR
 10
201.42506
 20
-75.956792
 30
0.00
  0
SEQEND
  0
POLYLINE
  8
ME_EC_PLATE_V4-EDGE_CUTS_GBR
 66
1
 10
0.00
 20
0.00
 30
0.00
 40
0.20
 41
0.20
  0
VERTEX
  8
ME_EC_PLATE_V4-EDGE_CUTS_GBR
 10
183.25408
 20
-75.956792
 30
0.00
  0
VERTEX
  8
ME_EC_PLATE_V4-EDGE_CUTS_GBR
 10
183.25408
 20
-73.503332
 30
0.00
  0
SEQEND
  0
POLYLINE
  8
ME_EC_PLATE_V4-EDGE_CUTS_GBR
 66
1
 10
0.00
 20
0.00
 30
0.00
 40
0.20
 41
0.20
  0
VERTEX
  8
ME_EC_PLATE_V4-EDGE_CUTS_GBR
 10
207.92506
 20
-73.503332
 30
0.00
  0
VERTEX
  8
ME_EC_PLATE_V4-EDGE_CUTS_GBR
 10
207.92506
 20
-75.956792
 30
0.00
  0
SEQEND
  0
POLYLINE
  8
ME_EC_PLATE_V4-EDGE_CUTS_GBR
 66
1
 10
0.00
 20
0.00
 30
0.00
 40
0.20
 41
0.20
  0
VERTEX
  8
ME_EC_PLATE_V4-EDGE_CUTS_GBR
 10
201.42506
 20
-195.753332
 30
0.00
  0
VERTEX
  8
ME_EC_PLATE_V4-EDGE_CUTS_GBR
 10
201.42506
 20
-193.213332
 30
0.00
  0
SEQEND
  0
POLYLINE
  8
ME_EC_PLATE_V4-EDGE_CUTS_GBR
 66
1
 10
0.00
 20
0.00
 30
0.00
 40
0.20
 41
0.20
  0
VERTEX
  8
ME_EC_PLATE_V4-EDGE_CUTS_GBR
 10
44.32506
 20
-169.520292
 30
0.00
  0
VERTEX
  8
ME_EC_PLATE_V4-EDGE_CUTS_GBR
 10
46.32506
 20
-169.520292
 30
0.00
  0
SEQEND
  0
POLYLINE
  8
ME_EC_PLATE_V4-EDGE_CUTS_GBR
 66
1
 10
0.00
 20
0.00
 30
0.00
 40
0.20
 41
0.20
  0
VERTEX
  8
ME_EC_PLATE_V4-EDGE_CUTS_GBR
 10
392.534268
 20
-169.520292
 30
0.00
  0
VERTEX
  8
ME_EC_PLATE_V4-EDGE_CUTS_GBR
 10
390.534268
 20
-169.520292
 30
0.00
  0
SEQEND
  0
INSERT
  2
ROUND_3
  8
ME_EC_PLATE_V4-NPTH_DRL
 10
48.2981
 20
-146.14398
 30
0.00
 41
1.00
 42
1.00
 50
0.00
  0
INSERT
  2
ROUND_3
  8
ME_EC_PLATE_V4-NPTH_DRL
 10
50.08626
 20
-184.17286
 30
0.00
 41
1.00
 42
1.00
 50
0.00
  0
INSERT
  2
ROUND_3
  8
ME_EC_PLATE_V4-NPTH_DRL
 10
64.3763
 20
-85.00618
 30
0.00
 41
1.00
 42
1.00
 50
0.00
  0
INSERT
  2
ROUND_3
  8
ME_EC_PLATE_V4-NPTH_DRL
 10
64.3763
 20
-108.1024
 30
0.00
 41
1.00
 42
1.00
 50
0.00
  0
INSERT
  2
ROUND_3
  8
ME_EC_PLATE_V4-NPTH_DRL
 10
69.10578
 20
-127.12446
 30
0.00
 41
1.00
 42
1.00
 50
0.00
  0
INSERT
  2
ROUND_3
  8
ME_EC_PLATE_V4-NPTH_DRL
 10
88.19388
 20
-165.1635
 30
0.00
 41
1.00
 42
1.00
 50
0.00
  0
INSERT
  2
ROUND_3
  8
ME_EC_PLATE_V4-NPTH_DRL
 10
116.41836
 20
-184.17286
 30
0.00
 41
1.00
 42
1.00
 50
0.00
  0
INSERT
  2
ROUND_3
  8
ME_EC_PLATE_V4-NPTH_DRL
 10
126.19482
 20
-165.1635
 30
0.00
 41
1.00
 42
1.00
 50
0.00
  0
INSERT
  2
ROUND_3
  8
ME_EC_PLATE_V4-NPTH_DRL
 10
135.74522
 20
-146.14398
 30
0.00
 41
1.00
 42
1.00
 50
0.00
  0
INSERT
  2
ROUND_3
  8
ME_EC_PLATE_V4-NPTH_DRL
 10
140.45438
 20
-108.1024
 30
0.00
 41
1.00
 42
1.00
 50
0.00
  0
INSERT
  2
ROUND_3
  8
ME_EC_PLATE_V4-NPTH_DRL
 10
149.91588
 20
-127.12446
 30
0.00
 41
1.00
 42
1.00
 50
0.00
  0
INSERT
  2
ROUND_3
  8
ME_EC_PLATE_V4-NPTH_DRL
 10
159.30118
 20
-188.67374
 30
0.00
 41
1.00
 42
1.00
 50
0.00
  0
INSERT
  2
ROUND_3
  8
ME_EC_PLATE_V4-NPTH_DRL
 10
164.12464
 20
-85.00618
 30
0.00
 41
1.00
 42
1.00
 50
0.00
  0
INSERT
  2
ROUND_3
  8
ME_EC_PLATE_V4-NPTH_DRL
 10
202.19416
 20
-165.1635
 30
0.00
 41
1.00
 42
1.00
 50
0.00
  0
INSERT
  2
ROUND_3
  8
ME_EC_PLATE_V4-NPTH_DRL
 10
211.76488
 20
-146.14398
 30
0.00
 41
1.00
 42
1.00
 50
0.00
  0
INSERT
  2
ROUND_3
  8
ME_EC_PLATE_V4-NPTH_DRL
 10
216.45118
 20
-188.67374
 30
0.00
 41
1.00
 42
1.00
 50
0.00
  0
INSERT
  2
ROUND_3
  8
ME_EC_PLATE_V4-NPTH_DRL
 10
216.535
 20
-108.1024
 30
0.00
 41
1.00
 42
1.00
 50
0.00
  0
INSERT
  2
ROUND_3
  8
ME_EC_PLATE_V4-NPTH_DRL
 10
225.99396
 20
-127.12446
 30
0.00
 41
1.00
 42
1.00
 50
0.00
  0
INSERT
  2
ROUND_3
  8
ME_EC_PLATE_V4-NPTH_DRL
 10
249.62612
 20
-85.00618
 30
0.00
 41
1.00
 42
1.00
 50
0.00
  0
INSERT
  2
ROUND_3
  8
ME_EC_PLATE_V4-NPTH_DRL
 10
259.18668
 20
-184.17286
 30
0.00
 41
1.00
 42
1.00
 50
0.00
  0
INSERT
  2
ROUND_3
  8
ME_EC_PLATE_V4-NPTH_DRL
 10
273.60626
 20
-108.1024
 30
0.00
 41
1.00
 42
1.00
 50
0.00
  0
INSERT
  2
ROUND_3
  8
ME_EC_PLATE_V4-NPTH_DRL
 10
278.19604
 20
-165.1635
 30
0.00
 41
1.00
 42
1.00
 50
0.00
  0
INSERT
  2
ROUND_3
  8
ME_EC_PLATE_V4-NPTH_DRL
 10
283.06522
 20
-127.12446
 30
0.00
 41
1.00
 42
1.00
 50
0.00
  0
INSERT
  2
ROUND_3
  8
ME_EC_PLATE_V4-NPTH_DRL
 10
287.78454
 20
-146.14398
 30
0.00
 41
1.00
 42
1.00
 50
0.00
  0
INSERT
  2
ROUND_3
  8
ME_EC_PLATE_V4-NPTH_DRL
 10
325.88962
 20
-127.12446
 30
0.00
 41
1.00
 42
1.00
 50
0.00
  0
INSERT
  2
ROUND_3
  8
ME_EC_PLATE_V4-NPTH_DRL
 10
330.03236
 20
-184.17286
 30
0.00
 41
1.00
 42
1.00
 50
0.00
  0
INSERT
  2
ROUND_3
  8
ME_EC_PLATE_V4-NPTH_DRL
 10
332.42504
 20
-85.00618
 30
0.00
 41
1.00
 42
1.00
 50
0.00
  0
INSERT
  2
ROUND_3
  8
ME_EC_PLATE_V4-NPTH_DRL
 10
334.44434
 20
-108.1278
 30
0.00
 41
1.00
 42
1.00
 50
0.00
  0
INSERT
  2
ROUND_3
  8
ME_EC_PLATE_V4-NPTH_DRL
 10
353.47402
 20
-165.2778
 30
0.00
 41
1.00
 42
1.00
 50
0.00
  0
INSERT
  2
ROUND_3
  8
ME_EC_PLATE_V4-NPTH_DRL
 10
372.48338
 20
-85.00618
 30
0.00
 41
1.00
 42
1.00
 50
0.00
  0
INSERT
  2
ROUND_3
  8
ME_EC_PLATE_V4-NPTH_DRL
 10
372.48338
 20
-127.14732
 30
0.00
 41
1.00
 42
1.00
 50
0.00
  0
INSERT
  2
ROUND_3
  8
ME_EC_PLATE_V4-NPTH_DRL
 10
372.49354
 20
-184.29732
 30
0.00
 41
1.00
 42
1.00
 50
0.00
  0
ENDSEC
  0
EOF
